  0
SECTION
  2
HEADER
  9
$ACADVER
  1
AC1009
  9
$INSBASE
 10
0.0
 20
0.0
 30
0.0
  9
$EXTMIN
 10
0.0
 20
0.0
 30
0.0
  9
$EXTMAX
 10
20000.0
 20
14000.0
 30
0.0
  9
$LIMMIN
 10
0.0
 20
0.0
  9
$LIMMAX
 10
9875.0
 20
6825.0
  9
$ORTHOMODE
 70
     0
  9
$REGENMODE
 70
     1
  9
$FILLMODE
 70
     1
  9
$QTEXTMODE
 70
     0
  9
$MIRRTEXT
 70
     0
  9
$DRAGMODE
 70
     2
  9
$LTSCALE
 40
125.0
  9
$OSMODE
 70
    33
  9
$ATTMODE
 70
     1
  9
$TEXTSIZE
 40
150.0
  9
$TRACEWID
 40
0.05
  9
$TEXTSTYLE
  7
K
  9
$CLAYER
  8
TEXT
  9
$CELTYPE
  6
BYLAYER
  9
$CECOLOR
 62
   256
  9
$DIMSCALE
 40
25.0
  9
$DIMASZ
 40
1.5
  9
$DIMEXO
 40
1.0
  9
$DIMDLI
 40
6.0
  9
$DIMRND
 40
0.0
  9
$DIMDLE
 40
0.0
  9
$DIMEXE
 40
1.0
  9
$DIMTP
 40
495.0
  9
$DIMTM
 40
0.0
  9
$DIMTXT
 40
3.0
  9
$DIMCEN
 40
0.0
  9
$DIMTSZ
 40
0.0
  9
$DIMTOL
 70
     0
  9
$DIMLIM
 70
     0
  9
$DIMTIH
 70
     0
  9
$DIMTOH
 70
     0
  9
$DIMSE1
 70
     0
  9
$DIMSE2
 70
     0
  9
$DIMTAD
 70
     1
  9
$DIMZIN
 70
     8
  9
$DIMBLK
  1
ARROW
  9
$DIMASO
 70
     0
  9
$DIMSHO
 70
     0
  9
$DIMPOST
  1

  9
$DIMAPOST
  1

  9
$DIMALT
 70
     0
  9
$DIMALTD
 70
     2
  9
$DIMALTF
 40
25.4
  9
$DIMLFAC
 40
1.0
  9
$DIMTOFL
 70
     1
  9
$DIMTVP
 40
0.0
  9
$DIMTIX
 70
     1
  9
$DIMSOXD
 70
     0
  9
$DIMSAH
 70
     0
  9
$DIMBLK1
  1

  9
$DIMBLK2
  1

  9
$DIMSTYLE
  2
*UNNAMED
  9
$DIMCLRD
 70
     0
  9
$DIMCLRE
 70
     0
  9
$DIMCLRT
 70
     0
  9
$DIMTFAC
 40
1.0
  9
$DIMGAP
 40
0.09
  9
$LUNITS
 70
     2
  9
$LUPREC
 70
     2
  9
$AXISMODE
 70
     1
  9
$AXISUNIT
 10
100.0
 20
100.0
  9
$SKETCHINC
 40
0.1
  9
$FILLETRAD
 40
10.0
  9
$AUNITS
 70
     0
  9
$AUPREC
 70
     2
  9
$MENU
  1
d:stdgx5
  9
$ELEVATION
 40
0.0
  9
$PELEVATION
 40
0.0
  9
$THICKNESS
 40
0.0
  9
$LIMCHECK
 70
     0
  9
$BLIPMODE
 70
     1
  9
$CHAMFERA
 40
0.0
  9
$CHAMFERB
 40
0.0
  9
$SKPOLY
 70
     0
  9
$TDCREATE
 40
2449293.366585648
  9
$TDUPDATE
 40
2450245.669629629
  9
$TDINDWG
 40
0.1998148148
  9
$TDUSRTIMER
 40
0.1998148148
  9
$USRTIMER
 70
     1
  9
$ANGBASE
 50
0.0
  9
$ANGDIR
 70
     0
  9
$PDMODE
 70
     0
  9
$PDSIZE
 40
0.0
  9
$PLINEWID
 40
0.0
  9
$COORDS
 70
     2
  9
$SPLFRAME
 70
     0
  9
$SPLINETYPE
 70
     6
  9
$SPLINESEGS
 70
     8
  9
$ATTDIA
 70
     0
  9
$ATTREQ
 70
     1
  9
$HANDLING
 70
     0
  9
$HANDSEED
  5
0
  9
$SURFTAB1
 70
     6
  9
$SURFTAB2
 70
     6
  9
$SURFTYPE
 70
     6
  9
$SURFU
 70
     6
  9
$SURFV
 70
     6
  9
$UCSNAME
  2

  9
$UCSORG
 10
0.0
 20
0.0
 30
0.0
  9
$UCSXDIR
 10
1.0
 20
0.0
 30
0.0
  9
$UCSYDIR
 10
0.0
 20
1.0
 30
0.0
  9
$PUCSNAME
  2

  9
$PUCSORG
 10
0.0
 20
0.0
 30
0.0
  9
$PUCSXDIR
 10
1.0
 20
0.0
 30
0.0
  9
$PUCSYDIR
 10
0.0
 20
1.0
 30
0.0
  9
$USERI1
 70
     3
  9
$USERI2
 70
    33
  9
$USERI3
 70
     0
  9
$USERI4
 70
     1
  9
$USERI5
 70
     0
  9
$USERR1
 40
25.0
  9
$USERR2
 40
3.0
  9
$USERR3
 40
3.0
  9
$USERR4
 40
1.5
  9
$USERR5
 40
10.0
  9
$WORLDVIEW
 70
     1
  9
$SHADEDGE
 70
     3
  9
$SHADEDIF
 70
    70
  9
$TILEMODE
 70
     1
  9
$MAXACTVP
 70
    16
  9
$PINSBASE
 10
0.0
 20
0.0
 30
0.0
  9
$PLIMCHECK
 70
     0
  9
$PEXTMIN
 10
1.000000E+20
 20
1.000000E+20
 30
1.000000E+20
  9
$PEXTMAX
 10
-1.000000E+20
 20
-1.000000E+20
 30
-1.000000E+20
  9
$PLIMMIN
 10
0.0
 20
0.0
  9
$PLIMMAX
 10
12.0
 20
9.0
  9
$UNITMODE
 70
     0
  9
$VISRETAIN
 70
     0
  0
ENDSEC
  0
SECTION
  2
TABLES
  0
TABLE
  2
VPORT
 70
    10
  0
VPORT
  2
*ACTIVE
 70
     0
 10
0.0
 20
0.0
 11
1.0
 21
1.0
 12
5576.263114
 22
3412.5
 13
0.0
 23
0.0
 14
1.0
 24
1.0
 15
10.0
 25
10.0
 16
0.0
 26
0.0
 36
1.0
 17
0.0
 27
0.0
 37
0.0
 40
6825.0
 41
1.63407
 42
50.0
 43
0.0
 44
0.0
 50
0.0
 51
0.0
 71
     0
 72
   500
 73
     1
 74
     0
 75
     0
 76
     0
 77
     0
 78
     0
  0
VPORT
  2
2
 70
     0
 10
0.5
 20
0.0
 11
1.0
 21
1.0
 12
0.924031
 22
1.052651
 13
0.0
 23
0.0
 14
1.0
 24
1.0
 15
10.0
 25
10.0
 16
0.0
 26
0.0
 36
1.0
 17
0.0
 27
0.0
 37
0.0
 40
2.105302
 41
0.877814
 42
50.0
 43
0.0
 44
0.0
 50
0.0
 51
0.0
 71
     0
 72
   500
 73
     1
 74
     1
 75
     0
 76
     0
 77
     0
 78
     0
  0
VPORT
  2
2
 70
     0
 10
0.0
 20
0.0
 11
0.5
 21
1.0
 12
0.924031
 22
1.052651
 13
0.0
 23
0.0
 14
1.0
 24
1.0
 15
10.0
 25
10.0
 16
0.0
 26
0.0
 36
1.0
 17
0.0
 27
0.0
 37
0.0
 40
2.105302
 41
0.877814
 42
50.0
 43
0.0
 44
0.0
 50
0.0
 51
0.0
 71
     0
 72
   500
 73
     1
 74
     1
 75
     0
 76
     0
 77
     0
 78
     0
  0
VPORT
  2
3
 70
     0
 10
0.0
 20
0.5
 11
1.0
 21
1.0
 12
2.83217
 22
1.052651
 13
0.0
 23
0.0
 14
1.0
 24
1.0
 15
10.0
 25
10.0
 16
0.0
 26
0.0
 36
1.0
 17
0.0
 27
0.0
 37
0.0
 40
2.105302
 41
3.571429
 42
50.0
 43
0.0
 44
0.0
 50
0.0
 51
0.0
 71
     0
 72
   500
 73
     1
 74
     1
 75
     0
 76
     0
 77
     0
 78
     0
  0
VPORT
  2
3
 70
     0
 10
0.0
 20
0.0
 11
1.0
 21
0.5
 12
2.856742
 22
1.052651
 13
0.0
 23
0.0
 14
1.0
 24
1.0
 15
10.0
 25
10.0
 16
0.0
 26
0.0
 36
1.0
 17
0.0
 27
0.0
 37
0.0
 40
2.105302
 41
3.594771
 42
50.0
 43
0.0
 44
0.0
 50
0.0
 51
0.0
 71
     0
 72
   500
 73
     1
 74
     1
 75
     0
 76
     0
 77
     0
 78
     0
  0
VPORT
  2
4
 70
     0
 10
0.5
 20
0.0
 11
1.0
 21
0.5
 12
2.886858
 22
1.052651
 13
0.0
 23
0.0
 14
1.0
 24
1.0
 15
10.0
 25
10.0
 16
0.0
 26
0.0
 36
1.0
 17
0.0
 27
0.0
 37
0.0
 40
4.275207
 41
1.784314
 42
50.0
 43
0.0
 44
0.0
 50
0.0
 51
0.0
 71
     0
 72
   500
 73
     1
 74
     1
 75
     0
 76
     0
 77
     0
 78
     0
  0
VPORT
  2
4
 70
     0
 10
0.5
 20
0.5
 11
1.0
 21
1.0
 12
2.86209
 22
1.052651
 13
0.0
 23
0.0
 14
1.0
 24
1.0
 15
10.0
 25
10.0
 16
0.0
 26
0.0
 36
1.0
 17
0.0
 27
0.0
 37
0.0
 40
4.275207
 41
1.772727
 42
50.0
 43
0.0
 44
0.0
 50
0.0
 51
0.0
 71
     0
 72
   500
 73
     1
 74
     1
 75
     0
 76
     0
 77
     0
 78
     0
  0
VPORT
  2
4
 70
     0
 10
0.0
 20
0.5
 11
0.5
 21
1.0
 12
2.86209
 22
1.052651
 13
0.0
 23
0.0
 14
1.0
 24
1.0
 15
10.0
 25
10.0
 16
0.0
 26
0.0
 36
1.0
 17
0.0
 27
0.0
 37
0.0
 40
4.275207
 41
1.772727
 42
50.0
 43
0.0
 44
0.0
 50
0.0
 51
0.0
 71
     0
 72
   500
 73
     1
 74
     1
 75
     0
 76
     0
 77
     0
 78
     0
  0
VPORT
  2
4
 70
     0
 10
0.0
 20
0.0
 11
0.5
 21
0.5
 12
2.886858
 22
1.052651
 13
0.0
 23
0.0
 14
1.0
 24
1.0
 15
10.0
 25
10.0
 16
0.0
 26
0.0
 36
1.0
 17
0.0
 27
0.0
 37
0.0
 40
4.275207
 41
1.784314
 42
50.0
 43
0.0
 44
0.0
 50
0.0
 51
0.0
 71
     0
 72
   500
 73
     1
 74
     1
 75
     0
 76
     0
 77
     0
 78
     0
  0
ENDTAB
  0
TABLE
  2
LTYPE
 70
     5
  0
LTYPE
  2
CONTINUOUS
 70
    64
  3
実線
 72
    65
 73
     0
 40
0.0
  0
LTYPE
  2
DASHED
 70
    64
  3
__ __ __ __ __ __ __ __ __ __ __ __ __ __ __
 72
    65
 73
     2
 40
0.75
 49
0.5
 49
-0.25
  0
LTYPE
  2
CENTER
 70
    64
  3
____ _ ____ _ ____ _ ____ _ ____ _ ____ _ ____
 72
    65
 73
     4
 40
2.0
 49
1.25
 49
-0.25
 49
0.25
 49
-0.25
  0
LTYPE
  2
PHANTOM
 70
    64
  3
_____ _ _ _____ _ _ _____ _ _ _____ _ _ ____
 72
    65
 73
     6
 40
2.5
 49
1.25
 49
-0.25
 49
0.25
 49
-0.25
 49
0.25
 49
-0.25
  0
LTYPE
  2
HIDDEN
 70
    64
  3
_ _ _ _ _ _ _ _ _ _ _ _ _ _ _ _ _ _ _ _ _ _ _
 72
    65
 73
     2
 40
0.375
 49
0.25
 49
-0.125
  0
ENDTAB
  0
TABLE
  2
LAYER
 70
    14
  0
LAYER
  2
0
 70
    64
 62
     7
  6
CONTINUOUS
  0
LAYER
  2
HASEN
 70
    64
 62
     2
  6
DASHED
  0
LAYER
  2
ITTEN
 70
    64
 62
     1
  6
CENTER
  0
LAYER
  2
HATCH
 70
    64
 62
     4
  6
CONTINUOUS
  0
LAYER
  2
SUNPOU
 70
    64
 62
     3
  6
CONTINUOUS
  0
LAYER
  2
TEXT
 70
    64
 62
     3
  6
CONTINUOUS
  0
LAYER
  2
SAISEN
 70
    64
 62
     4
  6
CONTINUOUS
  0
LAYER
  2
JISSEN
 70
    64
 62
     7
  6
CONTINUOUS
  0
LAYER
  2
WAKU
 70
    64
 62
    -5
  6
CONTINUOUS
  0
ENDTAB
  0
TABLE
  2
STYLE
 70
     2
  0
STYLE
  2
STANDARD
 70
     0
 40
0.0
 41
1.0
 50
0.0
 71
     0
 42
0.2
  3
ROMANS
  4
EXTFONT
  0
STYLE
  2
K
 70
    64
 40
0.0
 41
1.0
 50
0.0
 71
     0
 42
150.0
  3
ROMANS
  4
EXTFONT
  0
ENDTAB
  0
TABLE
  2
VIEW
 70
     0
  0
ENDTAB
  0
TABLE
  2
UCS
 70
     0
  0
ENDTAB
  0
TABLE
  2
APPID
 70
     1
  0
APPID
  2
ACAD
 70
    64
  0
ENDTAB
  0
TABLE
  2
DIMSTYLE
 70
     0
  0
ENDTAB
  0
ENDSEC
  0
SECTION
  2
BLOCKS
  0
BLOCK
  8
SUNPOU
  2
ARROWANG
 70
    64
 10
0.0
 20
0.0
 30
0.0
  3
ARROWANG
  0
LINE
  8
SUNPOU
 10
0.0
 20
0.0
 30
0.0
 11
-1.5
 21
0.401924
 31
0.0
  0
LINE
  8
SUNPOU
 10
0.0
 20
0.0
 30
0.0
 11
-1.5
 21
-0.401924
 31
0.0
  0
ENDBLK
  8
SUNPOU
  0
BLOCK
  8
HATCH
  2
*X1
 70
    65
 10
0.0
 20
0.0
 30
0.0
  3
*X
  0
LINE
  8
0
 62
     0
 10
3004.453209
 20
12022.023622
 30
0.0
 11
3009.274116
 21
12027.768955
 31
0.0
  0
LINE
  8
0
 62
     0
 10
3062.304094
 20
12090.967622
 30
0.0
 11
3067.125001
 21
12096.712955
 31
0.0
  0
LINE
  8
0
 62
     0
 10
3120.154979
 20
12159.911622
 30
0.0
 11
3124.975886
 21
12165.656955
 31
0.0
  0
LINE
  8
0
 62
     0
 10
3178.005863
 20
12228.855622
 30
0.0
 11
3182.82677
 21
12234.600955
 31
0.0
  0
LINE
  8
0
 62
     0
 10
3235.856748
 20
12297.799622
 30
0.0
 11
3240.677655
 21
12303.544955
 31
0.0
  0
LINE
  8
0
 62
     0
 10
3293.707633
 20
12366.743621
 30
0.0
 11
3298.52854
 21
12372.488955
 31
0.0
  0
LINE
  8
0
 62
     0
 10
3351.558518
 20
12435.687621
 30
0.0
 11
3356.379425
 21
12441.432955
 31
0.0
  0
LINE
  8
0
 62
     0
 10
3080.696312
 20
12021.131661
 30
0.0
 11
3081.000134
 21
12021.493742
 31
0.0
  0
LINE
  8
0
 62
     0
 10
3134.030112
 20
12084.692408
 30
0.0
 11
3138.851019
 21
12090.437742
 31
0.0
  0
LINE
  8
0
 62
     0
 10
3191.880997
 20
12153.636408
 30
0.0
 11
3196.701904
 21
12159.381742
 31
0.0
  0
LINE
  8
0
 62
     0
 10
3249.731882
 20
12222.580408
 30
0.0
 11
3254.552789
 21
12228.325742
 31
0.0
  0
LINE
  8
0
 62
     0
 10
3307.582767
 20
12291.524408
 30
0.0
 11
3312.403674
 21
12297.269741
 31
0.0
  0
LINE
  8
0
 62
     0
 10
3365.433651
 20
12360.468408
 30
0.0
 11
3370.254558
 21
12366.213741
 31
0.0
  0
LINE
  8
0
 62
     0
 10
3423.284536
 20
12429.412408
 30
0.0
 11
3428.105443
 21
12435.157741
 31
0.0
  0
LINE
  8
0
 62
     0
 10
3205.75613
 20
12078.417195
 30
0.0
 11
3210.577037
 21
12084.162528
 31
0.0
  0
LINE
  8
0
 62
     0
 10
3263.607015
 20
12147.361195
 30
0.0
 11
3268.427922
 21
12153.106528
 31
0.0
  0
LINE
  8
0
 62
     0
 10
3321.4579
 20
12216.305195
 30
0.0
 11
3326.278807
 21
12222.050528
 31
0.0
  0
LINE
  8
0
 62
     0
 10
3379.308785
 20
12285.249195
 30
0.0
 11
3384.129692
 21
12290.994528
 31
0.0
  0
LINE
  8
0
 62
     0
 10
3437.15967
 20
12354.193194
 30
0.0
 11
3441.980577
 21
12359.938528
 31
0.0
  0
LINE
  8
0
 62
     0
 10
3495.010555
 20
12423.137194
 30
0.0
 11
3499.831462
 21
12428.882528
 31
0.0
  0
LINE
  8
0
 62
     0
 10
3277.482148
 20
12072.141981
 30
0.0
 11
3282.303056
 21
12077.887315
 31
0.0
  0
LINE
  8
0
 62
     0
 10
3335.333033
 20
12141.085981
 30
0.0
 11
3340.15394
 21
12146.831315
 31
0.0
  0
LINE
  8
0
 62
     0
 10
3393.183918
 20
12210.029981
 30
0.0
 11
3398.004825
 21
12215.775315
 31
0.0
  0
LINE
  8
0
 62
     0
 10
3451.034803
 20
12278.973981
 30
0.0
 11
3455.85571
 21
12284.719314
 31
0.0
  0
LINE
  8
0
 62
     0
 10
3508.885688
 20
12347.917981
 30
0.0
 11
3513.706595
 21
12353.663314
 31
0.0
  0
LINE
  8
0
 62
     0
 10
3464.909936
 20
12203.754768
 30
0.0
 11
3469.730844
 21
12209.500101
 31
0.0
  0
LINE
  8
0
 62
     0
 10
3522.760821
 20
12272.698768
 30
0.0
 11
3527.581728
 21
12278.444101
 31
0.0
  0
LINE
  8
0
 62
     0
 10
3536.635955
 20
12197.479554
 30
0.0
 11
3541.400458
 21
12203.157668
 31
0.0
  0
LINE
  8
0
 62
     0
 10
2991.400458
 20
12098.222913
 30
0.0
 11
2995.398982
 21
12102.988169
 31
0.0
  0
LINE
  8
0
 62
     0
 10
3048.42896
 20
12166.186835
 30
0.0
 11
3053.249867
 21
12171.932169
 31
0.0
  0
LINE
  8
0
 62
     0
 10
3106.279845
 20
12235.130835
 30
0.0
 11
3111.100752
 21
12240.876169
 31
0.0
  0
LINE
  8
0
 62
     0
 10
3164.13073
 20
12304.074835
 30
0.0
 11
3168.951637
 21
12309.820168
 31
0.0
  0
LINE
  8
0
 62
     0
 10
2976.702942
 20
12172.462049
 30
0.0
 11
2981.523849
 21
12178.207382
 31
0.0
  0
LINE
  8
0
 62
     0
 10
3034.553827
 20
12241.406049
 30
0.0
 11
3039.374734
 21
12247.151382
 31
0.0
  0
LINE
  8
0
 62
     0
 10
3092.404712
 20
12310.350049
 30
0.0
 11
3097.225619
 21
12316.095382
 31
0.0
  0
LINE
  8
0
 62
     0
 10
2904.976924
 20
12178.737262
 30
0.0
 11
2909.797831
 21
12184.482596
 31
0.0
  0
LINE
  8
0
 62
     0
 10
2962.827809
 20
12247.681262
 30
0.0
 11
2967.648716
 21
12253.426595
 31
0.0
  0
LINE
  8
0
 62
     0
 10
3020.678693
 20
12316.625262
 30
0.0
 11
3025.499601
 21
12322.370595
 31
0.0
  0
LINE
  8
0
 62
     0
 10
2833.250905
 20
12185.012476
 30
0.0
 11
2838.071813
 21
12190.757809
 31
0.0
  0
LINE
  8
0
 62
     0
 10
2891.10179
 20
12253.956476
 30
0.0
 11
2895.922697
 21
12259.701809
 31
0.0
  0
LINE
  8
0
 62
     0
 10
2948.952675
 20
12322.900476
 30
0.0
 11
2953.773582
 21
12328.645809
 31
0.0
  0
LINE
  8
0
 62
     0
 10
3006.80356
 20
12391.844475
 30
0.0
 11
3011.624467
 21
12397.589809
 31
0.0
  0
LINE
  8
0
 62
     0
 10
2819.375772
 20
12260.231689
 30
0.0
 11
2824.196679
 21
12265.977022
 31
0.0
  0
LINE
  8
0
 62
     0
 10
2877.226657
 20
12329.175689
 30
0.0
 11
2882.047564
 21
12334.921022
 31
0.0
  0
LINE
  8
0
 62
     0
 10
2935.077542
 20
12398.119689
 30
0.0
 11
2939.898449
 21
12403.865022
 31
0.0
  0
LINE
  8
0
 62
     0
 10
2805.500639
 20
12335.450903
 30
0.0
 11
2810.321546
 21
12341.196236
 31
0.0
  0
LINE
  8
0
 62
     0
 10
2863.351524
 20
12404.394902
 30
0.0
 11
2868.172431
 21
12410.140236
 31
0.0
  0
LINE
  8
0
 62
     0
 10
2791.625505
 20
12410.670116
 30
0.0
 11
2796.446412
 21
12416.415449
 31
0.0
  0
LINE
  8
0
 62
     0
 10
2819.375777
 20
12260.231689
 30
0.0
 11
2825.352945
 21
12259.708755
 31
0.0
  0
LINE
  8
0
 62
     0
 10
2891.101795
 20
12253.956476
 30
0.0
 11
2897.078963
 21
12253.433541
 31
0.0
  0
LINE
  8
0
 62
     0
 10
2962.827813
 20
12247.681262
 30
0.0
 11
2968.804982
 21
12247.158328
 31
0.0
  0
LINE
  8
0
 62
     0
 10
3034.553832
 20
12241.406049
 30
0.0
 11
3040.531
 21
12240.883114
 31
0.0
  0
LINE
  8
0
 62
     0
 10
3106.27985
 20
12235.130835
 30
0.0
 11
3112.257018
 21
12234.607901
 31
0.0
  0
LINE
  8
0
 62
     0
 10
3178.005868
 20
12228.855622
 30
0.0
 11
3183.983036
 21
12228.332687
 31
0.0
  0
LINE
  8
0
 62
     0
 10
3249.731886
 20
12222.580408
 30
0.0
 11
3255.709055
 21
12222.057474
 31
0.0
  0
LINE
  8
0
 62
     0
 10
3321.457905
 20
12216.305195
 30
0.0
 11
3327.435073
 21
12215.78226
 31
0.0
  0
LINE
  8
0
 62
     0
 10
3393.183923
 20
12210.029981
 30
0.0
 11
3399.161091
 21
12209.507047
 31
0.0
  0
LINE
  8
0
 62
     0
 10
3464.909941
 20
12203.754768
 30
0.0
 11
3470.887109
 21
12203.231833
 31
0.0
  0
LINE
  8
0
 62
     0
 10
3536.635959
 20
12197.479554
 30
0.0
 11
3541.400458
 21
12197.062715
 31
0.0
  0
LINE
  8
0
 62
     0
 10
2805.500643
 20
12335.450902
 30
0.0
 11
2811.477812
 21
12334.927968
 31
0.0
  0
LINE
  8
0
 62
     0
 10
2877.226662
 20
12329.175689
 30
0.0
 11
2883.20383
 21
12328.652755
 31
0.0
  0
LINE
  8
0
 62
     0
 10
2948.95268
 20
12322.900476
 30
0.0
 11
2954.929848
 21
12322.377541
 31
0.0
  0
LINE
  8
0
 62
     0
 10
3020.678698
 20
12316.625262
 30
0.0
 11
3026.655866
 21
12316.102328
 31
0.0
  0
LINE
  8
0
 62
     0
 10
3092.404717
 20
12310.350049
 30
0.0
 11
3098.381885
 21
12309.827114
 31
0.0
  0
LINE
  8
0
 62
     0
 10
3164.130735
 20
12304.074835
 30
0.0
 11
3170.107903
 21
12303.551901
 31
0.0
  0
LINE
  8
0
 62
     0
 10
3235.856753
 20
12297.799622
 30
0.0
 11
3241.833921
 21
12297.276687
 31
0.0
  0
LINE
  8
0
 62
     0
 10
3307.582771
 20
12291.524408
 30
0.0
 11
3313.55994
 21
12291.001474
 31
0.0
  0
LINE
  8
0
 62
     0
 10
3379.30879
 20
12285.249195
 30
0.0
 11
3385.285958
 21
12284.72626
 31
0.0
  0
LINE
  8
0
 62
     0
 10
3451.034808
 20
12278.973981
 30
0.0
 11
3457.011976
 21
12278.451047
 31
0.0
  0
LINE
  8
0
 62
     0
 10
3522.760826
 20
12272.698768
 30
0.0
 11
3528.737994
 21
12272.175833
 31
0.0
  0
LINE
  8
0
 62
     0
 10
2791.62551
 20
12410.670116
 30
0.0
 11
2797.602678
 21
12410.147181
 31
0.0
  0
LINE
  8
0
 62
     0
 10
2863.351528
 20
12404.394902
 30
0.0
 11
2869.328697
 21
12403.871968
 31
0.0
  0
LINE
  8
0
 62
     0
 10
2935.077547
 20
12398.119689
 30
0.0
 11
2941.054715
 21
12397.596754
 31
0.0
  0
LINE
  8
0
 62
     0
 10
3006.803565
 20
12391.844475
 30
0.0
 11
3012.780733
 21
12391.321541
 31
0.0
  0
LINE
  8
0
 62
     0
 10
3293.707638
 20
12366.743622
 30
0.0
 11
3299.684806
 21
12366.220687
 31
0.0
  0
LINE
  8
0
 62
     0
 10
3365.433656
 20
12360.468408
 30
0.0
 11
3371.410824
 21
12359.945474
 31
0.0
  0
LINE
  8
0
 62
     0
 10
3437.159674
 20
12354.193195
 30
0.0
 11
3443.136843
 21
12353.67026
 31
0.0
  0
LINE
  8
0
 62
     0
 10
3508.885693
 20
12347.917981
 30
0.0
 11
3514.862861
 21
12347.395047
 31
0.0
  0
LINE
  8
0
 62
     0
 10
3351.558523
 20
12435.687621
 30
0.0
 11
3357.535691
 21
12435.164687
 31
0.0
  0
LINE
  8
0
 62
     0
 10
3423.284541
 20
12429.412408
 30
0.0
 11
3429.261709
 21
12428.889473
 31
0.0
  0
LINE
  8
0
 62
     0
 10
3495.010559
 20
12423.137194
 30
0.0
 11
3500.987728
 21
12422.61426
 31
0.0
  0
LINE
  8
0
 62
     0
 10
2833.25091
 20
12185.012476
 30
0.0
 11
2839.228078
 21
12184.489541
 31
0.0
  0
LINE
  8
0
 62
     0
 10
2904.976928
 20
12178.737262
 30
0.0
 11
2910.954097
 21
12178.214328
 31
0.0
  0
LINE
  8
0
 62
     0
 10
2976.702947
 20
12172.462049
 30
0.0
 11
2982.680115
 21
12171.939114
 31
0.0
  0
LINE
  8
0
 62
     0
 10
3048.428965
 20
12166.186835
 30
0.0
 11
3054.406133
 21
12165.663901
 31
0.0
  0
LINE
  8
0
 62
     0
 10
3120.154983
 20
12159.911622
 30
0.0
 11
3126.132151
 21
12159.388687
 31
0.0
  0
LINE
  8
0
 62
     0
 10
3191.881002
 20
12153.636408
 30
0.0
 11
3197.85817
 21
12153.113474
 31
0.0
  0
LINE
  8
0
 62
     0
 10
3263.60702
 20
12147.361195
 30
0.0
 11
3269.584188
 21
12146.83826
 31
0.0
  0
LINE
  8
0
 62
     0
 10
3335.333038
 20
12141.085981
 30
0.0
 11
3341.310206
 21
12140.563047
 31
0.0
  0
LINE
  8
0
 62
     0
 10
2991.400458
 20
12097.170887
 30
0.0
 11
2996.555248
 21
12096.719901
 31
0.0
  0
LINE
  8
0
 62
     0
 10
3062.304098
 20
12090.967622
 30
0.0
 11
3068.281267
 21
12090.444687
 31
0.0
  0
LINE
  8
0
 62
     0
 10
3134.030117
 20
12084.692408
 30
0.0
 11
3140.007285
 21
12084.169474
 31
0.0
  0
LINE
  8
0
 62
     0
 10
3205.756135
 20
12078.417195
 30
0.0
 11
3211.733303
 21
12077.894261
 31
0.0
  0
LINE
  8
0
 62
     0
 10
3277.482153
 20
12072.141982
 30
0.0
 11
3283.459321
 21
12071.619047
 31
0.0
  0
LINE
  8
0
 62
     0
 10
3004.453213
 20
12022.023622
 30
0.0
 11
3010.430382
 21
12021.500688
 31
0.0
  0
LINE
  8
0
 62
     0
 10
3140.016679
 20
12084.166972
 30
0.0
 11
3138.860422
 21
12090.435241
 31
0.0
  0
LINE
  8
0
 62
     0
 10
3126.141604
 20
12159.386196
 30
0.0
 11
3124.985348
 21
12165.654465
 31
0.0
  0
LINE
  8
0
 62
     0
 10
3112.266529
 20
12234.60542
 30
0.0
 11
3111.110273
 21
12240.873689
 31
0.0
  0
LINE
  8
0
 62
     0
 10
3098.391455
 20
12309.824644
 30
0.0
 11
3097.235199
 21
12316.092913
 31
0.0
  0
LINE
  8
0
 62
     0
 10
3211.742691
 20
12077.891702
 30
0.0
 11
3210.586435
 21
12084.159971
 31
0.0
  0
LINE
  8
0
 62
     0
 10
3197.867617
 20
12153.110926
 30
0.0
 11
3196.711361
 21
12159.379195
 31
0.0
  0
LINE
  8
0
 62
     0
 10
3183.992542
 20
12228.33015
 30
0.0
 11
3182.836286
 21
12234.598419
 31
0.0
  0
LINE
  8
0
 62
     0
 10
3170.117468
 20
12303.549375
 30
0.0
 11
3168.961211
 21
12309.817643
 31
0.0
  0
LINE
  8
0
 62
     0
 10
3283.468704
 20
12071.616433
 30
0.0
 11
3282.312448
 21
12077.884701
 31
0.0
  0
LINE
  8
0
 62
     0
 10
3269.59363
 20
12146.835657
 30
0.0
 11
3268.437373
 21
12153.103925
 31
0.0
  0
LINE
  8
0
 62
     0
 10
3255.718555
 20
12222.054881
 30
0.0
 11
3254.562299
 21
12228.323149
 31
0.0
  0
LINE
  8
0
 62
     0
 10
3241.84348
 20
12297.274105
 30
0.0
 11
3240.687224
 21
12303.542373
 31
0.0
  0
LINE
  8
0
 62
     0
 10
3341.319642
 20
12140.560387
 30
0.0
 11
3340.163386
 21
12146.828655
 31
0.0
  0
LINE
  8
0
 62
     0
 10
3327.444568
 20
12215.779611
 30
0.0
 11
3326.288312
 21
12222.047879
 31
0.0
  0
LINE
  8
0
 62
     0
 10
3313.569493
 20
12290.998835
 30
0.0
 11
3312.413237
 21
12297.267103
 31
0.0
  0
LINE
  8
0
 62
     0
 10
3299.694419
 20
12366.218059
 30
0.0
 11
3298.538162
 21
12372.486327
 31
0.0
  0
LINE
  8
0
 62
     0
 10
3399.170581
 20
12209.504341
 30
0.0
 11
3398.014324
 21
12215.772609
 31
0.0
  0
LINE
  8
0
 62
     0
 10
3385.295506
 20
12284.723565
 30
0.0
 11
3384.13925
 21
12290.991834
 31
0.0
  0
LINE
  8
0
 62
     0
 10
3371.420431
 20
12359.942789
 30
0.0
 11
3370.264175
 21
12366.211058
 31
0.0
  0
LINE
  8
0
 62
     0
 10
3357.545357
 20
12435.162013
 30
0.0
 11
3356.3891
 21
12441.430282
 31
0.0
  0
LINE
  8
0
 62
     0
 10
3470.896593
 20
12203.229071
 30
0.0
 11
3469.740337
 21
12209.49734
 31
0.0
  0
LINE
  8
0
 62
     0
 10
3457.021519
 20
12278.448295
 30
0.0
 11
3455.865263
 21
12284.716564
 31
0.0
  0
LINE
  8
0
 62
     0
 10
3443.146444
 20
12353.667519
 30
0.0
 11
3441.990188
 21
12359.935788
 31
0.0
  0
LINE
  8
0
 62
     0
 10
3429.271369
 20
12428.886743
 30
0.0
 11
3428.115113
 21
12435.155012
 31
0.0
  0
LINE
  8
0
 62
     0
 10
3528.747531
 20
12272.173025
 30
0.0
 11
3527.591275
 21
12278.441294
 31
0.0
  0
LINE
  8
0
 62
     0
 10
3514.872457
 20
12347.392249
 30
0.0
 11
3513.716201
 21
12353.660518
 31
0.0
  0
LINE
  8
0
 62
     0
 10
3500.997382
 20
12422.611473
 30
0.0
 11
3499.841126
 21
12428.879742
 31
0.0
  0
LINE
  8
0
 62
     0
 10
3081.075821
 20
12021.131661
 30
0.0
 11
3081.009484
 21
12021.491287
 31
0.0
  0
LINE
  8
0
 62
     0
 10
3068.290666
 20
12090.442242
 30
0.0
 11
3067.13441
 21
12096.710511
 31
0.0
  0
LINE
  8
0
 62
     0
 10
3054.415591
 20
12165.661466
 30
0.0
 11
3053.259335
 21
12171.929735
 31
0.0
  0
LINE
  8
0
 62
     0
 10
3040.540517
 20
12240.88069
 30
0.0
 11
3039.38426
 21
12247.148959
 31
0.0
  0
LINE
  8
0
 62
     0
 10
3026.665442
 20
12316.099914
 30
0.0
 11
3025.509186
 21
12322.368183
 31
0.0
  0
LINE
  8
0
 62
     0
 10
3012.790367
 20
12391.319138
 30
0.0
 11
3011.634111
 21
12397.587407
 31
0.0
  0
LINE
  8
0
 62
     0
 10
3010.439728
 20
12021.498288
 30
0.0
 11
3009.283471
 21
12027.766556
 31
0.0
  0
LINE
  8
0
 62
     0
 10
2996.564653
 20
12096.717512
 30
0.0
 11
2995.408397
 21
12102.98578
 31
0.0
  0
LINE
  8
0
 62
     0
 10
2982.689578
 20
12171.936736
 30
0.0
 11
2981.533322
 21
12178.205004
 31
0.0
  0
LINE
  8
0
 62
     0
 10
2968.814504
 20
12247.15596
 30
0.0
 11
2967.658248
 21
12253.424228
 31
0.0
  0
LINE
  8
0
 62
     0
 10
2954.939429
 20
12322.375184
 30
0.0
 11
2953.783173
 21
12328.643452
 31
0.0
  0
LINE
  8
0
 62
     0
 10
2941.064355
 20
12397.594408
 30
0.0
 11
2939.908098
 21
12403.862676
 31
0.0
  0
LINE
  8
0
 62
     0
 10
2910.963566
 20
12178.212006
 30
0.0
 11
2909.807309
 21
12184.480274
 31
0.0
  0
LINE
  8
0
 62
     0
 10
2897.088491
 20
12253.43123
 30
0.0
 11
2895.932235
 21
12259.699498
 31
0.0
  0
LINE
  8
0
 62
     0
 10
2883.213416
 20
12328.650454
 30
0.0
 11
2882.05716
 21
12334.918722
 31
0.0
  0
LINE
  8
0
 62
     0
 10
2869.338342
 20
12403.869678
 30
0.0
 11
2868.182086
 21
12410.137946
 31
0.0
  0
LINE
  8
0
 62
     0
 10
2839.237553
 20
12184.487276
 30
0.0
 11
2838.081297
 21
12190.755544
 31
0.0
  0
LINE
  8
0
 62
     0
 10
2825.362478
 20
12259.7065
 30
0.0
 11
2824.206222
 21
12265.974768
 31
0.0
  0
LINE
  8
0
 62
     0
 10
2811.487404
 20
12334.925724
 30
0.0
 11
2810.331147
 21
12341.193992
 31
0.0
  0
LINE
  8
0
 62
     0
 10
2797.612329
 20
12410.144948
 30
0.0
 11
2796.456073
 21
12416.413216
 31
0.0
  0
LINE
  8
0
 62
     0
 10
3104.25055
 20
12072.209527
 30
0.0
 11
3112.0394
 21
12080.327182
 31
0.0
  0
LINE
  8
0
 62
     0
 10
3197.716745
 20
12169.621387
 30
0.0
 11
3205.505594
 21
12177.739042
 31
0.0
  0
LINE
  8
0
 62
     0
 10
3291.182939
 20
12267.033247
 30
0.0
 11
3298.971789
 21
12275.150902
 31
0.0
  0
LINE
  8
0
 62
     0
 10
3384.649134
 20
12364.445107
 30
0.0
 11
3392.437984
 21
12372.562762
 31
0.0
  0
LINE
  8
0
 62
     0
 10
3478.115329
 20
12461.856967
 30
0.0
 11
3481.242196
 21
12465.115835
 31
0.0
  0
LINE
  8
0
 62
     0
 10
3210.974655
 20
12055.657625
 30
0.0
 11
3218.763505
 21
12063.77528
 31
0.0
  0
LINE
  8
0
 62
     0
 10
3304.44085
 20
12153.069485
 30
0.0
 11
3312.229699
 21
12161.18714
 31
0.0
  0
LINE
  8
0
 62
     0
 10
3397.907044
 20
12250.481345
 30
0.0
 11
3405.695894
 21
12258.599
 31
0.0
  0
LINE
  8
0
 62
     0
 10
3491.373239
 20
12347.893206
 30
0.0
 11
3499.162088
 21
12356.010861
 31
0.0
  0
LINE
  8
0
 62
     0
 10
3317.69876
 20
12039.105724
 30
0.0
 11
3325.48761
 21
12047.223379
 31
0.0
  0
LINE
  8
0
 62
     0
 10
3504.631149
 20
12233.929444
 30
0.0
 11
3512.419999
 21
12242.047099
 31
0.0
  0
LINE
  8
0
 62
     0
 10
2997.526446
 20
12088.761428
 30
0.0
 11
3005.315295
 21
12096.879083
 31
0.0
  0
LINE
  8
0
 62
     0
 10
3090.99264
 20
12186.173288
 30
0.0
 11
3098.78149
 21
12194.290943
 31
0.0
  0
LINE
  8
0
 62
     0
 10
3184.458835
 20
12283.585148
 30
0.0
 11
3192.247684
 21
12291.702803
 31
0.0
  0
LINE
  8
0
 62
     0
 10
3277.925029
 20
12380.997008
 30
0.0
 11
3285.713879
 21
12389.114663
 31
0.0
  0
LINE
  8
0
 62
     0
 10
2984.268535
 20
12202.72519
 30
0.0
 11
2992.057385
 21
12210.842845
 31
0.0
  0
LINE
  8
0
 62
     0
 10
3077.73473
 20
12300.13705
 30
0.0
 11
3085.523579
 21
12308.254705
 31
0.0
  0
LINE
  8
0
 62
     0
 10
2877.54443
 20
12219.277091
 30
0.0
 11
2885.33328
 21
12227.394746
 31
0.0
  0
LINE
  8
0
 62
     0
 10
2971.010625
 20
12316.688951
 30
0.0
 11
2978.799474
 21
12324.806606
 31
0.0
  0
LINE
  8
0
 62
     0
 10
2864.28652
 20
12333.240853
 30
0.0
 11
2872.07537
 21
12341.358508
 31
0.0
  0
LINE
  8
0
 62
     0
 10
2957.752715
 20
12430.652713
 30
0.0
 11
2965.541564
 21
12438.770368
 31
0.0
  0
LINE
  8
0
 62
     0
 10
2851.02861
 20
12447.204614
 30
0.0
 11
2858.817459
 21
12455.322269
 31
0.0
  0
LINE
  8
0
 62
     0
 10
3113.153768
 20
12070.826622
 30
0.0
 11
3112.04895
 21
12080.323603
 31
0.0
  0
LINE
  8
0
 62
     0
 10
3099.895949
 20
12184.790377
 30
0.0
 11
3098.791131
 21
12194.287358
 31
0.0
  0
LINE
  8
0
 62
     0
 10
3086.63813
 20
12298.754132
 30
0.0
 11
3085.533311
 21
12308.251113
 31
0.0
  0
LINE
  8
0
 62
     0
 10
3219.877858
 20
12054.274654
 30
0.0
 11
3218.77304
 21
12063.771635
 31
0.0
  0
LINE
  8
0
 62
     0
 10
3206.620039
 20
12168.238409
 30
0.0
 11
3205.515221
 21
12177.73539
 31
0.0
  0
LINE
  8
0
 62
     0
 10
3193.36222
 20
12282.202164
 30
0.0
 11
3192.257401
 21
12291.699145
 31
0.0
  0
LINE
  8
0
 62
     0
 10
3326.601948
 20
12037.722686
 30
0.0
 11
3325.49713
 21
12047.219667
 31
0.0
  0
LINE
  8
0
 62
     0
 10
3313.344129
 20
12151.686441
 30
0.0
 11
3312.239311
 21
12161.183422
 31
0.0
  0
LINE
  8
0
 62
     0
 10
3300.08631
 20
12265.650196
 30
0.0
 11
3298.981491
 21
12275.147177
 31
0.0
  0
LINE
  8
0
 62
     0
 10
3286.82849
 20
12379.613951
 30
0.0
 11
3285.723672
 21
12389.110932
 31
0.0
  0
LINE
  8
0
 62
     0
 10
3406.8104
 20
12249.098228
 30
0.0
 11
3405.705581
 21
12258.595209
 31
0.0
  0
LINE
  8
0
 62
     0
 10
3393.55258
 20
12363.061983
 30
0.0
 11
3392.447762
 21
12372.558964
 31
0.0
  0
LINE
  8
0
 62
     0
 10
3513.53449
 20
12232.54626
 30
0.0
 11
3512.429671
 21
12242.043241
 31
0.0
  0
LINE
  8
0
 62
     0
 10
3500.27667
 20
12346.510015
 30
0.0
 11
3499.171852
 21
12356.006996
 31
0.0
  0
LINE
  8
0
 62
     0
 10
3487.018851
 20
12460.47377
 30
0.0
 11
3486.418603
 21
12465.633475
 31
0.0
  0
LINE
  8
0
 62
     0
 10
3006.429679
 20
12087.37859
 30
0.0
 11
3005.32486
 21
12096.875571
 31
0.0
  0
LINE
  8
0
 62
     0
 10
2993.171859
 20
12201.342345
 30
0.0
 11
2992.067041
 21
12210.839326
 31
0.0
  0
LINE
  8
0
 62
     0
 10
2979.91404
 20
12315.3061
 30
0.0
 11
2978.809221
 21
12324.803081
 31
0.0
  0
LINE
  8
0
 62
     0
 10
2966.65622
 20
12429.269856
 30
0.0
 11
2965.551402
 21
12438.766837
 31
0.0
  0
LINE
  8
0
 62
     0
 10
2886.447769
 20
12217.894313
 30
0.0
 11
2885.342951
 21
12227.391294
 31
0.0
  0
LINE
  8
0
 62
     0
 10
2873.18995
 20
12331.858069
 30
0.0
 11
2872.085131
 21
12341.35505
 31
0.0
  0
LINE
  8
0
 62
     0
 10
2859.93213
 20
12445.821824
 30
0.0
 11
2858.827312
 21
12455.318805
 31
0.0
  0
LINE
  8
0
 62
     0
 10
2877.544429
 20
12219.277091
 30
0.0
 11
2886.438105
 21
12217.897766
 31
0.0
  0
LINE
  8
0
 62
     0
 10
2984.268534
 20
12202.72519
 30
0.0
 11
2993.16221
 21
12201.345865
 31
0.0
  0
LINE
  8
0
 62
     0
 10
3090.992639
 20
12186.173289
 30
0.0
 11
3099.886315
 21
12184.793964
 31
0.0
  0
LINE
  8
0
 62
     0
 10
3197.716744
 20
12169.621387
 30
0.0
 11
3206.610419
 21
12168.242062
 31
0.0
  0
LINE
  8
0
 62
     0
 10
3304.440849
 20
12153.069486
 30
0.0
 11
3313.334524
 21
12151.690161
 31
0.0
  0
LINE
  8
0
 62
     0
 10
2864.286519
 20
12333.240853
 30
0.0
 11
2873.180195
 21
12331.861528
 31
0.0
  0
LINE
  8
0
 62
     0
 10
2971.010624
 20
12316.688952
 30
0.0
 11
2979.904299
 21
12315.309626
 31
0.0
  0
LINE
  8
0
 62
     0
 10
3077.734729
 20
12300.13705
 30
0.0
 11
3086.628404
 21
12298.757725
 31
0.0
  0
LINE
  8
0
 62
     0
 10
3184.458834
 20
12283.585149
 30
0.0
 11
3193.352509
 21
12282.205824
 31
0.0
  0
LINE
  8
0
 62
     0
 10
3291.182939
 20
12267.033247
 30
0.0
 11
3300.076614
 21
12265.653922
 31
0.0
  0
LINE
  8
0
 62
     0
 10
3397.907043
 20
12250.481346
 30
0.0
 11
3406.800719
 21
12249.102021
 31
0.0
  0
LINE
  8
0
 62
     0
 10
3504.631148
 20
12233.929445
 30
0.0
 11
3513.524824
 21
12232.550119
 31
0.0
  0
LINE
  8
0
 62
     0
 10
2851.028609
 20
12447.204614
 30
0.0
 11
2859.922284
 21
12445.825289
 31
0.0
  0
LINE
  8
0
 62
     0
 10
2957.752714
 20
12430.652713
 30
0.0
 11
2966.646389
 21
12429.273388
 31
0.0
  0
LINE
  8
0
 62
     0
 10
3277.925028
 20
12380.997009
 30
0.0
 11
3286.818704
 21
12379.617684
 31
0.0
  0
LINE
  8
0
 62
     0
 10
3384.649133
 20
12364.445107
 30
0.0
 11
3393.542809
 21
12363.065782
 31
0.0
  0
LINE
  8
0
 62
     0
 10
3491.373238
 20
12347.893206
 30
0.0
 11
3500.266913
 21
12346.513881
 31
0.0
  0
LINE
  8
0
 62
     0
 10
3478.115328
 20
12461.856968
 30
0.0
 11
3487.009003
 21
12460.477642
 31
0.0
  0
LINE
  8
0
 62
     0
 10
2997.526445
 20
12088.761429
 30
0.0
 11
3006.42012
 21
12087.382103
 31
0.0
  0
LINE
  8
0
 62
     0
 10
3104.25055
 20
12072.209527
 30
0.0
 11
3113.144225
 21
12070.830202
 31
0.0
  0
LINE
  8
0
 62
     0
 10
3210.974654
 20
12055.657626
 30
0.0
 11
3219.86833
 21
12054.278301
 31
0.0
  0
LINE
  8
0
 62
     0
 10
3317.698759
 20
12039.105724
 30
0.0
 11
3326.592435
 21
12037.726399
 31
0.0
  0
LINE
  8
0
 62
     0
 10
2989.390765
 20
12151.131661
 30
0.0
 11
2990.35505
 21
12151.501815
 31
0.0
  0
LINE
  8
0
 62
     0
 10
3067.375435
 20
12181.067171
 30
0.0
 11
3074.377288
 21
12183.754931
 31
0.0
  0
LINE
  8
0
 62
     0
 10
3151.397673
 20
12213.320286
 30
0.0
 11
3158.399526
 21
12216.008046
 31
0.0
  0
LINE
  8
0
 62
     0
 10
3235.419911
 20
12245.573402
 30
0.0
 11
3242.421765
 21
12248.261162
 31
0.0
  0
LINE
  8
0
 62
     0
 10
3319.44215
 20
12277.826517
 30
0.0
 11
3326.444003
 21
12280.514277
 31
0.0
  0
LINE
  8
0
 62
     0
 10
3403.464388
 20
12310.079633
 30
0.0
 11
3410.466241
 21
12312.767392
 31
0.0
  0
LINE
  8
0
 62
     0
 10
3487.486627
 20
12342.332748
 30
0.0
 11
3494.48848
 21
12345.020508
 31
0.0
  0
LINE
  8
0
 62
     0
 10
3043.043902
 20
12108.552167
 30
0.0
 11
3050.045755
 21
12111.239926
 31
0.0
  0
LINE
  8
0
 62
     0
 10
3127.06614
 20
12140.805282
 30
0.0
 11
3134.067993
 21
12143.493042
 31
0.0
  0
LINE
  8
0
 62
     0
 10
3211.088378
 20
12173.058397
 30
0.0
 11
3218.090231
 21
12175.746157
 31
0.0
  0
LINE
  8
0
 62
     0
 10
3295.110617
 20
12205.311513
 30
0.0
 11
3302.11247
 21
12207.999273
 31
0.0
  0
LINE
  8
0
 62
     0
 10
3379.132855
 20
12237.564628
 30
0.0
 11
3386.134708
 21
12240.252388
 31
0.0
  0
LINE
  8
0
 62
     0
 10
3463.155093
 20
12269.817744
 30
0.0
 11
3470.156947
 21
12272.505503
 31
0.0
  0
LINE
  8
0
 62
     0
 10
3018.712368
 20
12036.037162
 30
0.0
 11
3025.714222
 21
12038.724922
 31
0.0
  0
LINE
  8
0
 62
     0
 10
3102.734607
 20
12068.290277
 30
0.0
 11
3109.73646
 21
12070.978037
 31
0.0
  0
LINE
  8
0
 62
     0
 10
3186.756845
 20
12100.543393
 30
0.0
 11
3193.758698
 21
12103.231153
 31
0.0
  0
LINE
  8
0
 62
     0
 10
3270.779084
 20
12132.796508
 30
0.0
 11
3277.780937
 21
12135.484268
 31
0.0
  0
LINE
  8
0
 62
     0
 10
3354.801322
 20
12165.049624
 30
0.0
 11
3361.803175
 21
12167.737383
 31
0.0
  0
LINE
  8
0
 62
     0
 10
3438.82356
 20
12197.302739
 30
0.0
 11
3445.825413
 21
12199.990499
 31
0.0
  0
LINE
  8
0
 62
     0
 10
3522.845799
 20
12229.555855
 30
0.0
 11
3529.847652
 21
12232.243614
 31
0.0
  0
LINE
  8
0
 62
     0
 10
3162.425312
 20
12028.028388
 30
0.0
 11
3169.427165
 21
12030.716148
 31
0.0
  0
LINE
  8
0
 62
     0
 10
3246.44755
 20
12060.281504
 30
0.0
 11
3253.449404
 21
12062.969263
 31
0.0
  0
LINE
  8
0
 62
     0
 10
3330.469789
 20
12092.534619
 30
0.0
 11
3337.471642
 21
12095.222379
 31
0.0
  0
LINE
  8
0
 62
     0
 10
3498.514265
 20
12157.04085
 30
0.0
 11
3505.516119
 21
12159.72861
 31
0.0
  0
LINE
  8
0
 62
     0
 10
3309.035235
 20
12021.131661
 30
0.0
 11
3313.140109
 21
12022.707374
 31
0.0
  0
LINE
  8
0
 62
     0
 10
2839.640253
 20
12156.822829
 30
0.0
 11
2846.642106
 21
12159.510589
 31
0.0
  0
LINE
  8
0
 62
     0
 10
2923.662491
 20
12189.075945
 30
0.0
 11
2930.664344
 21
12191.763704
 31
0.0
  0
LINE
  8
0
 62
     0
 10
3007.684729
 20
12221.32906
 30
0.0
 11
3014.686583
 21
12224.01682
 31
0.0
  0
LINE
  8
0
 62
     0
 10
3091.706968
 20
12253.582176
 30
0.0
 11
3098.708821
 21
12256.269935
 31
0.0
  0
LINE
  8
0
 62
     0
 10
3175.729206
 20
12285.835291
 30
0.0
 11
3182.731059
 21
12288.523051
 31
0.0
  0
LINE
  8
0
 62
     0
 10
3259.751445
 20
12318.088406
 30
0.0
 11
3266.753298
 21
12320.776166
 31
0.0
  0
LINE
  8
0
 62
     0
 10
3343.773683
 20
12350.341522
 30
0.0
 11
3350.775536
 21
12353.029282
 31
0.0
  0
LINE
  8
0
 62
     0
 10
3427.795921
 20
12382.594637
 30
0.0
 11
3434.797775
 21
12385.282397
 31
0.0
  0
LINE
  8
0
 62
     0
 10
3511.81816
 20
12414.847753
 30
0.0
 11
3518.820013
 21
12417.535512
 31
0.0
  0
LINE
  8
0
 62
     0
 10
2863.971786
 20
12229.337834
 30
0.0
 11
2870.973639
 21
12232.025593
 31
0.0
  0
LINE
  8
0
 62
     0
 10
2947.994024
 20
12261.590949
 30
0.0
 11
2954.995877
 21
12264.278709
 31
0.0
  0
LINE
  8
0
 62
     0
 10
3032.016263
 20
12293.844065
 30
0.0
 11
3039.018116
 21
12296.531824
 31
0.0
  0
LINE
  8
0
 62
     0
 10
3116.038501
 20
12326.09718
 30
0.0
 11
3123.040354
 21
12328.78494
 31
0.0
  0
LINE
  8
0
 62
     0
 10
3284.082978
 20
12390.603411
 30
0.0
 11
3291.084831
 21
12393.291171
 31
0.0
  0
LINE
  8
0
 62
     0
 10
3368.105216
 20
12422.856526
 30
0.0
 11
3375.107069
 21
12425.544286
 31
0.0
  0
LINE
  8
0
 62
     0
 10
3452.127455
 20
12455.109642
 30
0.0
 11
3459.129308
 21
12457.797402
 31
0.0
  0
LINE
  8
0
 62
     0
 10
2804.281081
 20
12269.599723
 30
0.0
 11
2811.282934
 21
12272.287482
 31
0.0
  0
LINE
  8
0
 62
     0
 10
2888.303319
 20
12301.852838
 30
0.0
 11
2895.305172
 21
12304.540598
 31
0.0
  0
LINE
  8
0
 62
     0
 10
2972.325557
 20
12334.105954
 30
0.0
 11
2979.327411
 21
12336.793713
 31
0.0
  0
LINE
  8
0
 62
     0
 10
3056.347796
 20
12366.359069
 30
0.0
 11
3063.349649
 21
12369.046829
 31
0.0
  0
LINE
  8
0
 62
     0
 10
2828.612614
 20
12342.114727
 30
0.0
 11
2835.614467
 21
12344.802487
 31
0.0
  0
LINE
  8
0
 62
     0
 10
2912.634852
 20
12374.367843
 30
0.0
 11
2919.636705
 21
12377.055602
 31
0.0
  0
LINE
  8
0
 62
     0
 10
2996.657091
 20
12406.620958
 30
0.0
 11
3003.658944
 21
12409.308718
 31
0.0
  0
LINE
  8
0
 62
     0
 10
2852.944147
 20
12414.629732
 30
0.0
 11
2859.946
 21
12417.317491
 31
0.0
  0
LINE
  8
0
 62
     0
 10
2936.966385
 20
12446.882847
 30
0.0
 11
2943.968239
 21
12449.570607
 31
0.0
  0
LINE
  8
0
 62
     0
 10
2793.253442
 20
12454.891621
 30
0.0
 11
2800.255295
 21
12457.579381
 31
0.0
  0
LINE
  8
0
 62
     0
 10
2793.253445
 20
12454.891617
 30
0.0
 11
2798.22767
 21
12451.53646
 31
0.0
  0
LINE
  8
0
 62
     0
 10
2852.94415
 20
12414.629728
 30
0.0
 11
2857.918375
 21
12411.274571
 31
0.0
  0
LINE
  8
0
 62
     0
 10
2912.634855
 20
12374.367839
 30
0.0
 11
2917.609081
 21
12371.012682
 31
0.0
  0
LINE
  8
0
 62
     0
 10
2972.32556
 20
12334.10595
 30
0.0
 11
2977.299786
 21
12330.750793
 31
0.0
  0
LINE
  8
0
 62
     0
 10
3032.016266
 20
12293.844061
 30
0.0
 11
3036.990491
 21
12290.488904
 31
0.0
  0
LINE
  8
0
 62
     0
 10
3091.706971
 20
12253.582172
 30
0.0
 11
3096.681196
 21
12250.227015
 31
0.0
  0
LINE
  8
0
 62
     0
 10
3151.397676
 20
12213.320283
 30
0.0
 11
3156.371901
 21
12209.965125
 31
0.0
  0
LINE
  8
0
 62
     0
 10
3211.088381
 20
12173.058394
 30
0.0
 11
3216.062607
 21
12169.703236
 31
0.0
  0
LINE
  8
0
 62
     0
 10
3270.779086
 20
12132.796505
 30
0.0
 11
3275.753312
 21
12129.441347
 31
0.0
  0
LINE
  8
0
 62
     0
 10
3330.469792
 20
12092.534616
 30
0.0
 11
3335.444017
 21
12089.179458
 31
0.0
  0
LINE
  8
0
 62
     0
 10
2936.966388
 20
12446.882844
 30
0.0
 11
2941.940614
 21
12443.527686
 31
0.0
  0
LINE
  8
0
 62
     0
 10
2996.657094
 20
12406.620955
 30
0.0
 11
3001.631319
 21
12403.265797
 31
0.0
  0
LINE
  8
0
 62
     0
 10
3056.347799
 20
12366.359066
 30
0.0
 11
3061.322024
 21
12363.003908
 31
0.0
  0
LINE
  8
0
 62
     0
 10
3116.038504
 20
12326.097176
 30
0.0
 11
3121.012729
 21
12322.742019
 31
0.0
  0
LINE
  8
0
 62
     0
 10
3175.729209
 20
12285.835287
 30
0.0
 11
3180.703435
 21
12282.48013
 31
0.0
  0
LINE
  8
0
 62
     0
 10
3235.419914
 20
12245.573398
 30
0.0
 11
3240.39414
 21
12242.218241
 31
0.0
  0
LINE
  8
0
 62
     0
 10
3295.11062
 20
12205.311509
 30
0.0
 11
3300.084845
 21
12201.956352
 31
0.0
  0
LINE
  8
0
 62
     0
 10
3354.801325
 20
12165.04962
 30
0.0
 11
3359.77555
 21
12161.694463
 31
0.0
  0
LINE
  8
0
 62
     0
 10
3259.751448
 20
12318.088403
 30
0.0
 11
3264.725673
 21
12314.733245
 31
0.0
  0
LINE
  8
0
 62
     0
 10
3319.442153
 20
12277.826514
 30
0.0
 11
3324.416378
 21
12274.471356
 31
0.0
  0
LINE
  8
0
 62
     0
 10
3379.132858
 20
12237.564625
 30
0.0
 11
3384.107084
 21
12234.209467
 31
0.0
  0
LINE
  8
0
 62
     0
 10
3438.823563
 20
12197.302736
 30
0.0
 11
3443.797789
 21
12193.947578
 31
0.0
  0
LINE
  8
0
 62
     0
 10
3498.514269
 20
12157.040847
 30
0.0
 11
3503.488494
 21
12153.685689
 31
0.0
  0
LINE
  8
0
 62
     0
 10
3284.082981
 20
12390.603407
 30
0.0
 11
3289.057206
 21
12387.24825
 31
0.0
  0
LINE
  8
0
 62
     0
 10
3343.773686
 20
12350.341518
 30
0.0
 11
3348.747911
 21
12346.986361
 31
0.0
  0
LINE
  8
0
 62
     0
 10
3403.464391
 20
12310.079629
 30
0.0
 11
3408.438617
 21
12306.724472
 31
0.0
  0
LINE
  8
0
 62
     0
 10
3463.155096
 20
12269.81774
 30
0.0
 11
3468.129322
 21
12266.462583
 31
0.0
  0
LINE
  8
0
 62
     0
 10
3522.845802
 20
12229.555851
 30
0.0
 11
3527.820027
 21
12226.200694
 31
0.0
  0
LINE
  8
0
 62
     0
 10
3368.105219
 20
12422.856523
 30
0.0
 11
3373.079445
 21
12419.501365
 31
0.0
  0
LINE
  8
0
 62
     0
 10
3427.795924
 20
12382.594634
 30
0.0
 11
3432.77015
 21
12379.239476
 31
0.0
  0
LINE
  8
0
 62
     0
 10
3487.48663
 20
12342.332745
 30
0.0
 11
3492.460855
 21
12338.977587
 31
0.0
  0
LINE
  8
0
 62
     0
 10
3452.127458
 20
12455.109638
 30
0.0
 11
3457.101683
 21
12451.754481
 31
0.0
  0
LINE
  8
0
 62
     0
 10
3511.818163
 20
12414.847749
 30
0.0
 11
3516.792388
 21
12411.492592
 31
0.0
  0
LINE
  8
0
 62
     0
 10
2828.612617
 20
12342.114724
 30
0.0
 11
2833.586842
 21
12338.759566
 31
0.0
  0
LINE
  8
0
 62
     0
 10
2888.303322
 20
12301.852835
 30
0.0
 11
2893.277547
 21
12298.497677
 31
0.0
  0
LINE
  8
0
 62
     0
 10
2947.994027
 20
12261.590946
 30
0.0
 11
2952.968253
 21
12258.235788
 31
0.0
  0
LINE
  8
0
 62
     0
 10
3007.684732
 20
12221.329056
 30
0.0
 11
3012.658958
 21
12217.973899
 31
0.0
  0
LINE
  8
0
 62
     0
 10
3067.375438
 20
12181.067167
 30
0.0
 11
3072.349663
 21
12177.71201
 31
0.0
  0
LINE
  8
0
 62
     0
 10
3127.066143
 20
12140.805278
 30
0.0
 11
3132.040368
 21
12137.450121
 31
0.0
  0
LINE
  8
0
 62
     0
 10
3186.756848
 20
12100.543389
 30
0.0
 11
3191.731073
 21
12097.188232
 31
0.0
  0
LINE
  8
0
 62
     0
 10
3246.447553
 20
12060.2815
 30
0.0
 11
3251.421779
 21
12056.926343
 31
0.0
  0
LINE
  8
0
 62
     0
 10
2804.281084
 20
12269.599719
 30
0.0
 11
2809.255309
 21
12266.244562
 31
0.0
  0
LINE
  8
0
 62
     0
 10
2863.971789
 20
12229.33783
 30
0.0
 11
2868.946014
 21
12225.982673
 31
0.0
  0
LINE
  8
0
 62
     0
 10
2923.662494
 20
12189.075941
 30
0.0
 11
2928.636719
 21
12185.720784
 31
0.0
  0
LINE
  8
0
 62
     0
 10
3043.043904
 20
12108.552163
 30
0.0
 11
3048.01813
 21
12105.197006
 31
0.0
  0
LINE
  8
0
 62
     0
 10
3102.73461
 20
12068.290274
 30
0.0
 11
3107.708835
 21
12064.935116
 31
0.0
  0
LINE
  8
0
 62
     0
 10
3162.425315
 20
12028.028385
 30
0.0
 11
3167.39954
 21
12024.673227
 31
0.0
  0
LINE
  8
0
 62
     0
 10
2839.640256
 20
12156.822826
 30
0.0
 11
2844.614481
 21
12153.467668
 31
0.0
  0
LINE
  8
0
 62
     0
 10
3018.712371
 20
12036.037158
 30
0.0
 11
3023.686597
 21
12032.682001
 31
0.0
  0
LINE
  8
0
 62
     0
 10
3107.718241
 20
12064.932674
 30
0.0
 11
3109.745873
 21
12070.975589
 31
0.0
  0
LINE
  8
0
 62
     0
 10
3132.04983
 20
12137.447659
 30
0.0
 11
3134.077463
 21
12143.490574
 31
0.0
  0
LINE
  8
0
 62
     0
 10
3156.38142
 20
12209.962644
 30
0.0
 11
3158.409053
 21
12216.00556
 31
0.0
  0
LINE
  8
0
 62
     0
 10
3180.71301
 20
12282.47763
 30
0.0
 11
3182.740642
 21
12288.520545
 31
0.0
  0
LINE
  8
0
 62
     0
 10
3167.408914
 20
12024.670738
 30
0.0
 11
3169.436546
 21
12030.713653
 31
0.0
  0
LINE
  8
0
 62
     0
 10
3191.740504
 20
12097.185723
 30
0.0
 11
3193.768136
 21
12103.228639
 31
0.0
  0
LINE
  8
0
 62
     0
 10
3216.072093
 20
12169.700709
 30
0.0
 11
3218.099726
 21
12175.743624
 31
0.0
  0
LINE
  8
0
 62
     0
 10
3240.403683
 20
12242.215694
 30
0.0
 11
3242.431315
 21
12248.258609
 31
0.0
  0
LINE
  8
0
 62
     0
 10
3264.735273
 20
12314.730679
 30
0.0
 11
3266.762905
 21
12320.773595
 31
0.0
  0
LINE
  8
0
 62
     0
 10
3289.066862
 20
12387.245665
 30
0.0
 11
3291.094495
 21
12393.28858
 31
0.0
  0
LINE
  8
0
 62
     0
 10
3251.431177
 20
12056.923788
 30
0.0
 11
3253.458809
 21
12062.966703
 31
0.0
  0
LINE
  8
0
 62
     0
 10
3275.762766
 20
12129.438773
 30
0.0
 11
3277.790399
 21
12135.481688
 31
0.0
  0
LINE
  8
0
 62
     0
 10
3300.094356
 20
12201.953758
 30
0.0
 11
3302.121989
 21
12207.996674
 31
0.0
  0
LINE
  8
0
 62
     0
 10
3324.425946
 20
12274.468744
 30
0.0
 11
3326.453578
 21
12280.511659
 31
0.0
  0
LINE
  8
0
 62
     0
 10
3348.757536
 20
12346.983729
 30
0.0
 11
3350.785168
 21
12353.026644
 31
0.0
  0
LINE
  8
0
 62
     0
 10
3373.089125
 20
12419.498714
 30
0.0
 11
3375.116758
 21
12425.54163
 31
0.0
  0
LINE
  8
0
 62
     0
 10
3312.621644
 20
12021.131661
 30
0.0
 11
3313.149482
 21
12022.704767
 31
0.0
  0
LINE
  8
0
 62
     0
 10
3335.45344
 20
12089.176837
 30
0.0
 11
3337.481072
 21
12095.219753
 31
0.0
  0
LINE
  8
0
 62
     0
 10
3359.785029
 20
12161.691823
 30
0.0
 11
3361.812662
 21
12167.734738
 31
0.0
  0
LINE
  8
0
 62
     0
 10
3384.116619
 20
12234.206808
 30
0.0
 11
3386.144251
 21
12240.249723
 31
0.0
  0
LINE
  8
0
 62
     0
 10
3408.448209
 20
12306.721793
 30
0.0
 11
3410.475841
 21
12312.764709
 31
0.0
  0
LINE
  8
0
 62
     0
 10
3432.779798
 20
12379.236779
 30
0.0
 11
3434.807431
 21
12385.279694
 31
0.0
  0
LINE
  8
0
 62
     0
 10
3457.111388
 20
12451.751764
 30
0.0
 11
3459.139021
 21
12457.794679
 31
0.0
  0
LINE
  8
0
 62
     0
 10
3443.807292
 20
12193.944872
 30
0.0
 11
3445.834925
 21
12199.987788
 31
0.0
  0
LINE
  8
0
 62
     0
 10
3468.138882
 20
12266.459858
 30
0.0
 11
3470.166514
 21
12272.502773
 31
0.0
  0
LINE
  8
0
 62
     0
 10
3492.470472
 20
12338.974843
 30
0.0
 11
3494.498104
 21
12345.017758
 31
0.0
  0
LINE
  8
0
 62
     0
 10
3516.802061
 20
12411.489828
 30
0.0
 11
3518.829694
 21
12417.532744
 31
0.0
  0
LINE
  8
0
 62
     0
 10
3503.497965
 20
12153.682937
 30
0.0
 11
3505.525598
 21
12159.725852
 31
0.0
  0
LINE
  8
0
 62
     0
 10
3527.829555
 20
12226.197922
 30
0.0
 11
3529.857187
 21
12232.240837
 31
0.0
  0
LINE
  8
0
 62
     0
 10
3023.695978
 20
12032.679624
 30
0.0
 11
3025.72361
 21
12038.722539
 31
0.0
  0
LINE
  8
0
 62
     0
 10
3048.027568
 20
12105.194609
 30
0.0
 11
3050.0552
 21
12111.237525
 31
0.0
  0
LINE
  8
0
 62
     0
 10
3072.359157
 20
12177.709595
 30
0.0
 11
3074.38679
 21
12183.75251
 31
0.0
  0
LINE
  8
0
 62
     0
 10
3096.690747
 20
12250.22458
 30
0.0
 11
3098.718379
 21
12256.267495
 31
0.0
  0
LINE
  8
0
 62
     0
 10
3121.022337
 20
12322.739565
 30
0.0
 11
3123.049969
 21
12328.782481
 31
0.0
  0
LINE
  8
0
 62
     0
 10
2990.241116
 20
12151.131661
 30
0.0
 11
2990.364527
 21
12151.49946
 31
0.0
  0
LINE
  8
0
 62
     0
 10
3012.668484
 20
12217.97153
 30
0.0
 11
3014.696117
 21
12224.014446
 31
0.0
  0
LINE
  8
0
 62
     0
 10
3037.000074
 20
12290.486516
 30
0.0
 11
3039.027706
 21
12296.529431
 31
0.0
  0
LINE
  8
0
 62
     0
 10
3061.331664
 20
12363.001501
 30
0.0
 11
3063.359296
 21
12369.044416
 31
0.0
  0
LINE
  8
0
 62
     0
 10
2928.646221
 20
12185.718481
 30
0.0
 11
2930.673854
 21
12191.761396
 31
0.0
  0
LINE
  8
0
 62
     0
 10
2952.977811
 20
12258.233466
 30
0.0
 11
2955.005443
 21
12264.276381
 31
0.0
  0
LINE
  8
0
 62
     0
 10
2977.309401
 20
12330.748451
 30
0.0
 11
2979.337033
 21
12336.791367
 31
0.0
  0
LINE
  8
0
 62
     0
 10
3001.640991
 20
12403.263437
 30
0.0
 11
3003.668623
 21
12409.306352
 31
0.0
  0
LINE
  8
0
 62
     0
 10
2844.623958
 20
12153.465431
 30
0.0
 11
2846.651591
 21
12159.508346
 31
0.0
  0
LINE
  8
0
 62
     0
 10
2868.955548
 20
12225.980416
 30
0.0
 11
2870.983181
 21
12232.023332
 31
0.0
  0
LINE
  8
0
 62
     0
 10
2893.287138
 20
12298.495402
 30
0.0
 11
2895.31477
 21
12304.538317
 31
0.0
  0
LINE
  8
0
 62
     0
 10
2917.618728
 20
12371.010387
 30
0.0
 11
2919.64636
 21
12377.053302
 31
0.0
  0
LINE
  8
0
 62
     0
 10
2941.950317
 20
12443.525372
 30
0.0
 11
2943.97795
 21
12449.568288
 31
0.0
  0
LINE
  8
0
 62
     0
 10
2809.264875
 20
12266.242352
 30
0.0
 11
2811.292507
 21
12272.285267
 31
0.0
  0
LINE
  8
0
 62
     0
 10
2833.596465
 20
12338.757337
 30
0.0
 11
2835.624097
 21
12344.800253
 31
0.0
  0
LINE
  8
0
 62
     0
 10
2857.928055
 20
12411.272323
 30
0.0
 11
2859.955687
 21
12417.315238
 31
0.0
  0
LINE
  8
0
 62
     0
 10
2798.237381
 20
12451.534258
 30
0.0
 11
2800.265014
 21
12457.577174
 31
0.0
  0
LINE
  8
0
 62
     0
 10
2992.380454
 20
12100.101321
 30
0.0
 11
2992.380454
 21
12100.101321
 31
0.0
  0
LINE
  8
0
 62
     0
 10
3044.940113
 20
12140.431766
 30
0.0
 11
3044.940113
 21
12140.431766
 31
0.0
  0
LINE
  8
0
 62
     0
 10
3096.66675
 20
12180.123011
 30
0.0
 11
3096.66675
 21
12180.123011
 31
0.0
  0
LINE
  8
0
 62
     0
 10
3149.821424
 20
12220.910027
 30
0.0
 11
3149.821424
 21
12220.910027
 31
0.0
  0
LINE
  8
0
 62
     0
 10
3202.381083
 20
12261.240472
 30
0.0
 11
3202.381083
 21
12261.240472
 31
0.0
  0
LINE
  8
0
 62
     0
 10
3254.107721
 20
12300.931717
 30
0.0
 11
3254.107721
 21
12300.931717
 31
0.0
  0
LINE
  8
0
 62
     0
 10
3307.262395
 20
12341.718733
 30
0.0
 11
3307.262395
 21
12341.718733
 31
0.0
  0
LINE
  8
0
 62
     0
 10
3359.822053
 20
12382.049177
 30
0.0
 11
3359.822053
 21
12382.049177
 31
0.0
  0
LINE
  8
0
 62
     0
 10
3411.548691
 20
12421.740422
 30
0.0
 11
3411.548691
 21
12421.740422
 31
0.0
  0
LINE
  8
0
 62
     0
 10
3464.703365
 20
12462.527438
 30
0.0
 11
3464.703365
 21
12462.527438
 31
0.0
  0
LINE
  8
0
 62
     0
 10
2993.596439
 20
12133.390707
 30
0.0
 11
2993.596439
 21
12133.390707
 31
0.0
  0
LINE
  8
0
 62
     0
 10
3046.156098
 20
12173.721151
 30
0.0
 11
3046.156098
 21
12173.721151
 31
0.0
  0
LINE
  8
0
 62
     0
 10
3097.882736
 20
12213.412397
 30
0.0
 11
3097.882736
 21
12213.412397
 31
0.0
  0
LINE
  8
0
 62
     0
 10
3151.03741
 20
12254.199412
 30
0.0
 11
3151.03741
 21
12254.199412
 31
0.0
  0
LINE
  8
0
 62
     0
 10
3203.597068
 20
12294.529857
 30
0.0
 11
3203.597068
 21
12294.529857
 31
0.0
  0
LINE
  8
0
 62
     0
 10
3255.323706
 20
12334.221102
 30
0.0
 11
3255.323706
 21
12334.221102
 31
0.0
  0
LINE
  8
0
 62
     0
 10
3308.47838
 20
12375.008118
 30
0.0
 11
3308.47838
 21
12375.008118
 31
0.0
  0
LINE
  8
0
 62
     0
 10
3361.038039
 20
12415.338563
 30
0.0
 11
3361.038039
 21
12415.338563
 31
0.0
  0
LINE
  8
0
 62
     0
 10
3412.764677
 20
12455.029808
 30
0.0
 11
3412.764677
 21
12455.029808
 31
0.0
  0
LINE
  8
0
 62
     0
 10
2994.812425
 20
12166.680092
 30
0.0
 11
2994.812425
 21
12166.680092
 31
0.0
  0
LINE
  8
0
 62
     0
 10
3047.372084
 20
12207.010537
 30
0.0
 11
3047.372084
 21
12207.010537
 31
0.0
  0
LINE
  8
0
 62
     0
 10
3099.098721
 20
12246.701782
 30
0.0
 11
3099.098721
 21
12246.701782
 31
0.0
  0
LINE
  8
0
 62
     0
 10
3152.253395
 20
12287.488798
 30
0.0
 11
3152.253395
 21
12287.488798
 31
0.0
  0
LINE
  8
0
 62
     0
 10
3309.694366
 20
12408.297503
 30
0.0
 11
3309.694366
 21
12408.297503
 31
0.0
  0
LINE
  8
0
 62
     0
 10
3362.254024
 20
12448.627948
 30
0.0
 11
3362.254024
 21
12448.627948
 31
0.0
  0
LINE
  8
0
 62
     0
 10
2942.873737
 20
12159.182462
 30
0.0
 11
2942.873737
 21
12159.182462
 31
0.0
  0
LINE
  8
0
 62
     0
 10
2996.02841
 20
12199.969478
 30
0.0
 11
2996.02841
 21
12199.969478
 31
0.0
  0
LINE
  8
0
 62
     0
 10
3048.588069
 20
12240.299922
 30
0.0
 11
3048.588069
 21
12240.299922
 31
0.0
  0
LINE
  8
0
 62
     0
 10
3100.314707
 20
12279.991167
 30
0.0
 11
3100.314707
 21
12279.991167
 31
0.0
  0
LINE
  8
0
 62
     0
 10
3153.469381
 20
12320.778183
 30
0.0
 11
3153.469381
 21
12320.778183
 31
0.0
  0
LINE
  8
0
 62
     0
 10
3310.910351
 20
12441.586889
 30
0.0
 11
3310.910351
 21
12441.586889
 31
0.0
  0
LINE
  8
0
 62
     0
 10
2892.363084
 20
12152.780602
 30
0.0
 11
2892.363084
 21
12152.780602
 31
0.0
  0
LINE
  8
0
 62
     0
 10
2944.089722
 20
12192.471847
 30
0.0
 11
2944.089722
 21
12192.471847
 31
0.0
  0
LINE
  8
0
 62
     0
 10
2997.244396
 20
12233.258863
 30
0.0
 11
2997.244396
 21
12233.258863
 31
0.0
  0
LINE
  8
0
 62
     0
 10
3049.804055
 20
12273.589308
 30
0.0
 11
3049.804055
 21
12273.589308
 31
0.0
  0
LINE
  8
0
 62
     0
 10
3101.530693
 20
12313.280553
 30
0.0
 11
3101.530693
 21
12313.280553
 31
0.0
  0
LINE
  8
0
 62
     0
 10
2893.57907
 20
12186.069987
 30
0.0
 11
2893.57907
 21
12186.069987
 31
0.0
  0
LINE
  8
0
 62
     0
 10
2945.305708
 20
12225.761233
 30
0.0
 11
2945.305708
 21
12225.761233
 31
0.0
  0
LINE
  8
0
 62
     0
 10
2998.460381
 20
12266.548248
 30
0.0
 11
2998.460381
 21
12266.548248
 31
0.0
  0
LINE
  8
0
 62
     0
 10
3051.02004
 20
12306.878693
 30
0.0
 11
3051.02004
 21
12306.878693
 31
0.0
  0
LINE
  8
0
 62
     0
 10
2842.235397
 20
12179.028928
 30
0.0
 11
2842.235397
 21
12179.028928
 31
0.0
  0
LINE
  8
0
 62
     0
 10
2894.795055
 20
12219.359373
 30
0.0
 11
2894.795055
 21
12219.359373
 31
0.0
  0
LINE
  8
0
 62
     0
 10
2946.521693
 20
12259.050618
 30
0.0
 11
2946.521693
 21
12259.050618
 31
0.0
  0
LINE
  8
0
 62
     0
 10
2999.676367
 20
12299.837634
 30
0.0
 11
2999.676367
 21
12299.837634
 31
0.0
  0
LINE
  8
0
 62
     0
 10
3052.236026
 20
12340.168078
 30
0.0
 11
3052.236026
 21
12340.168078
 31
0.0
  0
LINE
  8
0
 62
     0
 10
2843.451382
 20
12212.318313
 30
0.0
 11
2843.451382
 21
12212.318313
 31
0.0
  0
LINE
  8
0
 62
     0
 10
2896.011041
 20
12252.648758
 30
0.0
 11
2896.011041
 21
12252.648758
 31
0.0
  0
LINE
  8
0
 62
     0
 10
2947.737679
 20
12292.340003
 30
0.0
 11
2947.737679
 21
12292.340003
 31
0.0
  0
LINE
  8
0
 62
     0
 10
3000.892353
 20
12333.127019
 30
0.0
 11
3000.892353
 21
12333.127019
 31
0.0
  0
LINE
  8
0
 62
     0
 10
3053.452011
 20
12373.457464
 30
0.0
 11
3053.452011
 21
12373.457464
 31
0.0
  0
LINE
  8
0
 62
     0
 10
2791.512694
 20
12204.820683
 30
0.0
 11
2791.512694
 21
12204.820683
 31
0.0
  0
LINE
  8
0
 62
     0
 10
2844.667368
 20
12245.607699
 30
0.0
 11
2844.667368
 21
12245.607699
 31
0.0
  0
LINE
  8
0
 62
     0
 10
2897.227026
 20
12285.938144
 30
0.0
 11
2897.227026
 21
12285.938144
 31
0.0
  0
LINE
  8
0
 62
     0
 10
2948.953664
 20
12325.629389
 30
0.0
 11
2948.953664
 21
12325.629389
 31
0.0
  0
LINE
  8
0
 62
     0
 10
3002.108338
 20
12366.416404
 30
0.0
 11
3002.108338
 21
12366.416404
 31
0.0
  0
LINE
  8
0
 62
     0
 10
2792.728679
 20
12238.110069
 30
0.0
 11
2792.728679
 21
12238.110069
 31
0.0
  0
LINE
  8
0
 62
     0
 10
2845.883353
 20
12278.897084
 30
0.0
 11
2845.883353
 21
12278.897084
 31
0.0
  0
LINE
  8
0
 62
     0
 10
2898.443012
 20
12319.227529
 30
0.0
 11
2898.443012
 21
12319.227529
 31
0.0
  0
LINE
  8
0
 62
     0
 10
2950.16965
 20
12358.918774
 30
0.0
 11
2950.16965
 21
12358.918774
 31
0.0
  0
LINE
  8
0
 62
     0
 10
3003.324324
 20
12399.70579
 30
0.0
 11
3003.324324
 21
12399.70579
 31
0.0
  0
LINE
  8
0
 62
     0
 10
2793.944665
 20
12271.399454
 30
0.0
 11
2793.944665
 21
12271.399454
 31
0.0
  0
LINE
  8
0
 62
     0
 10
2847.099339
 20
12312.18647
 30
0.0
 11
2847.099339
 21
12312.18647
 31
0.0
  0
LINE
  8
0
 62
     0
 10
2899.658998
 20
12352.516914
 30
0.0
 11
2899.658998
 21
12352.516914
 31
0.0
  0
LINE
  8
0
 62
     0
 10
2951.385635
 20
12392.208159
 30
0.0
 11
2951.385635
 21
12392.208159
 31
0.0
  0
LINE
  8
0
 62
     0
 10
3004.540309
 20
12432.995175
 30
0.0
 11
3004.540309
 21
12432.995175
 31
0.0
  0
LINE
  8
0
 62
     0
 10
2795.16065
 20
12304.688839
 30
0.0
 11
2795.16065
 21
12304.688839
 31
0.0
  0
LINE
  8
0
 62
     0
 10
2848.315324
 20
12345.475855
 30
0.0
 11
2848.315324
 21
12345.475855
 31
0.0
  0
LINE
  8
0
 62
     0
 10
2900.874983
 20
12385.8063
 30
0.0
 11
2900.874983
 21
12385.8063
 31
0.0
  0
LINE
  8
0
 62
     0
 10
2952.601621
 20
12425.497545
 30
0.0
 11
2952.601621
 21
12425.497545
 31
0.0
  0
LINE
  8
0
 62
     0
 10
2796.376636
 20
12337.978225
 30
0.0
 11
2796.376636
 21
12337.978225
 31
0.0
  0
LINE
  8
0
 62
     0
 10
2849.53131
 20
12378.76524
 30
0.0
 11
2849.53131
 21
12378.76524
 31
0.0
  0
LINE
  8
0
 62
     0
 10
2902.090969
 20
12419.095685
 30
0.0
 11
2902.090969
 21
12419.095685
 31
0.0
  0
LINE
  8
0
 62
     0
 10
2797.592622
 20
12371.26761
 30
0.0
 11
2797.592622
 21
12371.26761
 31
0.0
  0
LINE
  8
0
 62
     0
 10
2850.747295
 20
12412.054626
 30
0.0
 11
2850.747295
 21
12412.054626
 31
0.0
  0
LINE
  8
0
 62
     0
 10
2903.306954
 20
12452.38507
 30
0.0
 11
2903.306954
 21
12452.38507
 31
0.0
  0
LINE
  8
0
 62
     0
 10
2798.808607
 20
12404.556995
 30
0.0
 11
2798.808607
 21
12404.556995
 31
0.0
  0
LINE
  8
0
 62
     0
 10
2851.963281
 20
12445.344011
 30
0.0
 11
2851.963281
 21
12445.344011
 31
0.0
  0
LINE
  8
0
 62
     0
 10
2800.024593
 20
12437.846381
 30
0.0
 11
2800.024593
 21
12437.846381
 31
0.0
  0
LINE
  8
0
 62
     0
 10
3043.724127
 20
12107.142381
 30
0.0
 11
3043.724127
 21
12107.142381
 31
0.0
  0
LINE
  8
0
 62
     0
 10
3095.450765
 20
12146.833626
 30
0.0
 11
3095.450765
 21
12146.833626
 31
0.0
  0
LINE
  8
0
 62
     0
 10
3148.605439
 20
12187.620642
 30
0.0
 11
3148.605439
 21
12187.620642
 31
0.0
  0
LINE
  8
0
 62
     0
 10
3201.165097
 20
12227.951086
 30
0.0
 11
3201.165097
 21
12227.951086
 31
0.0
  0
LINE
  8
0
 62
     0
 10
3252.891735
 20
12267.642331
 30
0.0
 11
3252.891735
 21
12267.642331
 31
0.0
  0
LINE
  8
0
 62
     0
 10
3306.046409
 20
12308.429347
 30
0.0
 11
3306.046409
 21
12308.429347
 31
0.0
  0
LINE
  8
0
 62
     0
 10
3358.606068
 20
12348.759792
 30
0.0
 11
3358.606068
 21
12348.759792
 31
0.0
  0
LINE
  8
0
 62
     0
 10
3410.332706
 20
12388.451037
 30
0.0
 11
3410.332706
 21
12388.451037
 31
0.0
  0
LINE
  8
0
 62
     0
 10
3463.487379
 20
12429.238053
 30
0.0
 11
3463.487379
 21
12429.238053
 31
0.0
  0
LINE
  8
0
 62
     0
 10
3042.508142
 20
12073.852995
 30
0.0
 11
3042.508142
 21
12073.852995
 31
0.0
  0
LINE
  8
0
 62
     0
 10
3094.234779
 20
12113.54424
 30
0.0
 11
3094.234779
 21
12113.54424
 31
0.0
  0
LINE
  8
0
 62
     0
 10
3147.389453
 20
12154.331256
 30
0.0
 11
3147.389453
 21
12154.331256
 31
0.0
  0
LINE
  8
0
 62
     0
 10
3199.949112
 20
12194.661701
 30
0.0
 11
3199.949112
 21
12194.661701
 31
0.0
  0
LINE
  8
0
 62
     0
 10
3251.67575
 20
12234.352946
 30
0.0
 11
3251.67575
 21
12234.352946
 31
0.0
  0
LINE
  8
0
 62
     0
 10
3304.830423
 20
12275.139962
 30
0.0
 11
3304.830423
 21
12275.139962
 31
0.0
  0
LINE
  8
0
 62
     0
 10
3357.390082
 20
12315.470406
 30
0.0
 11
3357.390082
 21
12315.470406
 31
0.0
  0
LINE
  8
0
 62
     0
 10
3409.11672
 20
12355.161652
 30
0.0
 11
3409.11672
 21
12355.161652
 31
0.0
  0
LINE
  8
0
 62
     0
 10
3462.271394
 20
12395.948667
 30
0.0
 11
3462.271394
 21
12395.948667
 31
0.0
  0
LINE
  8
0
 62
     0
 10
3514.831053
 20
12436.279112
 30
0.0
 11
3514.831053
 21
12436.279112
 31
0.0
  0
LINE
  8
0
 62
     0
 10
3041.292156
 20
12040.56361
 30
0.0
 11
3041.292156
 21
12040.56361
 31
0.0
  0
LINE
  8
0
 62
     0
 10
3093.018794
 20
12080.254855
 30
0.0
 11
3093.018794
 21
12080.254855
 31
0.0
  0
LINE
  8
0
 62
     0
 10
3146.173468
 20
12121.041871
 30
0.0
 11
3146.173468
 21
12121.041871
 31
0.0
  0
LINE
  8
0
 62
     0
 10
3198.733126
 20
12161.372316
 30
0.0
 11
3198.733126
 21
12161.372316
 31
0.0
  0
LINE
  8
0
 62
     0
 10
3250.459764
 20
12201.063561
 30
0.0
 11
3250.459764
 21
12201.063561
 31
0.0
  0
LINE
  8
0
 62
     0
 10
3303.614438
 20
12241.850576
 30
0.0
 11
3303.614438
 21
12241.850576
 31
0.0
  0
LINE
  8
0
 62
     0
 10
3356.174097
 20
12282.181021
 30
0.0
 11
3356.174097
 21
12282.181021
 31
0.0
  0
LINE
  8
0
 62
     0
 10
3407.900735
 20
12321.872266
 30
0.0
 11
3407.900735
 21
12321.872266
 31
0.0
  0
LINE
  8
0
 62
     0
 10
3461.055408
 20
12362.659282
 30
0.0
 11
3461.055408
 21
12362.659282
 31
0.0
  0
LINE
  8
0
 62
     0
 10
3513.615067
 20
12402.989727
 30
0.0
 11
3513.615067
 21
12402.989727
 31
0.0
  0
LINE
  8
0
 62
     0
 10
3091.802808
 20
12046.96547
 30
0.0
 11
3091.802808
 21
12046.96547
 31
0.0
  0
LINE
  8
0
 62
     0
 10
3144.957482
 20
12087.752485
 30
0.0
 11
3144.957482
 21
12087.752485
 31
0.0
  0
LINE
  8
0
 62
     0
 10
3197.517141
 20
12128.08293
 30
0.0
 11
3197.517141
 21
12128.08293
 31
0.0
  0
LINE
  8
0
 62
     0
 10
3249.243779
 20
12167.774175
 30
0.0
 11
3249.243779
 21
12167.774175
 31
0.0
  0
LINE
  8
0
 62
     0
 10
3302.398452
 20
12208.561191
 30
0.0
 11
3302.398452
 21
12208.561191
 31
0.0
  0
LINE
  8
0
 62
     0
 10
3354.958111
 20
12248.891636
 30
0.0
 11
3354.958111
 21
12248.891636
 31
0.0
  0
LINE
  8
0
 62
     0
 10
3406.684749
 20
12288.582881
 30
0.0
 11
3406.684749
 21
12288.582881
 31
0.0
  0
LINE
  8
0
 62
     0
 10
3459.839423
 20
12329.369897
 30
0.0
 11
3459.839423
 21
12329.369897
 31
0.0
  0
LINE
  8
0
 62
     0
 10
3512.399082
 20
12369.700341
 30
0.0
 11
3512.399082
 21
12369.700341
 31
0.0
  0
LINE
  8
0
 62
     0
 10
3143.741497
 20
12054.4631
 30
0.0
 11
3143.741497
 21
12054.4631
 31
0.0
  0
LINE
  8
0
 62
     0
 10
3196.301155
 20
12094.793545
 30
0.0
 11
3196.301155
 21
12094.793545
 31
0.0
  0
LINE
  8
0
 62
     0
 10
3248.027793
 20
12134.48479
 30
0.0
 11
3248.027793
 21
12134.48479
 31
0.0
  0
LINE
  8
0
 62
     0
 10
3301.182467
 20
12175.271806
 30
0.0
 11
3301.182467
 21
12175.271806
 31
0.0
  0
LINE
  8
0
 62
     0
 10
3353.742126
 20
12215.60225
 30
0.0
 11
3353.742126
 21
12215.60225
 31
0.0
  0
LINE
  8
0
 62
     0
 10
3405.468763
 20
12255.293495
 30
0.0
 11
3405.468763
 21
12255.293495
 31
0.0
  0
LINE
  8
0
 62
     0
 10
3458.623437
 20
12296.080511
 30
0.0
 11
3458.623437
 21
12296.080511
 31
0.0
  0
LINE
  8
0
 62
     0
 10
3511.183096
 20
12336.410956
 30
0.0
 11
3511.183096
 21
12336.410956
 31
0.0
  0
LINE
  8
0
 62
     0
 10
3142.525511
 20
12021.173715
 30
0.0
 11
3142.525511
 21
12021.173715
 31
0.0
  0
LINE
  8
0
 62
     0
 10
3195.08517
 20
12061.504159
 30
0.0
 11
3195.08517
 21
12061.504159
 31
0.0
  0
LINE
  8
0
 62
     0
 10
3246.811808
 20
12101.195405
 30
0.0
 11
3246.811808
 21
12101.195405
 31
0.0
  0
LINE
  8
0
 62
     0
 10
3299.966481
 20
12141.98242
 30
0.0
 11
3299.966481
 21
12141.98242
 31
0.0
  0
LINE
  8
0
 62
     0
 10
3352.52614
 20
12182.312865
 30
0.0
 11
3352.52614
 21
12182.312865
 31
0.0
  0
LINE
  8
0
 62
     0
 10
3404.252778
 20
12222.00411
 30
0.0
 11
3404.252778
 21
12222.00411
 31
0.0
  0
LINE
  8
0
 62
     0
 10
3457.407452
 20
12262.791126
 30
0.0
 11
3457.407452
 21
12262.791126
 31
0.0
  0
LINE
  8
0
 62
     0
 10
3509.967111
 20
12303.121571
 30
0.0
 11
3509.967111
 21
12303.121571
 31
0.0
  0
LINE
  8
0
 62
     0
 10
3193.869184
 20
12028.214774
 30
0.0
 11
3193.869184
 21
12028.214774
 31
0.0
  0
LINE
  8
0
 62
     0
 10
3245.595822
 20
12067.906019
 30
0.0
 11
3245.595822
 21
12067.906019
 31
0.0
  0
LINE
  8
0
 62
     0
 10
3298.750496
 20
12108.693035
 30
0.0
 11
3298.750496
 21
12108.693035
 31
0.0
  0
LINE
  8
0
 62
     0
 10
3403.036792
 20
12188.714725
 30
0.0
 11
3403.036792
 21
12188.714725
 31
0.0
  0
LINE
  8
0
 62
     0
 10
3456.191466
 20
12229.50174
 30
0.0
 11
3456.191466
 21
12229.50174
 31
0.0
  0
LINE
  8
0
 62
     0
 10
3508.751125
 20
12269.832185
 30
0.0
 11
3508.751125
 21
12269.832185
 31
0.0
  0
LINE
  8
0
 62
     0
 10
3244.379837
 20
12034.616634
 30
0.0
 11
3244.379837
 21
12034.616634
 31
0.0
  0
LINE
  8
0
 62
     0
 10
3297.53451
 20
12075.40365
 30
0.0
 11
3297.53451
 21
12075.40365
 31
0.0
  0
LINE
  8
0
 62
     0
 10
3401.820807
 20
12155.425339
 30
0.0
 11
3401.820807
 21
12155.425339
 31
0.0
  0
LINE
  8
0
 62
     0
 10
3454.975481
 20
12196.212355
 30
0.0
 11
3454.975481
 21
12196.212355
 31
0.0
  0
LINE
  8
0
 62
     0
 10
3507.535139
 20
12236.5428
 30
0.0
 11
3507.535139
 21
12236.5428
 31
0.0
  0
LINE
  8
0
 62
     0
 10
3296.318525
 20
12042.114264
 30
0.0
 11
3296.318525
 21
12042.114264
 31
0.0
  0
LINE
  8
0
 62
     0
 10
3453.759495
 20
12162.92297
 30
0.0
 11
3453.759495
 21
12162.92297
 31
0.0
  0
LINE
  8
0
 62
     0
 10
3506.319154
 20
12203.253414
 30
0.0
 11
3506.319154
 21
12203.253414
 31
0.0
  0
LINE
  8
0
 62
     0
 10
3505.103168
 20
12169.964029
 30
0.0
 11
3505.103168
 21
12169.964029
 31
0.0
  0
LINE
  8
0
 62
     0
 10
2804.784996
 20
12169.973718
 30
0.0
 11
2804.784996
 21
12169.973718
 31
0.0
  0
LINE
  8
0
 62
     0
 10
2829.818978
 20
12173.269504
 30
0.0
 11
2829.818978
 21
12173.269504
 31
0.0
  0
LINE
  8
0
 62
     0
 10
2867.692172
 20
12178.255605
 30
0.0
 11
2867.692172
 21
12178.255605
 31
0.0
  0
LINE
  8
0
 62
     0
 10
2930.84721
 20
12186.570123
 30
0.0
 11
2930.84721
 21
12186.570123
 31
0.0
  0
LINE
  8
0
 62
     0
 10
2955.881193
 20
12189.865909
 30
0.0
 11
2955.881193
 21
12189.865909
 31
0.0
  0
LINE
  8
0
 62
     0
 10
2993.754386
 20
12194.85201
 30
0.0
 11
2993.754386
 21
12194.85201
 31
0.0
  0
LINE
  8
0
 62
     0
 10
3056.909424
 20
12203.166528
 30
0.0
 11
3056.909424
 21
12203.166528
 31
0.0
  0
LINE
  8
0
 62
     0
 10
3081.943407
 20
12206.462315
 30
0.0
 11
3081.943407
 21
12206.462315
 31
0.0
  0
LINE
  8
0
 62
     0
 10
3119.8166
 20
12211.448415
 30
0.0
 11
3119.8166
 21
12211.448415
 31
0.0
  0
LINE
  8
0
 62
     0
 10
3182.971638
 20
12219.762934
 30
0.0
 11
3182.971638
 21
12219.762934
 31
0.0
  0
LINE
  8
0
 62
     0
 10
3208.005621
 20
12223.05872
 30
0.0
 11
3208.005621
 21
12223.05872
 31
0.0
  0
LINE
  8
0
 62
     0
 10
3245.878814
 20
12228.044821
 30
0.0
 11
3245.878814
 21
12228.044821
 31
0.0
  0
LINE
  8
0
 62
     0
 10
3309.033852
 20
12236.359339
 30
0.0
 11
3309.033852
 21
12236.359339
 31
0.0
  0
LINE
  8
0
 62
     0
 10
3334.067835
 20
12239.655125
 30
0.0
 11
3334.067835
 21
12239.655125
 31
0.0
  0
LINE
  8
0
 62
     0
 10
3371.941029
 20
12244.641226
 30
0.0
 11
3371.941029
 21
12244.641226
 31
0.0
  0
LINE
  8
0
 62
     0
 10
3435.096066
 20
12252.955744
 30
0.0
 11
3435.096066
 21
12252.955744
 31
0.0
  0
LINE
  8
0
 62
     0
 10
3460.130049
 20
12256.251531
 30
0.0
 11
3460.130049
 21
12256.251531
 31
0.0
  0
LINE
  8
0
 62
     0
 10
3498.003243
 20
12261.237631
 30
0.0
 11
3498.003243
 21
12261.237631
 31
0.0
  0
LINE
  8
0
 62
     0
 10
2831.091949
 20
12209.414889
 30
0.0
 11
2831.091949
 21
12209.414889
 31
0.0
  0
LINE
  8
0
 62
     0
 10
2856.125932
 20
12212.710675
 30
0.0
 11
2856.125932
 21
12212.710675
 31
0.0
  0
LINE
  8
0
 62
     0
 10
2893.999126
 20
12217.696776
 30
0.0
 11
2893.999126
 21
12217.696776
 31
0.0
  0
LINE
  8
0
 62
     0
 10
2957.154164
 20
12226.011294
 30
0.0
 11
2957.154164
 21
12226.011294
 31
0.0
  0
LINE
  8
0
 62
     0
 10
2982.188146
 20
12229.307081
 30
0.0
 11
2982.188146
 21
12229.307081
 31
0.0
  0
LINE
  8
0
 62
     0
 10
3020.06134
 20
12234.293181
 30
0.0
 11
3020.06134
 21
12234.293181
 31
0.0
  0
LINE
  8
0
 62
     0
 10
3083.216378
 20
12242.6077
 30
0.0
 11
3083.216378
 21
12242.6077
 31
0.0
  0
LINE
  8
0
 62
     0
 10
3108.25036
 20
12245.903486
 30
0.0
 11
3108.25036
 21
12245.903486
 31
0.0
  0
LINE
  8
0
 62
     0
 10
3146.123554
 20
12250.889586
 30
0.0
 11
3146.123554
 21
12250.889586
 31
0.0
  0
LINE
  8
0
 62
     0
 10
3209.278592
 20
12259.204105
 30
0.0
 11
3209.278592
 21
12259.204105
 31
0.0
  0
LINE
  8
0
 62
     0
 10
3234.312575
 20
12262.499891
 30
0.0
 11
3234.312575
 21
12262.499891
 31
0.0
  0
LINE
  8
0
 62
     0
 10
3272.185768
 20
12267.485992
 30
0.0
 11
3272.185768
 21
12267.485992
 31
0.0
  0
LINE
  8
0
 62
     0
 10
3335.340806
 20
12275.80051
 30
0.0
 11
3335.340806
 21
12275.80051
 31
0.0
  0
LINE
  8
0
 62
     0
 10
3360.374789
 20
12279.096297
 30
0.0
 11
3360.374789
 21
12279.096297
 31
0.0
  0
LINE
  8
0
 62
     0
 10
3398.247982
 20
12284.082397
 30
0.0
 11
3398.247982
 21
12284.082397
 31
0.0
  0
LINE
  8
0
 62
     0
 10
3461.40302
 20
12292.396916
 30
0.0
 11
3461.40302
 21
12292.396916
 31
0.0
  0
LINE
  8
0
 62
     0
 10
3486.437003
 20
12295.692702
 30
0.0
 11
3486.437003
 21
12295.692702
 31
0.0
  0
LINE
  8
0
 62
     0
 10
3524.310196
 20
12300.678803
 30
0.0
 11
3524.310196
 21
12300.678803
 31
0.0
  0
LINE
  8
0
 62
     0
 10
2794.243865
 20
12240.541542
 30
0.0
 11
2794.243865
 21
12240.541542
 31
0.0
  0
LINE
  8
0
 62
     0
 10
2857.398903
 20
12248.85606
 30
0.0
 11
2857.398903
 21
12248.85606
 31
0.0
  0
LINE
  8
0
 62
     0
 10
2882.432886
 20
12252.151846
 30
0.0
 11
2882.432886
 21
12252.151846
 31
0.0
  0
LINE
  8
0
 62
     0
 10
2920.30608
 20
12257.137947
 30
0.0
 11
2920.30608
 21
12257.137947
 31
0.0
  0
LINE
  8
0
 62
     0
 10
2983.461117
 20
12265.452465
 30
0.0
 11
2983.461117
 21
12265.452465
 31
0.0
  0
LINE
  8
0
 62
     0
 10
3008.4951
 20
12268.748252
 30
0.0
 11
3008.4951
 21
12268.748252
 31
0.0
  0
LINE
  8
0
 62
     0
 10
3046.368294
 20
12273.734352
 30
0.0
 11
3046.368294
 21
12273.734352
 31
0.0
  0
LINE
  8
0
 62
     0
 10
3109.523331
 20
12282.048871
 30
0.0
 11
3109.523331
 21
12282.048871
 31
0.0
  0
LINE
  8
0
 62
     0
 10
3134.557314
 20
12285.344657
 30
0.0
 11
3134.557314
 21
12285.344657
 31
0.0
  0
LINE
  8
0
 62
     0
 10
3172.430508
 20
12290.330758
 30
0.0
 11
3172.430508
 21
12290.330758
 31
0.0
  0
LINE
  8
0
 62
     0
 10
3235.585546
 20
12298.645276
 30
0.0
 11
3235.585546
 21
12298.645276
 31
0.0
  0
LINE
  8
0
 62
     0
 10
3260.619528
 20
12301.941062
 30
0.0
 11
3260.619528
 21
12301.941062
 31
0.0
  0
LINE
  8
0
 62
     0
 10
3298.492722
 20
12306.927163
 30
0.0
 11
3298.492722
 21
12306.927163
 31
0.0
  0
LINE
  8
0
 62
     0
 10
3361.64776
 20
12315.241681
 30
0.0
 11
3361.64776
 21
12315.241681
 31
0.0
  0
LINE
  8
0
 62
     0
 10
3386.681742
 20
12318.537468
 30
0.0
 11
3386.681742
 21
12318.537468
 31
0.0
  0
LINE
  8
0
 62
     0
 10
3424.554936
 20
12323.523568
 30
0.0
 11
3424.554936
 21
12323.523568
 31
0.0
  0
LINE
  8
0
 62
     0
 10
3487.709974
 20
12331.838087
 30
0.0
 11
3487.709974
 21
12331.838087
 31
0.0
  0
LINE
  8
0
 62
     0
 10
3512.743957
 20
12335.133873
 30
0.0
 11
3512.743957
 21
12335.133873
 31
0.0
  0
LINE
  8
0
 62
     0
 10
2820.550819
 20
12279.982713
 30
0.0
 11
2820.550819
 21
12279.982713
 31
0.0
  0
LINE
  8
0
 62
     0
 10
2883.705857
 20
12288.297231
 30
0.0
 11
2883.705857
 21
12288.297231
 31
0.0
  0
LINE
  8
0
 62
     0
 10
2908.73984
 20
12291.593018
 30
0.0
 11
2908.73984
 21
12291.593018
 31
0.0
  0
LINE
  8
0
 62
     0
 10
2946.613033
 20
12296.579118
 30
0.0
 11
2946.613033
 21
12296.579118
 31
0.0
  0
LINE
  8
0
 62
     0
 10
3009.768071
 20
12304.893637
 30
0.0
 11
3009.768071
 21
12304.893637
 31
0.0
  0
LINE
  8
0
 62
     0
 10
3034.802054
 20
12308.189423
 30
0.0
 11
3034.802054
 21
12308.189423
 31
0.0
  0
LINE
  8
0
 62
     0
 10
3072.675247
 20
12313.175524
 30
0.0
 11
3072.675247
 21
12313.175524
 31
0.0
  0
LINE
  8
0
 62
     0
 10
3135.830285
 20
12321.490042
 30
0.0
 11
3135.830285
 21
12321.490042
 31
0.0
  0
LINE
  8
0
 62
     0
 10
3261.892499
 20
12338.086447
 30
0.0
 11
3261.892499
 21
12338.086447
 31
0.0
  0
LINE
  8
0
 62
     0
 10
3286.926482
 20
12341.382234
 30
0.0
 11
3286.926482
 21
12341.382234
 31
0.0
  0
LINE
  8
0
 62
     0
 10
3324.799676
 20
12346.368334
 30
0.0
 11
3324.799676
 21
12346.368334
 31
0.0
  0
LINE
  8
0
 62
     0
 10
3387.954713
 20
12354.682853
 30
0.0
 11
3387.954713
 21
12354.682853
 31
0.0
  0
LINE
  8
0
 62
     0
 10
3412.988696
 20
12357.978639
 30
0.0
 11
3412.988696
 21
12357.978639
 31
0.0
  0
LINE
  8
0
 62
     0
 10
3450.86189
 20
12362.96474
 30
0.0
 11
3450.86189
 21
12362.96474
 31
0.0
  0
LINE
  8
0
 62
     0
 10
3514.016928
 20
12371.279258
 30
0.0
 11
3514.016928
 21
12371.279258
 31
0.0
  0
LINE
  8
0
 62
     0
 10
3539.05091
 20
12374.575044
 30
0.0
 11
3539.05091
 21
12374.575044
 31
0.0
  0
LINE
  8
0
 62
     0
 10
2808.984579
 20
12314.437783
 30
0.0
 11
2808.984579
 21
12314.437783
 31
0.0
  0
LINE
  8
0
 62
     0
 10
2846.857773
 20
12319.423884
 30
0.0
 11
2846.857773
 21
12319.423884
 31
0.0
  0
LINE
  8
0
 62
     0
 10
2910.012811
 20
12327.738402
 30
0.0
 11
2910.012811
 21
12327.738402
 31
0.0
  0
LINE
  8
0
 62
     0
 10
2935.046793
 20
12331.034189
 30
0.0
 11
2935.046793
 21
12331.034189
 31
0.0
  0
LINE
  8
0
 62
     0
 10
2972.919987
 20
12336.020289
 30
0.0
 11
2972.919987
 21
12336.020289
 31
0.0
  0
LINE
  8
0
 62
     0
 10
3036.075025
 20
12344.334808
 30
0.0
 11
3036.075025
 21
12344.334808
 31
0.0
  0
LINE
  8
0
 62
     0
 10
3061.109008
 20
12347.630594
 30
0.0
 11
3061.109008
 21
12347.630594
 31
0.0
  0
LINE
  8
0
 62
     0
 10
3288.199453
 20
12377.527618
 30
0.0
 11
3288.199453
 21
12377.527618
 31
0.0
  0
LINE
  8
0
 62
     0
 10
3313.233436
 20
12380.823405
 30
0.0
 11
3313.233436
 21
12380.823405
 31
0.0
  0
LINE
  8
0
 62
     0
 10
3351.106629
 20
12385.809505
 30
0.0
 11
3351.106629
 21
12385.809505
 31
0.0
  0
LINE
  8
0
 62
     0
 10
3414.261667
 20
12394.124024
 30
0.0
 11
3414.261667
 21
12394.124024
 31
0.0
  0
LINE
  8
0
 62
     0
 10
3439.29565
 20
12397.41981
 30
0.0
 11
3439.29565
 21
12397.41981
 31
0.0
  0
LINE
  8
0
 62
     0
 10
3477.168844
 20
12402.405911
 30
0.0
 11
3477.168844
 21
12402.405911
 31
0.0
  0
LINE
  8
0
 62
     0
 10
3540.323881
 20
12410.720429
 30
0.0
 11
3540.323881
 21
12410.720429
 31
0.0
  0
LINE
  8
0
 62
     0
 10
2810.25755
 20
12350.583168
 30
0.0
 11
2810.25755
 21
12350.583168
 31
0.0
  0
LINE
  8
0
 62
     0
 10
2835.291533
 20
12353.878955
 30
0.0
 11
2835.291533
 21
12353.878955
 31
0.0
  0
LINE
  8
0
 62
     0
 10
2873.164727
 20
12358.865055
 30
0.0
 11
2873.164727
 21
12358.865055
 31
0.0
  0
LINE
  8
0
 62
     0
 10
2936.319764
 20
12367.179574
 30
0.0
 11
2936.319764
 21
12367.179574
 31
0.0
  0
LINE
  8
0
 62
     0
 10
2961.353747
 20
12370.47536
 30
0.0
 11
2961.353747
 21
12370.47536
 31
0.0
  0
LINE
  8
0
 62
     0
 10
2999.226941
 20
12375.461461
 30
0.0
 11
2999.226941
 21
12375.461461
 31
0.0
  0
LINE
  8
0
 62
     0
 10
3314.506407
 20
12416.96879
 30
0.0
 11
3314.506407
 21
12416.96879
 31
0.0
  0
LINE
  8
0
 62
     0
 10
3339.54039
 20
12420.264576
 30
0.0
 11
3339.54039
 21
12420.264576
 31
0.0
  0
LINE
  8
0
 62
     0
 10
3377.413583
 20
12425.250677
 30
0.0
 11
3377.413583
 21
12425.250677
 31
0.0
  0
LINE
  8
0
 62
     0
 10
3440.568621
 20
12433.565195
 30
0.0
 11
3440.568621
 21
12433.565195
 31
0.0
  0
LINE
  8
0
 62
     0
 10
3465.602604
 20
12436.860981
 30
0.0
 11
3465.602604
 21
12436.860981
 31
0.0
  0
LINE
  8
0
 62
     0
 10
3503.475797
 20
12441.847082
 30
0.0
 11
3503.475797
 21
12441.847082
 31
0.0
  0
LINE
  8
0
 62
     0
 10
2836.564504
 20
12390.02434
 30
0.0
 11
2836.564504
 21
12390.02434
 31
0.0
  0
LINE
  8
0
 62
     0
 10
2861.598487
 20
12393.320126
 30
0.0
 11
2861.598487
 21
12393.320126
 31
0.0
  0
LINE
  8
0
 62
     0
 10
2899.47168
 20
12398.306226
 30
0.0
 11
2899.47168
 21
12398.306226
 31
0.0
  0
LINE
  8
0
 62
     0
 10
2962.626718
 20
12406.620745
 30
0.0
 11
2962.626718
 21
12406.620745
 31
0.0
  0
LINE
  8
0
 62
     0
 10
2987.660701
 20
12409.916531
 30
0.0
 11
2987.660701
 21
12409.916531
 31
0.0
  0
LINE
  8
0
 62
     0
 10
3025.533895
 20
12414.902632
 30
0.0
 11
3025.533895
 21
12414.902632
 31
0.0
  0
LINE
  8
0
 62
     0
 10
2799.71642
 20
12421.150992
 30
0.0
 11
2799.71642
 21
12421.150992
 31
0.0
  0
LINE
  8
0
 62
     0
 10
2862.871458
 20
12429.465511
 30
0.0
 11
2862.871458
 21
12429.465511
 31
0.0
  0
LINE
  8
0
 62
     0
 10
2887.90544
 20
12432.761297
 30
0.0
 11
2887.90544
 21
12432.761297
 31
0.0
  0
LINE
  8
0
 62
     0
 10
2925.778634
 20
12437.747398
 30
0.0
 11
2925.778634
 21
12437.747398
 31
0.0
  0
LINE
  8
0
 62
     0
 10
2988.933672
 20
12446.061916
 30
0.0
 11
2988.933672
 21
12446.061916
 31
0.0
  0
LINE
  8
0
 62
     0
 10
2826.023374
 20
12460.592163
 30
0.0
 11
2826.023374
 21
12460.592163
 31
0.0
  0
LINE
  8
0
 62
     0
 10
2967.447432
 20
12155.410839
 30
0.0
 11
2967.447432
 21
12155.410839
 31
0.0
  0
LINE
  8
0
 62
     0
 10
3030.60247
 20
12163.725357
 30
0.0
 11
3030.60247
 21
12163.725357
 31
0.0
  0
LINE
  8
0
 62
     0
 10
3055.636453
 20
12167.021144
 30
0.0
 11
3055.636453
 21
12167.021144
 31
0.0
  0
LINE
  8
0
 62
     0
 10
3093.509647
 20
12172.007244
 30
0.0
 11
3093.509647
 21
12172.007244
 31
0.0
  0
LINE
  8
0
 62
     0
 10
3156.664684
 20
12180.321763
 30
0.0
 11
3156.664684
 21
12180.321763
 31
0.0
  0
LINE
  8
0
 62
     0
 10
3181.698667
 20
12183.617549
 30
0.0
 11
3181.698667
 21
12183.617549
 31
0.0
  0
LINE
  8
0
 62
     0
 10
3219.571861
 20
12188.603649
 30
0.0
 11
3219.571861
 21
12188.603649
 31
0.0
  0
LINE
  8
0
 62
     0
 10
3282.726898
 20
12196.918168
 30
0.0
 11
3282.726898
 21
12196.918168
 31
0.0
  0
LINE
  8
0
 62
     0
 10
3307.760881
 20
12200.213954
 30
0.0
 11
3307.760881
 21
12200.213954
 31
0.0
  0
LINE
  8
0
 62
     0
 10
3345.634075
 20
12205.200055
 30
0.0
 11
3345.634075
 21
12205.200055
 31
0.0
  0
LINE
  8
0
 62
     0
 10
3408.789113
 20
12213.514573
 30
0.0
 11
3408.789113
 21
12213.514573
 31
0.0
  0
LINE
  8
0
 62
     0
 10
3433.823095
 20
12216.81036
 30
0.0
 11
3433.823095
 21
12216.81036
 31
0.0
  0
LINE
  8
0
 62
     0
 10
3471.696289
 20
12221.79646
 30
0.0
 11
3471.696289
 21
12221.79646
 31
0.0
  0
LINE
  8
0
 62
     0
 10
3534.851327
 20
12230.110979
 30
0.0
 11
3534.851327
 21
12230.110979
 31
0.0
  0
LINE
  8
0
 62
     0
 10
3004.295516
 20
12124.284186
 30
0.0
 11
3004.295516
 21
12124.284186
 31
0.0
  0
LINE
  8
0
 62
     0
 10
3029.329499
 20
12127.579972
 30
0.0
 11
3029.329499
 21
12127.579972
 31
0.0
  0
LINE
  8
0
 62
     0
 10
3067.202693
 20
12132.566073
 30
0.0
 11
3067.202693
 21
12132.566073
 31
0.0
  0
LINE
  8
0
 62
     0
 10
3130.357731
 20
12140.880591
 30
0.0
 11
3130.357731
 21
12140.880591
 31
0.0
  0
LINE
  8
0
 62
     0
 10
3155.391713
 20
12144.176378
 30
0.0
 11
3155.391713
 21
12144.176378
 31
0.0
  0
LINE
  8
0
 62
     0
 10
3193.264907
 20
12149.162478
 30
0.0
 11
3193.264907
 21
12149.162478
 31
0.0
  0
LINE
  8
0
 62
     0
 10
3256.419945
 20
12157.476997
 30
0.0
 11
3256.419945
 21
12157.476997
 31
0.0
  0
LINE
  8
0
 62
     0
 10
3281.453927
 20
12160.772783
 30
0.0
 11
3281.453927
 21
12160.772783
 31
0.0
  0
LINE
  8
0
 62
     0
 10
3319.327121
 20
12165.758884
 30
0.0
 11
3319.327121
 21
12165.758884
 31
0.0
  0
LINE
  8
0
 62
     0
 10
3382.482159
 20
12174.073402
 30
0.0
 11
3382.482159
 21
12174.073402
 31
0.0
  0
LINE
  8
0
 62
     0
 10
3407.516142
 20
12177.369188
 30
0.0
 11
3407.516142
 21
12177.369188
 31
0.0
  0
LINE
  8
0
 62
     0
 10
3445.389335
 20
12182.355289
 30
0.0
 11
3445.389335
 21
12182.355289
 31
0.0
  0
LINE
  8
0
 62
     0
 10
3508.544373
 20
12190.669807
 30
0.0
 11
3508.544373
 21
12190.669807
 31
0.0
  0
LINE
  8
0
 62
     0
 10
3533.578356
 20
12193.965594
 30
0.0
 11
3533.578356
 21
12193.965594
 31
0.0
  0
LINE
  8
0
 62
     0
 10
3003.022545
 20
12088.138801
 30
0.0
 11
3003.022545
 21
12088.138801
 31
0.0
  0
LINE
  8
0
 62
     0
 10
3040.895739
 20
12093.124902
 30
0.0
 11
3040.895739
 21
12093.124902
 31
0.0
  0
LINE
  8
0
 62
     0
 10
3104.050777
 20
12101.43942
 30
0.0
 11
3104.050777
 21
12101.43942
 31
0.0
  0
LINE
  8
0
 62
     0
 10
3129.08476
 20
12104.735207
 30
0.0
 11
3129.08476
 21
12104.735207
 31
0.0
  0
LINE
  8
0
 62
     0
 10
3166.957953
 20
12109.721307
 30
0.0
 11
3166.957953
 21
12109.721307
 31
0.0
  0
LINE
  8
0
 62
     0
 10
3230.112991
 20
12118.035826
 30
0.0
 11
3230.112991
 21
12118.035826
 31
0.0
  0
LINE
  8
0
 62
     0
 10
3255.146974
 20
12121.331612
 30
0.0
 11
3255.146974
 21
12121.331612
 31
0.0
  0
LINE
  8
0
 62
     0
 10
3293.020167
 20
12126.317712
 30
0.0
 11
3293.020167
 21
12126.317712
 31
0.0
  0
LINE
  8
0
 62
     0
 10
3482.237419
 20
12151.228636
 30
0.0
 11
3482.237419
 21
12151.228636
 31
0.0
  0
LINE
  8
0
 62
     0
 10
3507.271402
 20
12154.524423
 30
0.0
 11
3507.271402
 21
12154.524423
 31
0.0
  0
LINE
  8
0
 62
     0
 10
3014.588785
 20
12053.683731
 30
0.0
 11
3014.588785
 21
12053.683731
 31
0.0
  0
LINE
  8
0
 62
     0
 10
3077.743823
 20
12061.998249
 30
0.0
 11
3077.743823
 21
12061.998249
 31
0.0
  0
LINE
  8
0
 62
     0
 10
3102.777806
 20
12065.294035
 30
0.0
 11
3102.777806
 21
12065.294035
 31
0.0
  0
LINE
  8
0
 62
     0
 10
3140.651
 20
12070.280136
 30
0.0
 11
3140.651
 21
12070.280136
 31
0.0
  0
LINE
  8
0
 62
     0
 10
3203.806037
 20
12078.594654
 30
0.0
 11
3203.806037
 21
12078.594654
 31
0.0
  0
LINE
  8
0
 62
     0
 10
3228.84002
 20
12081.890441
 30
0.0
 11
3228.84002
 21
12081.890441
 31
0.0
  0
LINE
  8
0
 62
     0
 10
3266.713214
 20
12086.876541
 30
0.0
 11
3266.713214
 21
12086.876541
 31
0.0
  0
LINE
  8
0
 62
     0
 10
3329.868251
 20
12095.19106
 30
0.0
 11
3329.868251
 21
12095.19106
 31
0.0
  0
LINE
  8
0
 62
     0
 10
3051.436869
 20
12022.557078
 30
0.0
 11
3051.436869
 21
12022.557078
 31
0.0
  0
LINE
  8
0
 62
     0
 10
3076.470852
 20
12025.852864
 30
0.0
 11
3076.470852
 21
12025.852864
 31
0.0
  0
LINE
  8
0
 62
     0
 10
3114.344046
 20
12030.838965
 30
0.0
 11
3114.344046
 21
12030.838965
 31
0.0
  0
LINE
  8
0
 62
     0
 10
3177.499083
 20
12039.153483
 30
0.0
 11
3177.499083
 21
12039.153483
 31
0.0
  0
LINE
  8
0
 62
     0
 10
3202.533066
 20
12042.449269
 30
0.0
 11
3202.533066
 21
12042.449269
 31
0.0
  0
LINE
  8
0
 62
     0
 10
3240.40626
 20
12047.43537
 30
0.0
 11
3240.40626
 21
12047.43537
 31
0.0
  0
LINE
  8
0
 62
     0
 10
3303.561298
 20
12055.749888
 30
0.0
 11
3303.561298
 21
12055.749888
 31
0.0
  0
LINE
  8
0
 62
     0
 10
3328.59528
 20
12059.045675
 30
0.0
 11
3328.59528
 21
12059.045675
 31
0.0
  0
LINE
  8
0
 62
     0
 10
3340.16152
 20
12024.590604
 30
0.0
 11
3340.16152
 21
12024.590604
 31
0.0
  0
LINE
  8
0
 62
     0
 10
2872.927023
 20
12412.522923
 30
0.0
 11
2872.927023
 21
12412.522923
 31
0.0
  0
LINE
  8
0
 62
     0
 10
2894.011809
 20
12399.090433
 30
0.0
 11
2894.011809
 21
12399.090433
 31
0.0
  0
LINE
  8
0
 62
     0
 10
2959.796342
 20
12357.181063
 30
0.0
 11
2959.796342
 21
12357.181063
 31
0.0
  0
LINE
  8
0
 62
     0
 10
3047.087357
 20
12301.570554
 30
0.0
 11
3047.087357
 21
12301.570554
 31
0.0
  0
LINE
  8
0
 62
     0
 10
3068.172143
 20
12288.138064
 30
0.0
 11
3068.172143
 21
12288.138064
 31
0.0
  0
LINE
  8
0
 62
     0
 10
3133.956676
 20
12246.228694
 30
0.0
 11
3133.956676
 21
12246.228694
 31
0.0
  0
LINE
  8
0
 62
     0
 10
3221.24769
 20
12190.618185
 30
0.0
 11
3221.24769
 21
12190.618185
 31
0.0
  0
LINE
  8
0
 62
     0
 10
3242.332477
 20
12177.185695
 30
0.0
 11
3242.332477
 21
12177.185695
 31
0.0
  0
LINE
  8
0
 62
     0
 10
3308.117009
 20
12135.276325
 30
0.0
 11
3308.117009
 21
12135.276325
 31
0.0
  0
LINE
  8
0
 62
     0
 10
2839.018252
 20
12465.877945
 30
0.0
 11
2839.018252
 21
12465.877945
 31
0.0
  0
LINE
  8
0
 62
     0
 10
2926.309267
 20
12410.267436
 30
0.0
 11
2926.309267
 21
12410.267436
 31
0.0
  0
LINE
  8
0
 62
     0
 10
2947.394053
 20
12396.834946
 30
0.0
 11
2947.394053
 21
12396.834946
 31
0.0
  0
LINE
  8
0
 62
     0
 10
3013.178586
 20
12354.925576
 30
0.0
 11
3013.178586
 21
12354.925576
 31
0.0
  0
LINE
  8
0
 62
     0
 10
3100.469601
 20
12299.315067
 30
0.0
 11
3100.469601
 21
12299.315067
 31
0.0
  0
LINE
  8
0
 62
     0
 10
3121.554387
 20
12285.882577
 30
0.0
 11
3121.554387
 21
12285.882577
 31
0.0
  0
LINE
  8
0
 62
     0
 10
3187.338919
 20
12243.973207
 30
0.0
 11
3187.338919
 21
12243.973207
 31
0.0
  0
LINE
  8
0
 62
     0
 10
3274.629934
 20
12188.362698
 30
0.0
 11
3274.629934
 21
12188.362698
 31
0.0
  0
LINE
  8
0
 62
     0
 10
3295.71472
 20
12174.930207
 30
0.0
 11
3295.71472
 21
12174.930207
 31
0.0
  0
LINE
  8
0
 62
     0
 10
2979.691511
 20
12408.011949
 30
0.0
 11
2979.691511
 21
12408.011949
 31
0.0
  0
LINE
  8
0
 62
     0
 10
3000.776297
 20
12394.579459
 30
0.0
 11
3000.776297
 21
12394.579459
 31
0.0
  0
LINE
  8
0
 62
     0
 10
3066.560829
 20
12352.670089
 30
0.0
 11
3066.560829
 21
12352.670089
 31
0.0
  0
LINE
  8
0
 62
     0
 10
3153.851844
 20
12297.05958
 30
0.0
 11
3153.851844
 21
12297.05958
 31
0.0
  0
LINE
  8
0
 62
     0
 10
3174.93663
 20
12283.627089
 30
0.0
 11
3174.93663
 21
12283.627089
 31
0.0
  0
LINE
  8
0
 62
     0
 10
3240.721163
 20
12241.71772
 30
0.0
 11
3240.721163
 21
12241.71772
 31
0.0
  0
LINE
  8
0
 62
     0
 10
3328.012178
 20
12186.10721
 30
0.0
 11
3328.012178
 21
12186.10721
 31
0.0
  0
LINE
  8
0
 62
     0
 10
3349.096964
 20
12172.67472
 30
0.0
 11
3349.096964
 21
12172.67472
 31
0.0
  0
LINE
  8
0
 62
     0
 10
3033.073754
 20
12405.756462
 30
0.0
 11
3033.073754
 21
12405.756462
 31
0.0
  0
LINE
  8
0
 62
     0
 10
3207.234088
 20
12294.804092
 30
0.0
 11
3207.234088
 21
12294.804092
 31
0.0
  0
LINE
  8
0
 62
     0
 10
3228.318874
 20
12281.371602
 30
0.0
 11
3228.318874
 21
12281.371602
 31
0.0
  0
LINE
  8
0
 62
     0
 10
3294.103407
 20
12239.462233
 30
0.0
 11
3294.103407
 21
12239.462233
 31
0.0
  0
LINE
  8
0
 62
     0
 10
3381.394421
 20
12183.851723
 30
0.0
 11
3381.394421
 21
12183.851723
 31
0.0
  0
LINE
  8
0
 62
     0
 10
3402.479207
 20
12170.419233
 30
0.0
 11
3402.479207
 21
12170.419233
 31
0.0
  0
LINE
  8
0
 62
     0
 10
3260.616331
 20
12292.548605
 30
0.0
 11
3260.616331
 21
12292.548605
 31
0.0
  0
LINE
  8
0
 62
     0
 10
3281.701118
 20
12279.116115
 30
0.0
 11
3281.701118
 21
12279.116115
 31
0.0
  0
LINE
  8
0
 62
     0
 10
3347.48565
 20
12237.206746
 30
0.0
 11
3347.48565
 21
12237.206746
 31
0.0
  0
LINE
  8
0
 62
     0
 10
3434.776665
 20
12181.596236
 30
0.0
 11
3434.776665
 21
12181.596236
 31
0.0
  0
LINE
  8
0
 62
     0
 10
3455.861451
 20
12168.163746
 30
0.0
 11
3455.861451
 21
12168.163746
 31
0.0
  0
LINE
  8
0
 62
     0
 10
3313.998575
 20
12290.293118
 30
0.0
 11
3313.998575
 21
12290.293118
 31
0.0
  0
LINE
  8
0
 62
     0
 10
3335.083361
 20
12276.860628
 30
0.0
 11
3335.083361
 21
12276.860628
 31
0.0
  0
LINE
  8
0
 62
     0
 10
3400.867894
 20
12234.951258
 30
0.0
 11
3400.867894
 21
12234.951258
 31
0.0
  0
LINE
  8
0
 62
     0
 10
3488.158909
 20
12179.340749
 30
0.0
 11
3488.158909
 21
12179.340749
 31
0.0
  0
LINE
  8
0
 62
     0
 10
3509.243695
 20
12165.908259
 30
0.0
 11
3509.243695
 21
12165.908259
 31
0.0
  0
LINE
  8
0
 62
     0
 10
3280.089804
 20
12343.64814
 30
0.0
 11
3280.089804
 21
12343.64814
 31
0.0
  0
LINE
  8
0
 62
     0
 10
3367.380819
 20
12288.037631
 30
0.0
 11
3367.380819
 21
12288.037631
 31
0.0
  0
LINE
  8
0
 62
     0
 10
3388.465605
 20
12274.605141
 30
0.0
 11
3388.465605
 21
12274.605141
 31
0.0
  0
LINE
  8
0
 62
     0
 10
3454.250138
 20
12232.695771
 30
0.0
 11
3454.250138
 21
12232.695771
 31
0.0
  0
LINE
  8
0
 62
     0
 10
3333.472048
 20
12341.392653
 30
0.0
 11
3333.472048
 21
12341.392653
 31
0.0
  0
LINE
  8
0
 62
     0
 10
3420.763062
 20
12285.782144
 30
0.0
 11
3420.763062
 21
12285.782144
 31
0.0
  0
LINE
  8
0
 62
     0
 10
3441.847848
 20
12272.349654
 30
0.0
 11
3441.847848
 21
12272.349654
 31
0.0
  0
LINE
  8
0
 62
     0
 10
3507.632381
 20
12230.440284
 30
0.0
 11
3507.632381
 21
12230.440284
 31
0.0
  0
LINE
  8
0
 62
     0
 10
3299.984972
 20
12394.479026
 30
0.0
 11
3299.984972
 21
12394.479026
 31
0.0
  0
LINE
  8
0
 62
     0
 10
3321.069758
 20
12381.046535
 30
0.0
 11
3321.069758
 21
12381.046535
 31
0.0
  0
LINE
  8
0
 62
     0
 10
3386.854291
 20
12339.137166
 30
0.0
 11
3386.854291
 21
12339.137166
 31
0.0
  0
LINE
  8
0
 62
     0
 10
3474.145306
 20
12283.526657
 30
0.0
 11
3474.145306
 21
12283.526657
 31
0.0
  0
LINE
  8
0
 62
     0
 10
3495.230092
 20
12270.094166
 30
0.0
 11
3495.230092
 21
12270.094166
 31
0.0
  0
LINE
  8
0
 62
     0
 10
3353.367216
 20
12392.223539
 30
0.0
 11
3353.367216
 21
12392.223539
 31
0.0
  0
LINE
  8
0
 62
     0
 10
3374.452002
 20
12378.791048
 30
0.0
 11
3374.452002
 21
12378.791048
 31
0.0
  0
LINE
  8
0
 62
     0
 10
3440.236535
 20
12336.881679
 30
0.0
 11
3440.236535
 21
12336.881679
 31
0.0
  0
LINE
  8
0
 62
     0
 10
3527.527549
 20
12281.271169
 30
0.0
 11
3527.527549
 21
12281.271169
 31
0.0
  0
LINE
  8
0
 62
     0
 10
3319.458445
 20
12445.578561
 30
0.0
 11
3319.458445
 21
12445.578561
 31
0.0
  0
LINE
  8
0
 62
     0
 10
3406.74946
 20
12389.968051
 30
0.0
 11
3406.74946
 21
12389.968051
 31
0.0
  0
LINE
  8
0
 62
     0
 10
3427.834246
 20
12376.535561
 30
0.0
 11
3427.834246
 21
12376.535561
 31
0.0
  0
LINE
  8
0
 62
     0
 10
3493.618778
 20
12334.626192
 30
0.0
 11
3493.618778
 21
12334.626192
 31
0.0
  0
LINE
  8
0
 62
     0
 10
3372.840688
 20
12443.323074
 30
0.0
 11
3372.840688
 21
12443.323074
 31
0.0
  0
LINE
  8
0
 62
     0
 10
3460.131703
 20
12387.712564
 30
0.0
 11
3460.131703
 21
12387.712564
 31
0.0
  0
LINE
  8
0
 62
     0
 10
3481.216489
 20
12374.280074
 30
0.0
 11
3481.216489
 21
12374.280074
 31
0.0
  0
LINE
  8
0
 62
     0
 10
3426.222932
 20
12441.067586
 30
0.0
 11
3426.222932
 21
12441.067586
 31
0.0
  0
LINE
  8
0
 62
     0
 10
3513.513947
 20
12385.457077
 30
0.0
 11
3513.513947
 21
12385.457077
 31
0.0
  0
LINE
  8
0
 62
     0
 10
3534.598733
 20
12372.024587
 30
0.0
 11
3534.598733
 21
12372.024587
 31
0.0
  0
LINE
  8
0
 62
     0
 10
3479.605176
 20
12438.812099
 30
0.0
 11
3479.605176
 21
12438.812099
 31
0.0
  0
LINE
  8
0
 62
     0
 10
3532.987419
 20
12436.556612
 30
0.0
 11
3532.987419
 21
12436.556612
 31
0.0
  0
LINE
  8
0
 62
     0
 10
2819.54478
 20
12414.77841
 30
0.0
 11
2819.54478
 21
12414.77841
 31
0.0
  0
LINE
  8
0
 62
     0
 10
2840.629566
 20
12401.34592
 30
0.0
 11
2840.629566
 21
12401.34592
 31
0.0
  0
LINE
  8
0
 62
     0
 10
2906.414099
 20
12359.436551
 30
0.0
 11
2906.414099
 21
12359.436551
 31
0.0
  0
LINE
  8
0
 62
     0
 10
2993.705113
 20
12303.826041
 30
0.0
 11
2993.705113
 21
12303.826041
 31
0.0
  0
LINE
  8
0
 62
     0
 10
3014.789899
 20
12290.393551
 30
0.0
 11
3014.789899
 21
12290.393551
 31
0.0
  0
LINE
  8
0
 62
     0
 10
3080.574432
 20
12248.484181
 30
0.0
 11
3080.574432
 21
12248.484181
 31
0.0
  0
LINE
  8
0
 62
     0
 10
3167.865447
 20
12192.873672
 30
0.0
 11
3167.865447
 21
12192.873672
 31
0.0
  0
LINE
  8
0
 62
     0
 10
3188.950233
 20
12179.441182
 30
0.0
 11
3188.950233
 21
12179.441182
 31
0.0
  0
LINE
  8
0
 62
     0
 10
3254.734766
 20
12137.531812
 30
0.0
 11
3254.734766
 21
12137.531812
 31
0.0
  0
LINE
  8
0
 62
     0
 10
2853.031855
 20
12361.692038
 30
0.0
 11
2853.031855
 21
12361.692038
 31
0.0
  0
LINE
  8
0
 62
     0
 10
2940.32287
 20
12306.081528
 30
0.0
 11
2940.32287
 21
12306.081528
 31
0.0
  0
LINE
  8
0
 62
     0
 10
2961.407656
 20
12292.649038
 30
0.0
 11
2961.407656
 21
12292.649038
 31
0.0
  0
LINE
  8
0
 62
     0
 10
3027.192189
 20
12250.739669
 30
0.0
 11
3027.192189
 21
12250.739669
 31
0.0
  0
LINE
  8
0
 62
     0
 10
3114.483203
 20
12195.129159
 30
0.0
 11
3114.483203
 21
12195.129159
 31
0.0
  0
LINE
  8
0
 62
     0
 10
3135.567989
 20
12181.696669
 30
0.0
 11
3135.567989
 21
12181.696669
 31
0.0
  0
LINE
  8
0
 62
     0
 10
3201.352522
 20
12139.7873
 30
0.0
 11
3201.352522
 21
12139.7873
 31
0.0
  0
LINE
  8
0
 62
     0
 10
3288.643537
 20
12084.17679
 30
0.0
 11
3288.643537
 21
12084.17679
 31
0.0
  0
LINE
  8
0
 62
     0
 10
3309.728323
 20
12070.7443
 30
0.0
 11
3309.728323
 21
12070.7443
 31
0.0
  0
LINE
  8
0
 62
     0
 10
2799.649611
 20
12363.947525
 30
0.0
 11
2799.649611
 21
12363.947525
 31
0.0
  0
LINE
  8
0
 62
     0
 10
2886.940626
 20
12308.337015
 30
0.0
 11
2886.940626
 21
12308.337015
 31
0.0
  0
LINE
  8
0
 62
     0
 10
2908.025412
 20
12294.904525
 30
0.0
 11
2908.025412
 21
12294.904525
 31
0.0
  0
LINE
  8
0
 62
     0
 10
2973.809945
 20
12252.995156
 30
0.0
 11
2973.809945
 21
12252.995156
 31
0.0
  0
LINE
  8
0
 62
     0
 10
3061.10096
 20
12197.384646
 30
0.0
 11
3061.10096
 21
12197.384646
 31
0.0
  0
LINE
  8
0
 62
     0
 10
3082.185746
 20
12183.952156
 30
0.0
 11
3082.185746
 21
12183.952156
 31
0.0
  0
LINE
  8
0
 62
     0
 10
3147.970279
 20
12142.042787
 30
0.0
 11
3147.970279
 21
12142.042787
 31
0.0
  0
LINE
  8
0
 62
     0
 10
3235.261293
 20
12086.432277
 30
0.0
 11
3235.261293
 21
12086.432277
 31
0.0
  0
LINE
  8
0
 62
     0
 10
3256.346079
 20
12072.999787
 30
0.0
 11
3256.346079
 21
12072.999787
 31
0.0
  0
LINE
  8
0
 62
     0
 10
3322.130612
 20
12031.090418
 30
0.0
 11
3322.130612
 21
12031.090418
 31
0.0
  0
LINE
  8
0
 62
     0
 10
2833.558382
 20
12310.592503
 30
0.0
 11
2833.558382
 21
12310.592503
 31
0.0
  0
LINE
  8
0
 62
     0
 10
2854.643169
 20
12297.160012
 30
0.0
 11
2854.643169
 21
12297.160012
 31
0.0
  0
LINE
  8
0
 62
     0
 10
2920.427701
 20
12255.250643
 30
0.0
 11
2920.427701
 21
12255.250643
 31
0.0
  0
LINE
  8
0
 62
     0
 10
3007.718716
 20
12199.640134
 30
0.0
 11
3007.718716
 21
12199.640134
 31
0.0
  0
LINE
  8
0
 62
     0
 10
3028.803502
 20
12186.207643
 30
0.0
 11
3028.803502
 21
12186.207643
 31
0.0
  0
LINE
  8
0
 62
     0
 10
3094.588035
 20
12144.298274
 30
0.0
 11
3094.588035
 21
12144.298274
 31
0.0
  0
LINE
  8
0
 62
     0
 10
3181.87905
 20
12088.687764
 30
0.0
 11
3181.87905
 21
12088.687764
 31
0.0
  0
LINE
  8
0
 62
     0
 10
3202.963836
 20
12075.255274
 30
0.0
 11
3202.963836
 21
12075.255274
 31
0.0
  0
LINE
  8
0
 62
     0
 10
3268.748368
 20
12033.345905
 30
0.0
 11
3268.748368
 21
12033.345905
 31
0.0
  0
LINE
  8
0
 62
     0
 10
2801.260925
 20
12299.4155
 30
0.0
 11
2801.260925
 21
12299.4155
 31
0.0
  0
LINE
  8
0
 62
     0
 10
2867.045458
 20
12257.50613
 30
0.0
 11
2867.045458
 21
12257.50613
 31
0.0
  0
LINE
  8
0
 62
     0
 10
2954.336472
 20
12201.895621
 30
0.0
 11
2954.336472
 21
12201.895621
 31
0.0
  0
LINE
  8
0
 62
     0
 10
2975.421259
 20
12188.46313
 30
0.0
 11
2975.421259
 21
12188.46313
 31
0.0
  0
LINE
  8
0
 62
     0
 10
3041.205791
 20
12146.553761
 30
0.0
 11
3041.205791
 21
12146.553761
 31
0.0
  0
LINE
  8
0
 62
     0
 10
3128.496806
 20
12090.943252
 30
0.0
 11
3128.496806
 21
12090.943252
 31
0.0
  0
LINE
  8
0
 62
     0
 10
3149.581592
 20
12077.510761
 30
0.0
 11
3149.581592
 21
12077.510761
 31
0.0
  0
LINE
  8
0
 62
     0
 10
3215.366125
 20
12035.601392
 30
0.0
 11
3215.366125
 21
12035.601392
 31
0.0
  0
LINE
  8
0
 62
     0
 10
2813.663214
 20
12259.761617
 30
0.0
 11
2813.663214
 21
12259.761617
 31
0.0
  0
LINE
  8
0
 62
     0
 10
2900.954229
 20
12204.151108
 30
0.0
 11
2900.954229
 21
12204.151108
 31
0.0
  0
LINE
  8
0
 62
     0
 10
2922.039015
 20
12190.718618
 30
0.0
 11
2922.039015
 21
12190.718618
 31
0.0
  0
LINE
  8
0
 62
     0
 10
3075.114562
 20
12093.198739
 30
0.0
 11
3075.114562
 21
12093.198739
 31
0.0
  0
LINE
  8
0
 62
     0
 10
3096.199348
 20
12079.766249
 30
0.0
 11
3096.199348
 21
12079.766249
 31
0.0
  0
LINE
  8
0
 62
     0
 10
3161.983881
 20
12037.856879
 30
0.0
 11
3161.983881
 21
12037.856879
 31
0.0
  0
LINE
  8
0
 62
     0
 10
2847.571985
 20
12206.406595
 30
0.0
 11
2847.571985
 21
12206.406595
 31
0.0
  0
LINE
  8
0
 62
     0
 10
2868.656771
 20
12192.974105
 30
0.0
 11
2868.656771
 21
12192.974105
 31
0.0
  0
LINE
  8
0
 62
     0
 10
3021.732319
 20
12095.454226
 30
0.0
 11
3021.732319
 21
12095.454226
 31
0.0
  0
LINE
  8
0
 62
     0
 10
3042.817105
 20
12082.021736
 30
0.0
 11
3042.817105
 21
12082.021736
 31
0.0
  0
LINE
  8
0
 62
     0
 10
3108.601638
 20
12040.112366
 30
0.0
 11
3108.601638
 21
12040.112366
 31
0.0
  0
LINE
  8
0
 62
     0
 10
2794.189742
 20
12208.662082
 30
0.0
 11
2794.189742
 21
12208.662082
 31
0.0
  0
LINE
  8
0
 62
     0
 10
2815.274528
 20
12195.229592
 30
0.0
 11
2815.274528
 21
12195.229592
 31
0.0
  0
LINE
  8
0
 62
     0
 10
2881.05906
 20
12153.320223
 30
0.0
 11
2881.05906
 21
12153.320223
 31
0.0
  0
LINE
  8
0
 62
     0
 10
3055.219394
 20
12042.367853
 30
0.0
 11
3055.219394
 21
12042.367853
 31
0.0
  0
LINE
  8
0
 62
     0
 10
2827.676817
 20
12155.57571
 30
0.0
 11
2827.676817
 21
12155.57571
 31
0.0
  0
LINE
  8
0
 62
     0
 10
3001.83715
 20
12044.623341
 30
0.0
 11
3001.83715
 21
12044.623341
 31
0.0
  0
LINE
  8
0
 62
     0
 10
2969.667255
 20
12413.673745
 30
0.0
 11
2969.667255
 21
12413.673745
 31
0.0
  0
LINE
  8
0
 62
     0
 10
2993.628768
 20
12391.717064
 30
0.0
 11
2993.628768
 21
12391.717064
 31
0.0
  0
LINE
  8
0
 62
     0
 10
3031.819734
 20
12356.721491
 30
0.0
 11
3031.819734
 21
12356.721491
 31
0.0
  0
LINE
  8
0
 62
     0
 10
3086.009619
 20
12307.065611
 30
0.0
 11
3086.009619
 21
12307.065611
 31
0.0
  0
LINE
  8
0
 62
     0
 10
3109.971132
 20
12285.108929
 30
0.0
 11
3109.971132
 21
12285.108929
 31
0.0
  0
LINE
  8
0
 62
     0
 10
3148.162098
 20
12250.113356
 30
0.0
 11
3148.162098
 21
12250.113356
 31
0.0
  0
LINE
  8
0
 62
     0
 10
3202.351982
 20
12200.457476
 30
0.0
 11
3202.351982
 21
12200.457476
 31
0.0
  0
LINE
  8
0
 62
     0
 10
3226.313496
 20
12178.500794
 30
0.0
 11
3226.313496
 21
12178.500794
 31
0.0
  0
LINE
  8
0
 62
     0
 10
3264.504462
 20
12143.505221
 30
0.0
 11
3264.504462
 21
12143.505221
 31
0.0
  0
LINE
  8
0
 62
     0
 10
3318.694346
 20
12093.849341
 30
0.0
 11
3318.694346
 21
12093.849341
 31
0.0
  0
LINE
  8
0
 62
     0
 10
3027.985872
 20
12423.684244
 30
0.0
 11
3027.985872
 21
12423.684244
 31
0.0
  0
LINE
  8
0
 62
     0
 10
3144.328236
 20
12317.076109
 30
0.0
 11
3144.328236
 21
12317.076109
 31
0.0
  0
LINE
  8
0
 62
     0
 10
3168.289749
 20
12295.119427
 30
0.0
 11
3168.289749
 21
12295.119427
 31
0.0
  0
LINE
  8
0
 62
     0
 10
3206.480715
 20
12260.123854
 30
0.0
 11
3206.480715
 21
12260.123854
 31
0.0
  0
LINE
  8
0
 62
     0
 10
3260.670599
 20
12210.467974
 30
0.0
 11
3260.670599
 21
12210.467974
 31
0.0
  0
LINE
  8
0
 62
     0
 10
3284.632113
 20
12188.511292
 30
0.0
 11
3284.632113
 21
12188.511292
 31
0.0
  0
LINE
  8
0
 62
     0
 10
3322.823079
 20
12153.51572
 30
0.0
 11
3322.823079
 21
12153.51572
 31
0.0
  0
LINE
  8
0
 62
     0
 10
3226.608366
 20
12305.129925
 30
0.0
 11
3226.608366
 21
12305.129925
 31
0.0
  0
LINE
  8
0
 62
     0
 10
3264.799332
 20
12270.134353
 30
0.0
 11
3264.799332
 21
12270.134353
 31
0.0
  0
LINE
  8
0
 62
     0
 10
3318.989216
 20
12220.478472
 30
0.0
 11
3318.989216
 21
12220.478472
 31
0.0
  0
LINE
  8
0
 62
     0
 10
3342.95073
 20
12198.521791
 30
0.0
 11
3342.95073
 21
12198.521791
 31
0.0
  0
LINE
  8
0
 62
     0
 10
3381.141696
 20
12163.526218
 30
0.0
 11
3381.141696
 21
12163.526218
 31
0.0
  0
LINE
  8
0
 62
     0
 10
3260.965469
 20
12337.097105
 30
0.0
 11
3260.965469
 21
12337.097105
 31
0.0
  0
LINE
  8
0
 62
     0
 10
3284.926983
 20
12315.140424
 30
0.0
 11
3284.926983
 21
12315.140424
 31
0.0
  0
LINE
  8
0
 62
     0
 10
3323.117949
 20
12280.144851
 30
0.0
 11
3323.117949
 21
12280.144851
 31
0.0
  0
LINE
  8
0
 62
     0
 10
3377.307833
 20
12230.488971
 30
0.0
 11
3377.307833
 21
12230.488971
 31
0.0
  0
LINE
  8
0
 62
     0
 10
3401.269347
 20
12208.532289
 30
0.0
 11
3401.269347
 21
12208.532289
 31
0.0
  0
LINE
  8
0
 62
     0
 10
3439.460313
 20
12173.536716
 30
0.0
 11
3439.460313
 21
12173.536716
 31
0.0
  0
LINE
  8
0
 62
     0
 10
3319.284086
 20
12347.107604
 30
0.0
 11
3319.284086
 21
12347.107604
 31
0.0
  0
LINE
  8
0
 62
     0
 10
3343.2456
 20
12325.150922
 30
0.0
 11
3343.2456
 21
12325.150922
 31
0.0
  0
LINE
  8
0
 62
     0
 10
3381.436566
 20
12290.155349
 30
0.0
 11
3381.436566
 21
12290.155349
 31
0.0
  0
LINE
  8
0
 62
     0
 10
3435.62645
 20
12240.499469
 30
0.0
 11
3435.62645
 21
12240.499469
 31
0.0
  0
LINE
  8
0
 62
     0
 10
3459.587964
 20
12218.542787
 30
0.0
 11
3459.587964
 21
12218.542787
 31
0.0
  0
LINE
  8
0
 62
     0
 10
3497.77893
 20
12183.547214
 30
0.0
 11
3497.77893
 21
12183.547214
 31
0.0
  0
LINE
  8
0
 62
     0
 10
3323.412819
 20
12406.773982
 30
0.0
 11
3323.412819
 21
12406.773982
 31
0.0
  0
LINE
  8
0
 62
     0
 10
3377.602703
 20
12357.118102
 30
0.0
 11
3377.602703
 21
12357.118102
 31
0.0
  0
LINE
  8
0
 62
     0
 10
3401.564217
 20
12335.16142
 30
0.0
 11
3401.564217
 21
12335.16142
 31
0.0
  0
LINE
  8
0
 62
     0
 10
3439.755183
 20
12300.165847
 30
0.0
 11
3439.755183
 21
12300.165847
 31
0.0
  0
LINE
  8
0
 62
     0
 10
3493.945067
 20
12250.509967
 30
0.0
 11
3493.945067
 21
12250.509967
 31
0.0
  0
LINE
  8
0
 62
     0
 10
3517.906581
 20
12228.553285
 30
0.0
 11
3517.906581
 21
12228.553285
 31
0.0
  0
LINE
  8
0
 62
     0
 10
3381.731436
 20
12416.78448
 30
0.0
 11
3381.731436
 21
12416.78448
 31
0.0
  0
LINE
  8
0
 62
     0
 10
3435.92132
 20
12367.1286
 30
0.0
 11
3435.92132
 21
12367.1286
 31
0.0
  0
LINE
  8
0
 62
     0
 10
3459.882834
 20
12345.171918
 30
0.0
 11
3459.882834
 21
12345.171918
 31
0.0
  0
LINE
  8
0
 62
     0
 10
3498.0738
 20
12310.176345
 30
0.0
 11
3498.0738
 21
12310.176345
 31
0.0
  0
LINE
  8
0
 62
     0
 10
3440.050053
 20
12426.794978
 30
0.0
 11
3440.050053
 21
12426.794978
 31
0.0
  0
LINE
  8
0
 62
     0
 10
3494.239937
 20
12377.139098
 30
0.0
 11
3494.239937
 21
12377.139098
 31
0.0
  0
LINE
  8
0
 62
     0
 10
3518.201451
 20
12355.182416
 30
0.0
 11
3518.201451
 21
12355.182416
 31
0.0
  0
LINE
  8
0
 62
     0
 10
3498.36867
 20
12436.805477
 30
0.0
 11
3498.36867
 21
12436.805477
 31
0.0
  0
LINE
  8
0
 62
     0
 10
2857.158754
 20
12453.319127
 30
0.0
 11
2857.158754
 21
12453.319127
 31
0.0
  0
LINE
  8
0
 62
     0
 10
2911.348638
 20
12403.663247
 30
0.0
 11
2911.348638
 21
12403.663247
 31
0.0
  0
LINE
  8
0
 62
     0
 10
2935.310151
 20
12381.706565
 30
0.0
 11
2935.310151
 21
12381.706565
 31
0.0
  0
LINE
  8
0
 62
     0
 10
2973.501117
 20
12346.710993
 30
0.0
 11
2973.501117
 21
12346.710993
 31
0.0
  0
LINE
  8
0
 62
     0
 10
3027.691002
 20
12297.055112
 30
0.0
 11
3027.691002
 21
12297.055112
 31
0.0
  0
LINE
  8
0
 62
     0
 10
3051.652515
 20
12275.098431
 30
0.0
 11
3051.652515
 21
12275.098431
 31
0.0
  0
LINE
  8
0
 62
     0
 10
3089.843481
 20
12240.102858
 30
0.0
 11
3089.843481
 21
12240.102858
 31
0.0
  0
LINE
  8
0
 62
     0
 10
3144.033365
 20
12190.446978
 30
0.0
 11
3144.033365
 21
12190.446978
 31
0.0
  0
LINE
  8
0
 62
     0
 10
3167.994879
 20
12168.490296
 30
0.0
 11
3167.994879
 21
12168.490296
 31
0.0
  0
LINE
  8
0
 62
     0
 10
3206.185845
 20
12133.494723
 30
0.0
 11
3206.185845
 21
12133.494723
 31
0.0
  0
LINE
  8
0
 62
     0
 10
3260.375729
 20
12083.838843
 30
0.0
 11
3260.375729
 21
12083.838843
 31
0.0
  0
LINE
  8
0
 62
     0
 10
3284.337243
 20
12061.882161
 30
0.0
 11
3284.337243
 21
12061.882161
 31
0.0
  0
LINE
  8
0
 62
     0
 10
3322.528209
 20
12026.886588
 30
0.0
 11
3322.528209
 21
12026.886588
 31
0.0
  0
LINE
  8
0
 62
     0
 10
2798.840137
 20
12443.308629
 30
0.0
 11
2798.840137
 21
12443.308629
 31
0.0
  0
LINE
  8
0
 62
     0
 10
2853.030021
 20
12393.652749
 30
0.0
 11
2853.030021
 21
12393.652749
 31
0.0
  0
LINE
  8
0
 62
     0
 10
2876.991534
 20
12371.696067
 30
0.0
 11
2876.991534
 21
12371.696067
 31
0.0
  0
LINE
  8
0
 62
     0
 10
2915.182501
 20
12336.700494
 30
0.0
 11
2915.182501
 21
12336.700494
 31
0.0
  0
LINE
  8
0
 62
     0
 10
2969.372385
 20
12287.044614
 30
0.0
 11
2969.372385
 21
12287.044614
 31
0.0
  0
LINE
  8
0
 62
     0
 10
2993.333898
 20
12265.087932
 30
0.0
 11
2993.333898
 21
12265.087932
 31
0.0
  0
LINE
  8
0
 62
     0
 10
3031.524864
 20
12230.09236
 30
0.0
 11
3031.524864
 21
12230.09236
 31
0.0
  0
LINE
  8
0
 62
     0
 10
3085.714749
 20
12180.436479
 30
0.0
 11
3085.714749
 21
12180.436479
 31
0.0
  0
LINE
  8
0
 62
     0
 10
3109.676262
 20
12158.479798
 30
0.0
 11
3109.676262
 21
12158.479798
 31
0.0
  0
LINE
  8
0
 62
     0
 10
3147.867228
 20
12123.484225
 30
0.0
 11
3147.867228
 21
12123.484225
 31
0.0
  0
LINE
  8
0
 62
     0
 10
3202.057112
 20
12073.828345
 30
0.0
 11
3202.057112
 21
12073.828345
 31
0.0
  0
LINE
  8
0
 62
     0
 10
3226.018626
 20
12051.871663
 30
0.0
 11
3226.018626
 21
12051.871663
 31
0.0
  0
LINE
  8
0
 62
     0
 10
2794.711404
 20
12383.642251
 30
0.0
 11
2794.711404
 21
12383.642251
 31
0.0
  0
LINE
  8
0
 62
     0
 10
2818.672918
 20
12361.685569
 30
0.0
 11
2818.672918
 21
12361.685569
 31
0.0
  0
LINE
  8
0
 62
     0
 10
2856.863884
 20
12326.689996
 30
0.0
 11
2856.863884
 21
12326.689996
 31
0.0
  0
LINE
  8
0
 62
     0
 10
2911.053768
 20
12277.034116
 30
0.0
 11
2911.053768
 21
12277.034116
 31
0.0
  0
LINE
  8
0
 62
     0
 10
2935.015281
 20
12255.077434
 30
0.0
 11
2935.015281
 21
12255.077434
 31
0.0
  0
LINE
  8
0
 62
     0
 10
2973.206247
 20
12220.081861
 30
0.0
 11
2973.206247
 21
12220.081861
 31
0.0
  0
LINE
  8
0
 62
     0
 10
3027.396132
 20
12170.425981
 30
0.0
 11
3027.396132
 21
12170.425981
 31
0.0
  0
LINE
  8
0
 62
     0
 10
3051.357645
 20
12148.469299
 30
0.0
 11
3051.357645
 21
12148.469299
 31
0.0
  0
LINE
  8
0
 62
     0
 10
3089.548611
 20
12113.473727
 30
0.0
 11
3089.548611
 21
12113.473727
 31
0.0
  0
LINE
  8
0
 62
     0
 10
3143.738495
 20
12063.817846
 30
0.0
 11
3143.738495
 21
12063.817846
 31
0.0
  0
LINE
  8
0
 62
     0
 10
3167.700009
 20
12041.861165
 30
0.0
 11
3167.700009
 21
12041.861165
 31
0.0
  0
LINE
  8
0
 62
     0
 10
2798.545267
 20
12316.679498
 30
0.0
 11
2798.545267
 21
12316.679498
 31
0.0
  0
LINE
  8
0
 62
     0
 10
2852.735151
 20
12267.023618
 30
0.0
 11
2852.735151
 21
12267.023618
 31
0.0
  0
LINE
  8
0
 62
     0
 10
2876.696664
 20
12245.066936
 30
0.0
 11
2876.696664
 21
12245.066936
 31
0.0
  0
LINE
  8
0
 62
     0
 10
2914.88763
 20
12210.071363
 30
0.0
 11
2914.88763
 21
12210.071363
 31
0.0
  0
LINE
  8
0
 62
     0
 10
2969.077515
 20
12160.415483
 30
0.0
 11
2969.077515
 21
12160.415483
 31
0.0
  0
LINE
  8
0
 62
     0
 10
2993.039028
 20
12138.458801
 30
0.0
 11
2993.039028
 21
12138.458801
 31
0.0
  0
LINE
  8
0
 62
     0
 10
3031.229994
 20
12103.463228
 30
0.0
 11
3031.229994
 21
12103.463228
 31
0.0
  0
LINE
  8
0
 62
     0
 10
3085.419878
 20
12053.807348
 30
0.0
 11
3085.419878
 21
12053.807348
 31
0.0
  0
LINE
  8
0
 62
     0
 10
3109.381392
 20
12031.850666
 30
0.0
 11
3109.381392
 21
12031.850666
 31
0.0
  0
LINE
  8
0
 62
     0
 10
2794.416534
 20
12257.013119
 30
0.0
 11
2794.416534
 21
12257.013119
 31
0.0
  0
LINE
  8
0
 62
     0
 10
2818.378047
 20
12235.056438
 30
0.0
 11
2818.378047
 21
12235.056438
 31
0.0
  0
LINE
  8
0
 62
     0
 10
2856.569013
 20
12200.060865
 30
0.0
 11
2856.569013
 21
12200.060865
 31
0.0
  0
LINE
  8
0
 62
     0
 10
3027.101261
 20
12043.79685
 30
0.0
 11
3027.101261
 21
12043.79685
 31
0.0
  0
LINE
  8
0
 62
     0
 10
3051.062775
 20
12021.840168
 30
0.0
 11
3051.062775
 21
12021.840168
 31
0.0
  0
LINE
  8
0
 62
     0
 10
2798.250397
 20
12190.050367
 30
0.0
 11
2798.250397
 21
12190.050367
 31
0.0
  0
ENDBLK
  8
HATCH
  0
BLOCK
  8
HATCH
  2
*X2
 70
    65
 10
0.0
 20
0.0
 30
0.0
  3
*X
  0
LINE
  8
0
 62
     0
 10
8013.749705
 20
12027.798744
 30
0.0
 11
8018.570612
 21
12033.544077
 31
0.0
  0
LINE
  8
0
 62
     0
 10
8071.60059
 20
12096.742744
 30
0.0
 11
8076.421497
 21
12102.488077
 31
0.0
  0
LINE
  8
0
 62
     0
 10
8129.451475
 20
12165.686744
 30
0.0
 11
8134.272382
 21
12171.432077
 31
0.0
  0
LINE
  8
0
 62
     0
 10
8187.30236
 20
12234.630744
 30
0.0
 11
8192.123267
 21
12240.376077
 31
0.0
  0
LINE
  8
0
 62
     0
 10
8245.153244
 20
12303.574743
 30
0.0
 11
8249.974151
 21
12309.320077
 31
0.0
  0
LINE
  8
0
 62
     0
 10
8085.475723
 20
12021.52353
 30
0.0
 11
8090.29663
 21
12027.268864
 31
0.0
  0
LINE
  8
0
 62
     0
 10
8143.326608
 20
12090.46753
 30
0.0
 11
8148.147515
 21
12096.212864
 31
0.0
  0
LINE
  8
0
 62
     0
 10
8201.177493
 20
12159.41153
 30
0.0
 11
8205.9984
 21
12165.156864
 31
0.0
  0
LINE
  8
0
 62
     0
 10
8259.028378
 20
12228.35553
 30
0.0
 11
8263.849285
 21
12234.100863
 31
0.0
  0
LINE
  8
0
 62
     0
 10
8316.879263
 20
12297.29953
 30
0.0
 11
8321.70017
 21
12303.044863
 31
0.0
  0
LINE
  8
0
 62
     0
 10
8215.052626
 20
12084.192317
 30
0.0
 11
8219.873533
 21
12089.93765
 31
0.0
  0
LINE
  8
0
 62
     0
 10
8272.903511
 20
12153.136317
 30
0.0
 11
8277.724418
 21
12158.88165
 31
0.0
  0
LINE
  8
0
 62
     0
 10
8330.754396
 20
12222.080317
 30
0.0
 11
8335.575303
 21
12227.82565
 31
0.0
  0
LINE
  8
0
 62
     0
 10
8388.605281
 20
12291.024316
 30
0.0
 11
8393.426188
 21
12296.76965
 31
0.0
  0
LINE
  8
0
 62
     0
 10
8286.778645
 20
12077.917103
 30
0.0
 11
8291.599552
 21
12083.662437
 31
0.0
  0
LINE
  8
0
 62
     0
 10
8348.212953
 20
12151.131661
 30
0.0
 11
8349.450437
 21
12152.606437
 31
0.0
  0
LINE
  8
0
 62
     0
 10
8402.480414
 20
12215.805103
 30
0.0
 11
8407.301321
 21
12221.550436
 31
0.0
  0
LINE
  8
0
 62
     0
 10
8460.331299
 20
12284.749103
 30
0.0
 11
8465.152206
 21
12290.494436
 31
0.0
  0
LINE
  8
0
 62
     0
 10
8474.206433
 20
12209.52989
 30
0.0
 11
8479.02734
 21
12215.275223
 31
0.0
  0
LINE
  8
0
 62
     0
 10
7999.874572
 20
12103.017957
 30
0.0
 11
8004.695479
 21
12108.763291
 31
0.0
  0
LINE
  8
0
 62
     0
 10
8057.725456
 20
12171.961957
 30
0.0
 11
8062.546363
 21
12177.707291
 31
0.0
  0
LINE
  8
0
 62
     0
 10
8115.576341
 20
12240.905957
 30
0.0
 11
8120.397248
 21
12246.65129
 31
0.0
  0
LINE
  8
0
 62
     0
 10
8173.427226
 20
12309.849957
 30
0.0
 11
8178.248133
 21
12315.59529
 31
0.0
  0
LINE
  8
0
 62
     0
 10
7985.999438
 20
12178.237171
 30
0.0
 11
7990.820345
 21
12183.982504
 31
0.0
  0
LINE
  8
0
 62
     0
 10
8043.850323
 20
12247.181171
 30
0.0
 11
8048.67123
 21
12252.926504
 31
0.0
  0
LINE
  8
0
 62
     0
 10
8101.701208
 20
12316.12517
 30
0.0
 11
8106.522115
 21
12321.870504
 31
0.0
  0
LINE
  8
0
 62
     0
 10
7914.27342
 20
12184.512384
 30
0.0
 11
7919.094327
 21
12190.257718
 31
0.0
  0
LINE
  8
0
 62
     0
 10
7972.124305
 20
12253.456384
 30
0.0
 11
7976.945212
 21
12259.201717
 31
0.0
  0
LINE
  8
0
 62
     0
 10
8029.97519
 20
12322.400384
 30
0.0
 11
8034.796097
 21
12328.145717
 31
0.0
  0
LINE
  8
0
 62
     0
 10
7842.547402
 20
12190.787598
 30
0.0
 11
7847.368309
 21
12196.532931
 31
0.0
  0
LINE
  8
0
 62
     0
 10
7900.398287
 20
12259.731598
 30
0.0
 11
7905.219194
 21
12265.476931
 31
0.0
  0
LINE
  8
0
 62
     0
 10
7958.249171
 20
12328.675597
 30
0.0
 11
7963.070078
 21
12334.420931
 31
0.0
  0
LINE
  8
0
 62
     0
 10
7770.821383
 20
12197.062811
 30
0.0
 11
7775.64229
 21
12202.808145
 31
0.0
  0
LINE
  8
0
 62
     0
 10
7828.672268
 20
12266.006811
 30
0.0
 11
7833.493175
 21
12271.752144
 31
0.0
  0
LINE
  8
0
 62
     0
 10
7886.523153
 20
12334.950811
 30
0.0
 11
7891.34406
 21
12340.696144
 31
0.0
  0
LINE
  8
0
 62
     0
 10
7814.797135
 20
12341.226024
 30
0.0
 11
7819.618042
 21
12346.971358
 31
0.0
  0
LINE
  8
0
 62
     0
 10
7770.821388
 20
12197.062813
 30
0.0
 11
7776.798557
 21
12196.539878
 31
0.0
  0
LINE
  8
0
 62
     0
 10
7842.547407
 20
12190.787599
 30
0.0
 11
7848.524575
 21
12190.264665
 31
0.0
  0
LINE
  8
0
 62
     0
 10
7914.273425
 20
12184.512386
 30
0.0
 11
7920.250593
 21
12183.989451
 31
0.0
  0
LINE
  8
0
 62
     0
 10
7985.999443
 20
12178.237172
 30
0.0
 11
7991.976611
 21
12177.714238
 31
0.0
  0
LINE
  8
0
 62
     0
 10
8057.725461
 20
12171.961959
 30
0.0
 11
8063.70263
 21
12171.439024
 31
0.0
  0
LINE
  8
0
 62
     0
 10
8129.45148
 20
12165.686745
 30
0.0
 11
8135.428648
 21
12165.163811
 31
0.0
  0
LINE
  8
0
 62
     0
 10
8201.177498
 20
12159.411532
 30
0.0
 11
8207.154666
 21
12158.888597
 31
0.0
  0
LINE
  8
0
 62
     0
 10
8272.903516
 20
12153.136318
 30
0.0
 11
8278.880684
 21
12152.613384
 31
0.0
  0
LINE
  8
0
 62
     0
 10
7828.672273
 20
12266.006812
 30
0.0
 11
7834.649442
 21
12265.483878
 31
0.0
  0
LINE
  8
0
 62
     0
 10
7900.398292
 20
12259.731599
 30
0.0
 11
7906.37546
 21
12259.208664
 31
0.0
  0
LINE
  8
0
 62
     0
 10
7972.12431
 20
12253.456385
 30
0.0
 11
7978.101478
 21
12252.933451
 31
0.0
  0
LINE
  8
0
 62
     0
 10
8043.850328
 20
12247.181172
 30
0.0
 11
8049.827496
 21
12246.658238
 31
0.0
  0
LINE
  8
0
 62
     0
 10
8115.576346
 20
12240.905959
 30
0.0
 11
8121.553515
 21
12240.383024
 31
0.0
  0
LINE
  8
0
 62
     0
 10
8187.302365
 20
12234.630745
 30
0.0
 11
8193.279533
 21
12234.107811
 31
0.0
  0
LINE
  8
0
 62
     0
 10
8259.028383
 20
12228.355532
 30
0.0
 11
8265.005551
 21
12227.832597
 31
0.0
  0
LINE
  8
0
 62
     0
 10
8330.754401
 20
12222.080318
 30
0.0
 11
8336.731569
 21
12221.557384
 31
0.0
  0
LINE
  8
0
 62
     0
 10
8402.480419
 20
12215.805105
 30
0.0
 11
8408.457588
 21
12215.28217
 31
0.0
  0
LINE
  8
0
 62
     0
 10
8474.206438
 20
12209.529891
 30
0.0
 11
8480.183606
 21
12209.006957
 31
0.0
  0
LINE
  8
0
 62
     0
 10
7814.79714
 20
12341.226026
 30
0.0
 11
7820.774308
 21
12340.703091
 31
0.0
  0
LINE
  8
0
 62
     0
 10
7886.523158
 20
12334.950812
 30
0.0
 11
7892.500326
 21
12334.427878
 31
0.0
  0
LINE
  8
0
 62
     0
 10
7958.249176
 20
12328.675599
 30
0.0
 11
7964.226345
 21
12328.152664
 31
0.0
  0
LINE
  8
0
 62
     0
 10
8029.975195
 20
12322.400385
 30
0.0
 11
8035.952363
 21
12321.877451
 31
0.0
  0
LINE
  8
0
 62
     0
 10
8101.701213
 20
12316.125172
 30
0.0
 11
8107.678381
 21
12315.602237
 31
0.0
  0
LINE
  8
0
 62
     0
 10
8173.427231
 20
12309.849958
 30
0.0
 11
8179.404399
 21
12309.327024
 31
0.0
  0
LINE
  8
0
 62
     0
 10
8245.15325
 20
12303.574745
 30
0.0
 11
8251.130418
 21
12303.05181
 31
0.0
  0
LINE
  8
0
 62
     0
 10
8316.879268
 20
12297.299531
 30
0.0
 11
8322.856436
 21
12296.776597
 31
0.0
  0
LINE
  8
0
 62
     0
 10
8388.605286
 20
12291.024318
 30
0.0
 11
8394.582454
 21
12290.501384
 31
0.0
  0
LINE
  8
0
 62
     0
 10
8460.331304
 20
12284.749104
 30
0.0
 11
8466.308473
 21
12284.22617
 31
0.0
  0
LINE
  8
0
 62
     0
 10
7999.874577
 20
12103.017959
 30
0.0
 11
8005.851745
 21
12102.495024
 31
0.0
  0
LINE
  8
0
 62
     0
 10
8071.600595
 20
12096.742745
 30
0.0
 11
8077.577763
 21
12096.219811
 31
0.0
  0
LINE
  8
0
 62
     0
 10
8143.326613
 20
12090.467532
 30
0.0
 11
8149.303781
 21
12089.944597
 31
0.0
  0
LINE
  8
0
 62
     0
 10
8215.052631
 20
12084.192318
 30
0.0
 11
8221.0298
 21
12083.669384
 31
0.0
  0
LINE
  8
0
 62
     0
 10
8286.77865
 20
12077.917105
 30
0.0
 11
8292.755818
 21
12077.39417
 31
0.0
  0
LINE
  8
0
 62
     0
 10
8013.74971
 20
12027.798745
 30
0.0
 11
8019.726878
 21
12027.275811
 31
0.0
  0
LINE
  8
0
 62
     0
 10
8085.475728
 20
12021.523532
 30
0.0
 11
8089.954834
 21
12021.131661
 31
0.0
  0
LINE
  8
0
 62
     0
 10
8149.313139
 20
12089.938159
 30
0.0
 11
8148.156883
 21
12096.206428
 31
0.0
  0
LINE
  8
0
 62
     0
 10
8135.438064
 20
12165.157383
 30
0.0
 11
8134.281808
 21
12171.425652
 31
0.0
  0
LINE
  8
0
 62
     0
 10
8121.56299
 20
12240.376607
 30
0.0
 11
8120.406734
 21
12246.644876
 31
0.0
  0
LINE
  8
0
 62
     0
 10
8107.687915
 20
12315.595831
 30
0.0
 11
8106.531659
 21
12321.8641
 31
0.0
  0
LINE
  8
0
 62
     0
 10
8221.039152
 20
12083.662889
 30
0.0
 11
8219.882896
 21
12089.931158
 31
0.0
  0
LINE
  8
0
 62
     0
 10
8207.164077
 20
12158.882113
 30
0.0
 11
8206.007821
 21
12165.150382
 31
0.0
  0
LINE
  8
0
 62
     0
 10
8193.289003
 20
12234.101337
 30
0.0
 11
8192.132746
 21
12240.369606
 31
0.0
  0
LINE
  8
0
 62
     0
 10
8179.413928
 20
12309.320561
 30
0.0
 11
8178.257672
 21
12315.58883
 31
0.0
  0
LINE
  8
0
 62
     0
 10
8292.765165
 20
12077.387619
 30
0.0
 11
8291.608908
 21
12083.655888
 31
0.0
  0
LINE
  8
0
 62
     0
 10
8278.89009
 20
12152.606843
 30
0.0
 11
8277.733834
 21
12158.875112
 31
0.0
  0
LINE
  8
0
 62
     0
 10
8265.015015
 20
12227.826067
 30
0.0
 11
8263.858759
 21
12234.094336
 31
0.0
  0
LINE
  8
0
 62
     0
 10
8251.139941
 20
12303.045291
 30
0.0
 11
8249.983685
 21
12309.31356
 31
0.0
  0
LINE
  8
0
 62
     0
 10
8349.73067
 20
12151.131661
 30
0.0
 11
8349.459847
 21
12152.599842
 31
0.0
  0
LINE
  8
0
 62
     0
 10
8336.741028
 20
12221.550798
 30
0.0
 11
8335.584772
 21
12227.819066
 31
0.0
  0
LINE
  8
0
 62
     0
 10
8322.865954
 20
12296.770022
 30
0.0
 11
8321.709697
 21
12303.03829
 31
0.0
  0
LINE
  8
0
 62
     0
 10
8408.467041
 20
12215.275528
 30
0.0
 11
8407.310785
 21
12221.543796
 31
0.0
  0
LINE
  8
0
 62
     0
 10
8394.591966
 20
12290.494752
 30
0.0
 11
8393.43571
 21
12296.76302
 31
0.0
  0
LINE
  8
0
 62
     0
 10
8480.193054
 20
12209.000258
 30
0.0
 11
8479.036798
 21
12215.268526
 31
0.0
  0
LINE
  8
0
 62
     0
 10
8466.317979
 20
12284.219482
 30
0.0
 11
8465.161723
 21
12290.48775
 31
0.0
  0
LINE
  8
0
 62
     0
 10
8091.436846
 20
12021.131661
 30
0.0
 11
8090.305945
 21
12027.262473
 31
0.0
  0
LINE
  8
0
 62
     0
 10
8077.587126
 20
12096.213429
 30
0.0
 11
8076.43087
 21
12102.481697
 31
0.0
  0
LINE
  8
0
 62
     0
 10
8063.712052
 20
12171.432653
 30
0.0
 11
8062.555795
 21
12177.700921
 31
0.0
  0
LINE
  8
0
 62
     0
 10
8049.836977
 20
12246.651877
 30
0.0
 11
8048.680721
 21
12252.920145
 31
0.0
  0
LINE
  8
0
 62
     0
 10
8035.961902
 20
12321.871101
 30
0.0
 11
8034.805646
 21
12328.139369
 31
0.0
  0
LINE
  8
0
 62
     0
 10
8019.736188
 20
12027.269475
 30
0.0
 11
8018.579932
 21
12033.537743
 31
0.0
  0
LINE
  8
0
 62
     0
 10
8005.861113
 20
12102.488699
 30
0.0
 11
8004.704857
 21
12108.756967
 31
0.0
  0
LINE
  8
0
 62
     0
 10
7991.986039
 20
12177.707923
 30
0.0
 11
7990.829783
 21
12183.976191
 31
0.0
  0
LINE
  8
0
 62
     0
 10
7978.110964
 20
12252.927147
 30
0.0
 11
7976.954708
 21
12259.195415
 31
0.0
  0
LINE
  8
0
 62
     0
 10
7964.23589
 20
12328.146371
 30
0.0
 11
7963.079633
 21
12334.414639
 31
0.0
  0
LINE
  8
0
 62
     0
 10
7920.260026
 20
12183.983193
 30
0.0
 11
7919.10377
 21
12190.251461
 31
0.0
  0
LINE
  8
0
 62
     0
 10
7906.384951
 20
12259.202417
 30
0.0
 11
7905.228695
 21
12265.470685
 31
0.0
  0
LINE
  8
0
 62
     0
 10
7892.509877
 20
12334.421641
 30
0.0
 11
7891.353621
 21
12340.689909
 31
0.0
  0
LINE
  8
0
 62
     0
 10
7848.534013
 20
12190.258462
 30
0.0
 11
7847.377757
 21
12196.526731
 31
0.0
  0
LINE
  8
0
 62
     0
 10
7834.658939
 20
12265.477686
 30
0.0
 11
7833.502682
 21
12271.745955
 31
0.0
  0
LINE
  8
0
 62
     0
 10
7820.783864
 20
12340.69691
 30
0.0
 11
7819.627608
 21
12346.965179
 31
0.0
  0
LINE
  8
0
 62
     0
 10
7776.808
 20
12196.533732
 30
0.0
 11
7775.651744
 21
12202.802001
 31
0.0
  0
LINE
  8
0
 62
     0
 10
8134.202211
 20
12075.464589
 30
0.0
 11
8141.991061
 21
12083.582244
 31
0.0
  0
LINE
  8
0
 62
     0
 10
8227.668406
 20
12172.876449
 30
0.0
 11
8235.457255
 21
12180.994104
 31
0.0
  0
LINE
  8
0
 62
     0
 10
8321.1346
 20
12270.288309
 30
0.0
 11
8328.92345
 21
12278.405964
 31
0.0
  0
LINE
  8
0
 62
     0
 10
8240.926316
 20
12058.912687
 30
0.0
 11
8248.715166
 21
12067.030342
 31
0.0
  0
LINE
  8
0
 62
     0
 10
8334.392511
 20
12156.324547
 30
0.0
 11
8342.18136
 21
12164.442202
 31
0.0
  0
LINE
  8
0
 62
     0
 10
8427.858705
 20
12253.736407
 30
0.0
 11
8435.647555
 21
12261.854062
 31
0.0
  0
LINE
  8
0
 62
     0
 10
8027.478107
 20
12092.01649
 30
0.0
 11
8035.266956
 21
12100.134145
 31
0.0
  0
LINE
  8
0
 62
     0
 10
8120.944301
 20
12189.42835
 30
0.0
 11
8128.733151
 21
12197.546005
 31
0.0
  0
LINE
  8
0
 62
     0
 10
8214.410496
 20
12286.84021
 30
0.0
 11
8222.199345
 21
12294.957865
 31
0.0
  0
LINE
  8
0
 62
     0
 10
8014.220196
 20
12205.980251
 30
0.0
 11
8022.009046
 21
12214.097906
 31
0.0
  0
LINE
  8
0
 62
     0
 10
8107.686391
 20
12303.392112
 30
0.0
 11
8115.47524
 21
12311.509767
 31
0.0
  0
LINE
  8
0
 62
     0
 10
7907.496091
 20
12222.532153
 30
0.0
 11
7915.284941
 21
12230.649808
 31
0.0
  0
LINE
  8
0
 62
     0
 10
8000.962286
 20
12319.944013
 30
0.0
 11
8008.751135
 21
12328.061668
 31
0.0
  0
LINE
  8
0
 62
     0
 10
7800.771986
 20
12239.084054
 30
0.0
 11
7808.560836
 21
12247.201709
 31
0.0
  0
LINE
  8
0
 62
     0
 10
7894.238181
 20
12336.495914
 30
0.0
 11
7902.027031
 21
12344.613569
 31
0.0
  0
LINE
  8
0
 62
     0
 10
7787.514076
 20
12353.047816
 30
0.0
 11
7795.302926
 21
12361.165471
 31
0.0
  0
LINE
  8
0
 62
     0
 10
8143.105351
 20
12074.07844
 30
0.0
 11
8142.000533
 21
12083.575421
 31
0.0
  0
LINE
  8
0
 62
     0
 10
8129.847532
 20
12188.042195
 30
0.0
 11
8128.742713
 21
12197.539176
 31
0.0
  0
LINE
  8
0
 62
     0
 10
8116.589712
 20
12302.00595
 30
0.0
 11
8115.484894
 21
12311.502931
 31
0.0
  0
LINE
  8
0
 62
     0
 10
8249.829441
 20
12057.526472
 30
0.0
 11
8248.724623
 21
12067.023453
 31
0.0
  0
LINE
  8
0
 62
     0
 10
8236.571622
 20
12171.490227
 30
0.0
 11
8235.466803
 21
12180.987208
 31
0.0
  0
LINE
  8
0
 62
     0
 10
8223.313802
 20
12285.453982
 30
0.0
 11
8222.208984
 21
12294.950963
 31
0.0
  0
LINE
  8
0
 62
     0
 10
8343.295712
 20
12154.938259
 30
0.0
 11
8342.190893
 21
12164.43524
 31
0.0
  0
LINE
  8
0
 62
     0
 10
8330.037892
 20
12268.902014
 30
0.0
 11
8328.933074
 21
12278.398995
 31
0.0
  0
LINE
  8
0
 62
     0
 10
8436.761982
 20
12252.350046
 30
0.0
 11
8435.657164
 21
12261.847027
 31
0.0
  0
LINE
  8
0
 62
     0
 10
8036.381261
 20
12090.630408
 30
0.0
 11
8035.276443
 21
12100.127389
 31
0.0
  0
LINE
  8
0
 62
     0
 10
8023.123442
 20
12204.594163
 30
0.0
 11
8022.018623
 21
12214.091144
 31
0.0
  0
LINE
  8
0
 62
     0
 10
8009.865622
 20
12318.557918
 30
0.0
 11
8008.760804
 21
12328.054899
 31
0.0
  0
LINE
  8
0
 62
     0
 10
7916.399352
 20
12221.146131
 30
0.0
 11
7915.294533
 21
12230.643112
 31
0.0
  0
LINE
  8
0
 62
     0
 10
7903.141532
 20
12335.109886
 30
0.0
 11
7902.036714
 21
12344.606867
 31
0.0
  0
LINE
  8
0
 62
     0
 10
7809.675262
 20
12237.698099
 30
0.0
 11
7808.570443
 21
12247.19508
 31
0.0
  0
LINE
  8
0
 62
     0
 10
7796.417443
 20
12351.661854
 30
0.0
 11
7795.312624
 21
12361.158835
 31
0.0
  0
LINE
  8
0
 62
     0
 10
7800.771986
 20
12239.084056
 30
0.0
 11
7809.665661
 21
12237.704731
 31
0.0
  0
LINE
  8
0
 62
     0
 10
7907.496091
 20
12222.532155
 30
0.0
 11
7916.389766
 21
12221.152829
 31
0.0
  0
LINE
  8
0
 62
     0
 10
8014.220196
 20
12205.980253
 30
0.0
 11
8023.113871
 21
12204.600928
 31
0.0
  0
LINE
  8
0
 62
     0
 10
8120.9443
 20
12189.428352
 30
0.0
 11
8129.837976
 21
12188.049027
 31
0.0
  0
LINE
  8
0
 62
     0
 10
8227.668405
 20
12172.87645
 30
0.0
 11
8236.562081
 21
12171.497125
 31
0.0
  0
LINE
  8
0
 62
     0
 10
8334.39251
 20
12156.324549
 30
0.0
 11
8343.286186
 21
12154.945224
 31
0.0
  0
LINE
  8
0
 62
     0
 10
7787.514075
 20
12353.047817
 30
0.0
 11
7796.407751
 21
12351.668492
 31
0.0
  0
LINE
  8
0
 62
     0
 10
7894.23818
 20
12336.495916
 30
0.0
 11
7903.131856
 21
12335.116591
 31
0.0
  0
LINE
  8
0
 62
     0
 10
8000.962285
 20
12319.944015
 30
0.0
 11
8009.855961
 21
12318.56469
 31
0.0
  0
LINE
  8
0
 62
     0
 10
8107.68639
 20
12303.392113
 30
0.0
 11
8116.580065
 21
12302.012788
 31
0.0
  0
LINE
  8
0
 62
     0
 10
8214.410495
 20
12286.840212
 30
0.0
 11
8223.30417
 21
12285.460887
 31
0.0
  0
LINE
  8
0
 62
     0
 10
8321.1346
 20
12270.28831
 30
0.0
 11
8330.028275
 21
12268.908985
 31
0.0
  0
LINE
  8
0
 62
     0
 10
8427.858705
 20
12253.736409
 30
0.0
 11
8436.75238
 21
12252.357084
 31
0.0
  0
LINE
  8
0
 62
     0
 10
8027.478106
 20
12092.016492
 30
0.0
 11
8036.371781
 21
12090.637167
 31
0.0
  0
LINE
  8
0
 62
     0
 10
8134.202211
 20
12075.46459
 30
0.0
 11
8143.095886
 21
12074.085265
 31
0.0
  0
LINE
  8
0
 62
     0
 10
8240.926316
 20
12058.912689
 30
0.0
 11
8249.819991
 21
12057.533364
 31
0.0
  0
LINE
  8
0
 62
     0
 10
8026.610117
 20
12126.313882
 30
0.0
 11
8033.61197
 21
12129.001642
 31
0.0
  0
LINE
  8
0
 62
     0
 10
8110.632355
 20
12158.566997
 30
0.0
 11
8117.634208
 21
12161.254757
 31
0.0
  0
LINE
  8
0
 62
     0
 10
8194.654593
 20
12190.820113
 30
0.0
 11
8201.656446
 21
12193.507872
 31
0.0
  0
LINE
  8
0
 62
     0
 10
8278.676832
 20
12223.073228
 30
0.0
 11
8285.678685
 21
12225.760988
 31
0.0
  0
LINE
  8
0
 62
     0
 10
8362.69907
 20
12255.326344
 30
0.0
 11
8369.700923
 21
12258.014103
 31
0.0
  0
LINE
  8
0
 62
     0
 10
8446.721308
 20
12287.579459
 30
0.0
 11
8453.723162
 21
12290.267219
 31
0.0
  0
LINE
  8
0
 62
     0
 10
8002.278583
 20
12053.798877
 30
0.0
 11
8009.280437
 21
12056.486637
 31
0.0
  0
LINE
  8
0
 62
     0
 10
8086.300822
 20
12086.051993
 30
0.0
 11
8093.302675
 21
12088.739753
 31
0.0
  0
LINE
  8
0
 62
     0
 10
8170.32306
 20
12118.305108
 30
0.0
 11
8177.324913
 21
12120.992868
 31
0.0
  0
LINE
  8
0
 62
     0
 10
8254.345298
 20
12150.558224
 30
0.0
 11
8261.347152
 21
12153.245983
 31
0.0
  0
LINE
  8
0
 62
     0
 10
8338.367537
 20
12182.811339
 30
0.0
 11
8345.36939
 21
12185.499099
 31
0.0
  0
LINE
  8
0
 62
     0
 10
8422.389775
 20
12215.064455
 30
0.0
 11
8429.391628
 21
12217.752214
 31
0.0
  0
LINE
  8
0
 62
     0
 10
8506.412014
 20
12247.31757
 30
0.0
 11
8513.413867
 21
12250.00533
 31
0.0
  0
LINE
  8
0
 62
     0
 10
8145.991527
 20
12045.790104
 30
0.0
 11
8152.99338
 21
12048.477863
 31
0.0
  0
LINE
  8
0
 62
     0
 10
8230.013765
 20
12078.043219
 30
0.0
 11
8237.015619
 21
12080.730979
 31
0.0
  0
LINE
  8
0
 62
     0
 10
8314.036004
 20
12110.296335
 30
0.0
 11
8317.056285
 21
12111.455712
 31
0.0
  0
LINE
  8
0
 62
     0
 10
8482.08048
 20
12174.802566
 30
0.0
 11
8489.082334
 21
12177.490325
 31
0.0
  0
LINE
  8
0
 62
     0
 10
8289.704471
 20
12037.78133
 30
0.0
 11
8296.706324
 21
12040.46909
 31
0.0
  0
LINE
  8
0
 62
     0
 10
7966.919411
 20
12166.575771
 30
0.0
 11
7973.921264
 21
12169.263531
 31
0.0
  0
LINE
  8
0
 62
     0
 10
8050.94165
 20
12198.828886
 30
0.0
 11
8057.943503
 21
12201.516646
 31
0.0
  0
LINE
  8
0
 62
     0
 10
8134.963888
 20
12231.082002
 30
0.0
 11
8141.965741
 21
12233.769762
 31
0.0
  0
LINE
  8
0
 62
     0
 10
8218.986126
 20
12263.335117
 30
0.0
 11
8225.98798
 21
12266.022877
 31
0.0
  0
LINE
  8
0
 62
     0
 10
8303.008365
 20
12295.588233
 30
0.0
 11
8310.010218
 21
12298.275992
 31
0.0
  0
LINE
  8
0
 62
     0
 10
8387.030603
 20
12327.841348
 30
0.0
 11
8394.032456
 21
12330.529108
 31
0.0
  0
LINE
  8
0
 62
     0
 10
7823.206468
 20
12174.584545
 30
0.0
 11
7830.208321
 21
12177.272304
 31
0.0
  0
LINE
  8
0
 62
     0
 10
7907.228706
 20
12206.83766
 30
0.0
 11
7914.230559
 21
12209.52542
 31
0.0
  0
LINE
  8
0
 62
     0
 10
7991.250944
 20
12239.090776
 30
0.0
 11
7998.252798
 21
12241.778535
 31
0.0
  0
LINE
  8
0
 62
     0
 10
8075.273183
 20
12271.343891
 30
0.0
 11
8082.275036
 21
12274.031651
 31
0.0
  0
LINE
  8
0
 62
     0
 10
8159.295421
 20
12303.597006
 30
0.0
 11
8166.297274
 21
12306.284766
 31
0.0
  0
LINE
  8
0
 62
     0
 10
8243.31766
 20
12335.850122
 30
0.0
 11
8250.319513
 21
12338.537882
 31
0.0
  0
LINE
  8
0
 62
     0
 10
7767.056285
 20
12216.205513
 30
0.0
 11
7770.517616
 21
12217.534193
 31
0.0
  0
LINE
  8
0
 62
     0
 10
7847.538001
 20
12247.099549
 30
0.0
 11
7854.539854
 21
12249.787309
 31
0.0
  0
LINE
  8
0
 62
     0
 10
7931.560239
 20
12279.352665
 30
0.0
 11
7938.562092
 21
12282.040424
 31
0.0
  0
LINE
  8
0
 62
     0
 10
8015.582478
 20
12311.60578
 30
0.0
 11
8022.584331
 21
12314.29354
 31
0.0
  0
LINE
  8
0
 62
     0
 10
8099.604716
 20
12343.858896
 30
0.0
 11
8106.606569
 21
12346.546655
 31
0.0
  0
LINE
  8
0
 62
     0
 10
7787.847296
 20
12287.361438
 30
0.0
 11
7794.849149
 21
12290.049198
 31
0.0
  0
LINE
  8
0
 62
     0
 10
7871.869534
 20
12319.614554
 30
0.0
 11
7878.871387
 21
12322.302313
 31
0.0
  0
LINE
  8
0
 62
     0
 10
7955.891772
 20
12351.867669
 30
0.0
 11
7962.893626
 21
12354.555429
 31
0.0
  0
LINE
  8
0
 62
     0
 10
7812.178829
 20
12359.876443
 30
0.0
 11
7819.180682
 21
12362.564202
 31
0.0
  0
LINE
  8
0
 62
     0
 10
7812.178833
 20
12359.876439
 30
0.0
 11
7817.153059
 21
12356.521282
 31
0.0
  0
LINE
  8
0
 62
     0
 10
7871.869538
 20
12319.61455
 30
0.0
 11
7876.843764
 21
12316.259393
 31
0.0
  0
LINE
  8
0
 62
     0
 10
7931.560244
 20
12279.352661
 30
0.0
 11
7936.534469
 21
12275.997504
 31
0.0
  0
LINE
  8
0
 62
     0
 10
7991.250949
 20
12239.090772
 30
0.0
 11
7996.225174
 21
12235.735615
 31
0.0
  0
LINE
  8
0
 62
     0
 10
8050.941654
 20
12198.828883
 30
0.0
 11
8055.91588
 21
12195.473726
 31
0.0
  0
LINE
  8
0
 62
     0
 10
8110.632359
 20
12158.566994
 30
0.0
 11
8115.606585
 21
12155.211837
 31
0.0
  0
LINE
  8
0
 62
     0
 10
8170.323065
 20
12118.305105
 30
0.0
 11
8175.29729
 21
12114.949948
 31
0.0
  0
LINE
  8
0
 62
     0
 10
8230.01377
 20
12078.043216
 30
0.0
 11
8234.987995
 21
12074.688059
 31
0.0
  0
LINE
  8
0
 62
     0
 10
8289.704475
 20
12037.781327
 30
0.0
 11
8294.6787
 21
12034.42617
 31
0.0
  0
LINE
  8
0
 62
     0
 10
7955.891777
 20
12351.867666
 30
0.0
 11
7960.866002
 21
12348.512508
 31
0.0
  0
LINE
  8
0
 62
     0
 10
8015.582482
 20
12311.605777
 30
0.0
 11
8020.556708
 21
12308.250619
 31
0.0
  0
LINE
  8
0
 62
     0
 10
8075.273187
 20
12271.343888
 30
0.0
 11
8080.247413
 21
12267.98873
 31
0.0
  0
LINE
  8
0
 62
     0
 10
8134.963893
 20
12231.081999
 30
0.0
 11
8139.938118
 21
12227.726841
 31
0.0
  0
LINE
  8
0
 62
     0
 10
8194.654598
 20
12190.82011
 30
0.0
 11
8199.628823
 21
12187.464952
 31
0.0
  0
LINE
  8
0
 62
     0
 10
8254.345303
 20
12150.558221
 30
0.0
 11
8259.319528
 21
12147.203063
 31
0.0
  0
LINE
  8
0
 62
     0
 10
8314.036008
 20
12110.296332
 30
0.0
 11
8317.056285
 21
12108.259129
 31
0.0
  0
LINE
  8
0
 62
     0
 10
8099.604721
 20
12343.858892
 30
0.0
 11
8104.578946
 21
12340.503735
 31
0.0
  0
LINE
  8
0
 62
     0
 10
8159.295426
 20
12303.597003
 30
0.0
 11
8164.269651
 21
12300.241846
 31
0.0
  0
LINE
  8
0
 62
     0
 10
8218.986131
 20
12263.335114
 30
0.0
 11
8223.960356
 21
12259.979957
 31
0.0
  0
LINE
  8
0
 62
     0
 10
8278.676836
 20
12223.073225
 30
0.0
 11
8283.651062
 21
12219.718068
 31
0.0
  0
LINE
  8
0
 62
     0
 10
8338.367541
 20
12182.811336
 30
0.0
 11
8343.341767
 21
12179.456179
 31
0.0
  0
LINE
  8
0
 62
     0
 10
8243.317664
 20
12335.850119
 30
0.0
 11
8248.29189
 21
12332.494961
 31
0.0
  0
LINE
  8
0
 62
     0
 10
8303.008369
 20
12295.58823
 30
0.0
 11
8307.982595
 21
12292.233072
 31
0.0
  0
LINE
  8
0
 62
     0
 10
8362.699075
 20
12255.326341
 30
0.0
 11
8367.6733
 21
12251.971183
 31
0.0
  0
LINE
  8
0
 62
     0
 10
8422.38978
 20
12215.064451
 30
0.0
 11
8427.364005
 21
12211.709294
 31
0.0
  0
LINE
  8
0
 62
     0
 10
8482.080485
 20
12174.802562
 30
0.0
 11
8487.05471
 21
12171.447405
 31
0.0
  0
LINE
  8
0
 62
     0
 10
8387.030608
 20
12327.841345
 30
0.0
 11
8392.004833
 21
12324.486188
 31
0.0
  0
LINE
  8
0
 62
     0
 10
8446.721313
 20
12287.579456
 30
0.0
 11
8451.695538
 21
12284.224299
 31
0.0
  0
LINE
  8
0
 62
     0
 10
8506.412018
 20
12247.317567
 30
0.0
 11
8511.386244
 21
12243.96241
 31
0.0
  0
LINE
  8
0
 62
     0
 10
7787.8473
 20
12287.361435
 30
0.0
 11
7792.821525
 21
12284.006278
 31
0.0
  0
LINE
  8
0
 62
     0
 10
7847.538005
 20
12247.099546
 30
0.0
 11
7852.512231
 21
12243.744388
 31
0.0
  0
LINE
  8
0
 62
     0
 10
7907.228711
 20
12206.837657
 30
0.0
 11
7912.202936
 21
12203.482499
 31
0.0
  0
LINE
  8
0
 62
     0
 10
7966.919416
 20
12166.575768
 30
0.0
 11
7971.893641
 21
12163.22061
 31
0.0
  0
LINE
  8
0
 62
     0
 10
8026.610121
 20
12126.313879
 30
0.0
 11
8031.584346
 21
12122.958721
 31
0.0
  0
LINE
  8
0
 62
     0
 10
8086.300826
 20
12086.05199
 30
0.0
 11
8091.275052
 21
12082.696832
 31
0.0
  0
LINE
  8
0
 62
     0
 10
8145.991531
 20
12045.790101
 30
0.0
 11
8150.965757
 21
12042.434943
 31
0.0
  0
LINE
  8
0
 62
     0
 10
7767.056285
 20
12212.458321
 30
0.0
 11
7768.489992
 21
12211.491273
 31
0.0
  0
LINE
  8
0
 62
     0
 10
7823.206472
 20
12174.584541
 30
0.0
 11
7828.180698
 21
12171.229384
 31
0.0
  0
LINE
  8
0
 62
     0
 10
8002.278588
 20
12053.798874
 30
0.0
 11
8007.252813
 21
12050.443717
 31
0.0
  0
LINE
  8
0
 62
     0
 10
8091.284423
 20
12082.690491
 30
0.0
 11
8093.312055
 21
12088.733406
 31
0.0
  0
LINE
  8
0
 62
     0
 10
8115.616013
 20
12155.205476
 30
0.0
 11
8117.643645
 21
12161.248391
 31
0.0
  0
LINE
  8
0
 62
     0
 10
8139.947602
 20
12227.720461
 30
0.0
 11
8141.975235
 21
12233.763377
 31
0.0
  0
LINE
  8
0
 62
     0
 10
8164.279192
 20
12300.235447
 30
0.0
 11
8166.306825
 21
12306.278362
 31
0.0
  0
LINE
  8
0
 62
     0
 10
8150.975096
 20
12042.428555
 30
0.0
 11
8153.002729
 21
12048.47147
 31
0.0
  0
LINE
  8
0
 62
     0
 10
8175.306686
 20
12114.94354
 30
0.0
 11
8177.334318
 21
12120.986456
 31
0.0
  0
LINE
  8
0
 62
     0
 10
8199.638276
 20
12187.458526
 30
0.0
 11
8201.665908
 21
12193.501441
 31
0.0
  0
LINE
  8
0
 62
     0
 10
8223.969865
 20
12259.973511
 30
0.0
 11
8225.997498
 21
12266.016426
 31
0.0
  0
LINE
  8
0
 62
     0
 10
8248.301455
 20
12332.488496
 30
0.0
 11
8250.329087
 21
12338.531412
 31
0.0
  0
LINE
  8
0
 62
     0
 10
8234.997359
 20
12074.681605
 30
0.0
 11
8237.024991
 21
12080.72452
 31
0.0
  0
LINE
  8
0
 62
     0
 10
8259.328949
 20
12147.19659
 30
0.0
 11
8261.356581
 21
12153.239505
 31
0.0
  0
LINE
  8
0
 62
     0
 10
8283.660538
 20
12219.711575
 30
0.0
 11
8285.688171
 21
12225.754491
 31
0.0
  0
LINE
  8
0
 62
     0
 10
8307.992128
 20
12292.226561
 30
0.0
 11
8310.019761
 21
12298.269476
 31
0.0
  0
LINE
  8
0
 62
     0
 10
8294.688032
 20
12034.419669
 30
0.0
 11
8296.715664
 21
12040.462584
 31
0.0
  0
LINE
  8
0
 62
     0
 10
8343.351212
 20
12179.44964
 30
0.0
 11
8345.378844
 21
12185.492555
 31
0.0
  0
LINE
  8
0
 62
     0
 10
8367.682801
 20
12251.964625
 30
0.0
 11
8369.710434
 21
12258.00754
 31
0.0
  0
LINE
  8
0
 62
     0
 10
8392.014391
 20
12324.47961
 30
0.0
 11
8394.042023
 21
12330.522526
 31
0.0
  0
LINE
  8
0
 62
     0
 10
8427.373474
 20
12211.702689
 30
0.0
 11
8429.401107
 21
12217.745605
 31
0.0
  0
LINE
  8
0
 62
     0
 10
8451.705064
 20
12284.217675
 30
0.0
 11
8453.732697
 21
12290.26059
 31
0.0
  0
LINE
  8
0
 62
     0
 10
8487.064148
 20
12171.440754
 30
0.0
 11
8489.09178
 21
12177.483669
 31
0.0
  0
LINE
  8
0
 62
     0
 10
8511.395737
 20
12243.955739
 30
0.0
 11
8513.42337
 21
12249.998654
 31
0.0
  0
LINE
  8
0
 62
     0
 10
8007.26216
 20
12050.437441
 30
0.0
 11
8009.289793
 21
12056.480356
 31
0.0
  0
LINE
  8
0
 62
     0
 10
8031.59375
 20
12122.952426
 30
0.0
 11
8033.621382
 21
12128.995342
 31
0.0
  0
LINE
  8
0
 62
     0
 10
8055.92534
 20
12195.467412
 30
0.0
 11
8057.952972
 21
12201.510327
 31
0.0
  0
LINE
  8
0
 62
     0
 10
8080.256929
 20
12267.982397
 30
0.0
 11
8082.284562
 21
12274.025312
 31
0.0
  0
LINE
  8
0
 62
     0
 10
8104.588519
 20
12340.497382
 30
0.0
 11
8106.616151
 21
12346.540298
 31
0.0
  0
LINE
  8
0
 62
     0
 10
7971.903077
 20
12163.214362
 30
0.0
 11
7973.930709
 21
12169.257277
 31
0.0
  0
LINE
  8
0
 62
     0
 10
7996.234666
 20
12235.729347
 30
0.0
 11
7998.262299
 21
12241.772263
 31
0.0
  0
LINE
  8
0
 62
     0
 10
8020.566256
 20
12308.244333
 30
0.0
 11
8022.593889
 21
12314.287248
 31
0.0
  0
LINE
  8
0
 62
     0
 10
7912.212404
 20
12203.476298
 30
0.0
 11
7914.240036
 21
12209.519213
 31
0.0
  0
LINE
  8
0
 62
     0
 10
7936.543993
 20
12275.991283
 30
0.0
 11
7938.571626
 21
12282.034198
 31
0.0
  0
LINE
  8
0
 62
     0
 10
7960.875583
 20
12348.506268
 30
0.0
 11
7962.903215
 21
12354.549184
 31
0.0
  0
LINE
  8
0
 62
     0
 10
7828.190141
 20
12171.223248
 30
0.0
 11
7830.217773
 21
12177.266163
 31
0.0
  0
LINE
  8
0
 62
     0
 10
7852.52173
 20
12243.738233
 30
0.0
 11
7854.549363
 21
12249.781149
 31
0.0
  0
LINE
  8
0
 62
     0
 10
7876.85332
 20
12316.253219
 30
0.0
 11
7878.880953
 21
12322.296134
 31
0.0
  0
LINE
  8
0
 62
     0
 10
7768.499468
 20
12211.485184
 30
0.0
 11
7770.5271
 21
12217.528099
 31
0.0
  0
LINE
  8
0
 62
     0
 10
7792.831057
 20
12284.000169
 30
0.0
 11
7794.85869
 21
12290.043084
 31
0.0
  0
LINE
  8
0
 62
     0
 10
7817.162647
 20
12356.515154
 30
0.0
 11
7819.19028
 21
12362.55807
 31
0.0
  0
LINE
  8
0
 62
     0
 10
7990.075524
 20
12084.564729
 30
0.0
 11
7990.075524
 21
12084.564729
 31
0.0
  0
LINE
  8
0
 62
     0
 10
8043.230198
 20
12125.351745
 30
0.0
 11
8043.230198
 21
12125.351745
 31
0.0
  0
LINE
  8
0
 62
     0
 10
8095.789857
 20
12165.68219
 30
0.0
 11
8095.789857
 21
12165.68219
 31
0.0
  0
LINE
  8
0
 62
     0
 10
8147.516495
 20
12205.373435
 30
0.0
 11
8147.516495
 21
12205.373435
 31
0.0
  0
LINE
  8
0
 62
     0
 10
8200.671168
 20
12246.160451
 30
0.0
 11
8200.671168
 21
12246.160451
 31
0.0
  0
LINE
  8
0
 62
     0
 10
8253.230827
 20
12286.490895
 30
0.0
 11
8253.230827
 21
12286.490895
 31
0.0
  0
LINE
  8
0
 62
     0
 10
8304.957465
 20
12326.182141
 30
0.0
 11
8304.957465
 21
12326.182141
 31
0.0
  0
LINE
  8
0
 62
     0
 10
7991.29151
 20
12117.854115
 30
0.0
 11
7991.29151
 21
12117.854115
 31
0.0
  0
LINE
  8
0
 62
     0
 10
8044.446184
 20
12158.641131
 30
0.0
 11
8044.446184
 21
12158.641131
 31
0.0
  0
LINE
  8
0
 62
     0
 10
8097.005842
 20
12198.971575
 30
0.0
 11
8097.005842
 21
12198.971575
 31
0.0
  0
LINE
  8
0
 62
     0
 10
8148.73248
 20
12238.66282
 30
0.0
 11
8148.73248
 21
12238.66282
 31
0.0
  0
LINE
  8
0
 62
     0
 10
8201.887154
 20
12279.449836
 30
0.0
 11
8201.887154
 21
12279.449836
 31
0.0
  0
LINE
  8
0
 62
     0
 10
8254.446813
 20
12319.780281
 30
0.0
 11
8254.446813
 21
12319.780281
 31
0.0
  0
LINE
  8
0
 62
     0
 10
8306.173451
 20
12359.471526
 30
0.0
 11
8306.173451
 21
12359.471526
 31
0.0
  0
LINE
  8
0
 62
     0
 10
7992.507495
 20
12151.1435
 30
0.0
 11
7992.507495
 21
12151.1435
 31
0.0
  0
LINE
  8
0
 62
     0
 10
8045.662169
 20
12191.930516
 30
0.0
 11
8045.662169
 21
12191.930516
 31
0.0
  0
LINE
  8
0
 62
     0
 10
8098.221828
 20
12232.260961
 30
0.0
 11
8098.221828
 21
12232.260961
 31
0.0
  0
LINE
  8
0
 62
     0
 10
8149.948466
 20
12271.952206
 30
0.0
 11
8149.948466
 21
12271.952206
 31
0.0
  0
LINE
  8
0
 62
     0
 10
8203.10314
 20
12312.739222
 30
0.0
 11
8203.10314
 21
12312.739222
 31
0.0
  0
LINE
  8
0
 62
     0
 10
8255.662798
 20
12353.069666
 30
0.0
 11
8255.662798
 21
12353.069666
 31
0.0
  0
LINE
  8
0
 62
     0
 10
7993.723481
 20
12184.432886
 30
0.0
 11
7993.723481
 21
12184.432886
 31
0.0
  0
LINE
  8
0
 62
     0
 10
8046.878155
 20
12225.219901
 30
0.0
 11
8046.878155
 21
12225.219901
 31
0.0
  0
LINE
  8
0
 62
     0
 10
8099.437813
 20
12265.550346
 30
0.0
 11
8099.437813
 21
12265.550346
 31
0.0
  0
LINE
  8
0
 62
     0
 10
8151.164451
 20
12305.241591
 30
0.0
 11
8151.164451
 21
12305.241591
 31
0.0
  0
LINE
  8
0
 62
     0
 10
8204.319125
 20
12346.028607
 30
0.0
 11
8204.319125
 21
12346.028607
 31
0.0
  0
LINE
  8
0
 62
     0
 10
7943.212829
 20
12178.031026
 30
0.0
 11
7943.212829
 21
12178.031026
 31
0.0
  0
LINE
  8
0
 62
     0
 10
7994.939466
 20
12217.722271
 30
0.0
 11
7994.939466
 21
12217.722271
 31
0.0
  0
LINE
  8
0
 62
     0
 10
8048.09414
 20
12258.509287
 30
0.0
 11
8048.09414
 21
12258.509287
 31
0.0
  0
LINE
  8
0
 62
     0
 10
8100.653799
 20
12298.839731
 30
0.0
 11
8100.653799
 21
12298.839731
 31
0.0
  0
LINE
  8
0
 62
     0
 10
8152.380437
 20
12338.530977
 30
0.0
 11
8152.380437
 21
12338.530977
 31
0.0
  0
LINE
  8
0
 62
     0
 10
7891.869155
 20
12170.989966
 30
0.0
 11
7891.869155
 21
12170.989966
 31
0.0
  0
LINE
  8
0
 62
     0
 10
7944.428814
 20
12211.320411
 30
0.0
 11
7944.428814
 21
12211.320411
 31
0.0
  0
LINE
  8
0
 62
     0
 10
7996.155452
 20
12251.011656
 30
0.0
 11
7996.155452
 21
12251.011656
 31
0.0
  0
LINE
  8
0
 62
     0
 10
8049.310126
 20
12291.798672
 30
0.0
 11
8049.310126
 21
12291.798672
 31
0.0
  0
LINE
  8
0
 62
     0
 10
8101.869785
 20
12332.129117
 30
0.0
 11
8101.869785
 21
12332.129117
 31
0.0
  0
LINE
  8
0
 62
     0
 10
7839.930467
 20
12163.492336
 30
0.0
 11
7839.930467
 21
12163.492336
 31
0.0
  0
LINE
  8
0
 62
     0
 10
7893.085141
 20
12204.279352
 30
0.0
 11
7893.085141
 21
12204.279352
 31
0.0
  0
LINE
  8
0
 62
     0
 10
7945.6448
 20
12244.609797
 30
0.0
 11
7945.6448
 21
12244.609797
 31
0.0
  0
LINE
  8
0
 62
     0
 10
7997.371437
 20
12284.301042
 30
0.0
 11
7997.371437
 21
12284.301042
 31
0.0
  0
LINE
  8
0
 62
     0
 10
8050.526111
 20
12325.088057
 30
0.0
 11
8050.526111
 21
12325.088057
 31
0.0
  0
LINE
  8
0
 62
     0
 10
8103.08577
 20
12365.418502
 30
0.0
 11
8103.08577
 21
12365.418502
 31
0.0
  0
LINE
  8
0
 62
     0
 10
7789.419815
 20
12157.090476
 30
0.0
 11
7789.419815
 21
12157.090476
 31
0.0
  0
LINE
  8
0
 62
     0
 10
7841.146453
 20
12196.781722
 30
0.0
 11
7841.146453
 21
12196.781722
 31
0.0
  0
LINE
  8
0
 62
     0
 10
7894.301126
 20
12237.568737
 30
0.0
 11
7894.301126
 21
12237.568737
 31
0.0
  0
LINE
  8
0
 62
     0
 10
7946.860785
 20
12277.899182
 30
0.0
 11
7946.860785
 21
12277.899182
 31
0.0
  0
LINE
  8
0
 62
     0
 10
7998.587423
 20
12317.590427
 30
0.0
 11
7998.587423
 21
12317.590427
 31
0.0
  0
LINE
  8
0
 62
     0
 10
8051.742097
 20
12358.377443
 30
0.0
 11
8051.742097
 21
12358.377443
 31
0.0
  0
LINE
  8
0
 62
     0
 10
7790.6358
 20
12190.379862
 30
0.0
 11
7790.6358
 21
12190.379862
 31
0.0
  0
LINE
  8
0
 62
     0
 10
7842.362438
 20
12230.071107
 30
0.0
 11
7842.362438
 21
12230.071107
 31
0.0
  0
LINE
  8
0
 62
     0
 10
7895.517112
 20
12270.858123
 30
0.0
 11
7895.517112
 21
12270.858123
 31
0.0
  0
LINE
  8
0
 62
     0
 10
7948.076771
 20
12311.188567
 30
0.0
 11
7948.076771
 21
12311.188567
 31
0.0
  0
LINE
  8
0
 62
     0
 10
7999.803409
 20
12350.879812
 30
0.0
 11
7999.803409
 21
12350.879812
 31
0.0
  0
LINE
  8
0
 62
     0
 10
7791.851786
 20
12223.669247
 30
0.0
 11
7791.851786
 21
12223.669247
 31
0.0
  0
LINE
  8
0
 62
     0
 10
7843.578424
 20
12263.360492
 30
0.0
 11
7843.578424
 21
12263.360492
 31
0.0
  0
LINE
  8
0
 62
     0
 10
7896.733097
 20
12304.147508
 30
0.0
 11
7896.733097
 21
12304.147508
 31
0.0
  0
LINE
  8
0
 62
     0
 10
7949.292756
 20
12344.477953
 30
0.0
 11
7949.292756
 21
12344.477953
 31
0.0
  0
LINE
  8
0
 62
     0
 10
7793.067771
 20
12256.958632
 30
0.0
 11
7793.067771
 21
12256.958632
 31
0.0
  0
LINE
  8
0
 62
     0
 10
7844.794409
 20
12296.649878
 30
0.0
 11
7844.794409
 21
12296.649878
 31
0.0
  0
LINE
  8
0
 62
     0
 10
7897.949083
 20
12337.436893
 30
0.0
 11
7897.949083
 21
12337.436893
 31
0.0
  0
LINE
  8
0
 62
     0
 10
7950.508742
 20
12377.767338
 30
0.0
 11
7950.508742
 21
12377.767338
 31
0.0
  0
LINE
  8
0
 62
     0
 10
7794.283757
 20
12290.248018
 30
0.0
 11
7794.283757
 21
12290.248018
 31
0.0
  0
LINE
  8
0
 62
     0
 10
7846.010395
 20
12329.939263
 30
0.0
 11
7846.010395
 21
12329.939263
 31
0.0
  0
LINE
  8
0
 62
     0
 10
7899.165069
 20
12370.726279
 30
0.0
 11
7899.165069
 21
12370.726279
 31
0.0
  0
LINE
  8
0
 62
     0
 10
7795.499742
 20
12323.537403
 30
0.0
 11
7795.499742
 21
12323.537403
 31
0.0
  0
LINE
  8
0
 62
     0
 10
7847.22638
 20
12363.228648
 30
0.0
 11
7847.22638
 21
12363.228648
 31
0.0
  0
LINE
  8
0
 62
     0
 10
7796.715728
 20
12356.826789
 30
0.0
 11
7796.715728
 21
12356.826789
 31
0.0
  0
LINE
  8
0
 62
     0
 10
7797.931714
 20
12390.116174
 30
0.0
 11
7797.931714
 21
12390.116174
 31
0.0
  0
LINE
  8
0
 62
     0
 10
7988.859539
 20
12051.275344
 30
0.0
 11
7988.859539
 21
12051.275344
 31
0.0
  0
LINE
  8
0
 62
     0
 10
8042.014213
 20
12092.06236
 30
0.0
 11
8042.014213
 21
12092.06236
 31
0.0
  0
LINE
  8
0
 62
     0
 10
8094.573871
 20
12132.392804
 30
0.0
 11
8094.573871
 21
12132.392804
 31
0.0
  0
LINE
  8
0
 62
     0
 10
8146.300509
 20
12172.08405
 30
0.0
 11
8146.300509
 21
12172.08405
 31
0.0
  0
LINE
  8
0
 62
     0
 10
8199.455183
 20
12212.871065
 30
0.0
 11
8199.455183
 21
12212.871065
 31
0.0
  0
LINE
  8
0
 62
     0
 10
8252.014842
 20
12253.20151
 30
0.0
 11
8252.014842
 21
12253.20151
 31
0.0
  0
LINE
  8
0
 62
     0
 10
8303.74148
 20
12292.892755
 30
0.0
 11
8303.74148
 21
12292.892755
 31
0.0
  0
LINE
  8
0
 62
     0
 10
8356.896153
 20
12333.679771
 30
0.0
 11
8356.896153
 21
12333.679771
 31
0.0
  0
LINE
  8
0
 62
     0
 10
8040.798227
 20
12058.772974
 30
0.0
 11
8040.798227
 21
12058.772974
 31
0.0
  0
LINE
  8
0
 62
     0
 10
8093.357886
 20
12099.103419
 30
0.0
 11
8093.357886
 21
12099.103419
 31
0.0
  0
LINE
  8
0
 62
     0
 10
8145.084524
 20
12138.794664
 30
0.0
 11
8145.084524
 21
12138.794664
 31
0.0
  0
LINE
  8
0
 62
     0
 10
8198.239197
 20
12179.58168
 30
0.0
 11
8198.239197
 21
12179.58168
 31
0.0
  0
LINE
  8
0
 62
     0
 10
8250.798856
 20
12219.912125
 30
0.0
 11
8250.798856
 21
12219.912125
 31
0.0
  0
LINE
  8
0
 62
     0
 10
8302.525494
 20
12259.60337
 30
0.0
 11
8302.525494
 21
12259.60337
 31
0.0
  0
LINE
  8
0
 62
     0
 10
8355.680168
 20
12300.390386
 30
0.0
 11
8355.680168
 21
12300.390386
 31
0.0
  0
LINE
  8
0
 62
     0
 10
8408.239827
 20
12340.72083
 30
0.0
 11
8408.239827
 21
12340.72083
 31
0.0
  0
LINE
  8
0
 62
     0
 10
8039.582241
 20
12025.483589
 30
0.0
 11
8039.582241
 21
12025.483589
 31
0.0
  0
LINE
  8
0
 62
     0
 10
8092.1419
 20
12065.814034
 30
0.0
 11
8092.1419
 21
12065.814034
 31
0.0
  0
LINE
  8
0
 62
     0
 10
8143.868538
 20
12105.505279
 30
0.0
 11
8143.868538
 21
12105.505279
 31
0.0
  0
LINE
  8
0
 62
     0
 10
8197.023212
 20
12146.292295
 30
0.0
 11
8197.023212
 21
12146.292295
 31
0.0
  0
LINE
  8
0
 62
     0
 10
8249.582871
 20
12186.622739
 30
0.0
 11
8249.582871
 21
12186.622739
 31
0.0
  0
LINE
  8
0
 62
     0
 10
8301.309508
 20
12226.313984
 30
0.0
 11
8301.309508
 21
12226.313984
 31
0.0
  0
LINE
  8
0
 62
     0
 10
8354.464182
 20
12267.101
 30
0.0
 11
8354.464182
 21
12267.101
 31
0.0
  0
LINE
  8
0
 62
     0
 10
8407.023841
 20
12307.431445
 30
0.0
 11
8407.023841
 21
12307.431445
 31
0.0
  0
LINE
  8
0
 62
     0
 10
8458.750479
 20
12347.12269
 30
0.0
 11
8458.750479
 21
12347.12269
 31
0.0
  0
LINE
  8
0
 62
     0
 10
8090.925915
 20
12032.524648
 30
0.0
 11
8090.925915
 21
12032.524648
 31
0.0
  0
LINE
  8
0
 62
     0
 10
8142.652553
 20
12072.215893
 30
0.0
 11
8142.652553
 21
12072.215893
 31
0.0
  0
LINE
  8
0
 62
     0
 10
8195.807226
 20
12113.002909
 30
0.0
 11
8195.807226
 21
12113.002909
 31
0.0
  0
LINE
  8
0
 62
     0
 10
8248.366885
 20
12153.333354
 30
0.0
 11
8248.366885
 21
12153.333354
 31
0.0
  0
LINE
  8
0
 62
     0
 10
8300.093523
 20
12193.024599
 30
0.0
 11
8300.093523
 21
12193.024599
 31
0.0
  0
LINE
  8
0
 62
     0
 10
8353.248197
 20
12233.811615
 30
0.0
 11
8353.248197
 21
12233.811615
 31
0.0
  0
LINE
  8
0
 62
     0
 10
8405.807856
 20
12274.142059
 30
0.0
 11
8405.807856
 21
12274.142059
 31
0.0
  0
LINE
  8
0
 62
     0
 10
8457.534493
 20
12313.833305
 30
0.0
 11
8457.534493
 21
12313.833305
 31
0.0
  0
LINE
  8
0
 62
     0
 10
8141.436567
 20
12038.926508
 30
0.0
 11
8141.436567
 21
12038.926508
 31
0.0
  0
LINE
  8
0
 62
     0
 10
8194.591241
 20
12079.713524
 30
0.0
 11
8194.591241
 21
12079.713524
 31
0.0
  0
LINE
  8
0
 62
     0
 10
8247.1509
 20
12120.043969
 30
0.0
 11
8247.1509
 21
12120.043969
 31
0.0
  0
LINE
  8
0
 62
     0
 10
8298.877537
 20
12159.735214
 30
0.0
 11
8298.877537
 21
12159.735214
 31
0.0
  0
LINE
  8
0
 62
     0
 10
8352.032211
 20
12200.522229
 30
0.0
 11
8352.032211
 21
12200.522229
 31
0.0
  0
LINE
  8
0
 62
     0
 10
8404.59187
 20
12240.852674
 30
0.0
 11
8404.59187
 21
12240.852674
 31
0.0
  0
LINE
  8
0
 62
     0
 10
8456.318508
 20
12280.543919
 30
0.0
 11
8456.318508
 21
12280.543919
 31
0.0
  0
LINE
  8
0
 62
     0
 10
8509.473182
 20
12321.330935
 30
0.0
 11
8509.473182
 21
12321.330935
 31
0.0
  0
LINE
  8
0
 62
     0
 10
8193.375255
 20
12046.424138
 30
0.0
 11
8193.375255
 21
12046.424138
 31
0.0
  0
LINE
  8
0
 62
     0
 10
8245.934914
 20
12086.754583
 30
0.0
 11
8245.934914
 21
12086.754583
 31
0.0
  0
LINE
  8
0
 62
     0
 10
8297.661552
 20
12126.445828
 30
0.0
 11
8297.661552
 21
12126.445828
 31
0.0
  0
LINE
  8
0
 62
     0
 10
8350.816226
 20
12167.232844
 30
0.0
 11
8350.816226
 21
12167.232844
 31
0.0
  0
LINE
  8
0
 62
     0
 10
8403.375884
 20
12207.563289
 30
0.0
 11
8403.375884
 21
12207.563289
 31
0.0
  0
LINE
  8
0
 62
     0
 10
8455.102522
 20
12247.254534
 30
0.0
 11
8455.102522
 21
12247.254534
 31
0.0
  0
LINE
  8
0
 62
     0
 10
8508.257196
 20
12288.04155
 30
0.0
 11
8508.257196
 21
12288.04155
 31
0.0
  0
LINE
  8
0
 62
     0
 10
8244.718929
 20
12053.465198
 30
0.0
 11
8244.718929
 21
12053.465198
 31
0.0
  0
LINE
  8
0
 62
     0
 10
8296.445566
 20
12093.156443
 30
0.0
 11
8296.445566
 21
12093.156443
 31
0.0
  0
LINE
  8
0
 62
     0
 10
8402.159899
 20
12174.273903
 30
0.0
 11
8402.159899
 21
12174.273903
 31
0.0
  0
LINE
  8
0
 62
     0
 10
8453.886537
 20
12213.965148
 30
0.0
 11
8453.886537
 21
12213.965148
 31
0.0
  0
LINE
  8
0
 62
     0
 10
8507.041211
 20
12254.752164
 30
0.0
 11
8507.041211
 21
12254.752164
 31
0.0
  0
LINE
  8
0
 62
     0
 10
8295.229581
 20
12059.867058
 30
0.0
 11
8295.229581
 21
12059.867058
 31
0.0
  0
LINE
  8
0
 62
     0
 10
8452.670551
 20
12180.675763
 30
0.0
 11
8452.670551
 21
12180.675763
 31
0.0
  0
LINE
  8
0
 62
     0
 10
8505.825225
 20
12221.462779
 30
0.0
 11
8505.825225
 21
12221.462779
 31
0.0
  0
LINE
  8
0
 62
     0
 10
8294.013595
 20
12026.577672
 30
0.0
 11
8294.013595
 21
12026.577672
 31
0.0
  0
LINE
  8
0
 62
     0
 10
8504.609239
 20
12188.173393
 30
0.0
 11
8504.609239
 21
12188.173393
 31
0.0
  0
LINE
  8
0
 62
     0
 10
8503.393254
 20
12154.884008
 30
0.0
 11
8503.393254
 21
12154.884008
 31
0.0
  0
LINE
  8
0
 62
     0
 10
7876.724279
 20
12154.129086
 30
0.0
 11
7876.724279
 21
12154.129086
 31
0.0
  0
LINE
  8
0
 62
     0
 10
7914.597472
 20
12159.115187
 30
0.0
 11
7914.597472
 21
12159.115187
 31
0.0
  0
LINE
  8
0
 62
     0
 10
7977.75251
 20
12167.429705
 30
0.0
 11
7977.75251
 21
12167.429705
 31
0.0
  0
LINE
  8
0
 62
     0
 10
8002.786493
 20
12170.725492
 30
0.0
 11
8002.786493
 21
12170.725492
 31
0.0
  0
LINE
  8
0
 62
     0
 10
8040.659687
 20
12175.711592
 30
0.0
 11
8040.659687
 21
12175.711592
 31
0.0
  0
LINE
  8
0
 62
     0
 10
8103.814724
 20
12184.026111
 30
0.0
 11
8103.814724
 21
12184.026111
 31
0.0
  0
LINE
  8
0
 62
     0
 10
8128.848707
 20
12187.321897
 30
0.0
 11
8128.848707
 21
12187.321897
 31
0.0
  0
LINE
  8
0
 62
     0
 10
8166.721901
 20
12192.307998
 30
0.0
 11
8166.721901
 21
12192.307998
 31
0.0
  0
LINE
  8
0
 62
     0
 10
8229.876938
 20
12200.622516
 30
0.0
 11
8229.876938
 21
12200.622516
 31
0.0
  0
LINE
  8
0
 62
     0
 10
8254.910921
 20
12203.918303
 30
0.0
 11
8254.910921
 21
12203.918303
 31
0.0
  0
LINE
  8
0
 62
     0
 10
8292.784115
 20
12208.904403
 30
0.0
 11
8292.784115
 21
12208.904403
 31
0.0
  0
LINE
  8
0
 62
     0
 10
8355.939152
 20
12217.218921
 30
0.0
 11
8355.939152
 21
12217.218921
 31
0.0
  0
LINE
  8
0
 62
     0
 10
8380.973135
 20
12220.514708
 30
0.0
 11
8380.973135
 21
12220.514708
 31
0.0
  0
LINE
  8
0
 62
     0
 10
8418.846329
 20
12225.500808
 30
0.0
 11
8418.846329
 21
12225.500808
 31
0.0
  0
LINE
  8
0
 62
     0
 10
8482.001367
 20
12233.815327
 30
0.0
 11
8482.001367
 21
12233.815327
 31
0.0
  0
LINE
  8
0
 62
     0
 10
8507.035349
 20
12237.111113
 30
0.0
 11
8507.035349
 21
12237.111113
 31
0.0
  0
LINE
  8
0
 62
     0
 10
7776.969018
 20
12176.973852
 30
0.0
 11
7776.969018
 21
12176.973852
 31
0.0
  0
LINE
  8
0
 62
     0
 10
7814.842212
 20
12181.959953
 30
0.0
 11
7814.842212
 21
12181.959953
 31
0.0
  0
LINE
  8
0
 62
     0
 10
7877.99725
 20
12190.274471
 30
0.0
 11
7877.99725
 21
12190.274471
 31
0.0
  0
LINE
  8
0
 62
     0
 10
7903.031232
 20
12193.570258
 30
0.0
 11
7903.031232
 21
12193.570258
 31
0.0
  0
LINE
  8
0
 62
     0
 10
7940.904426
 20
12198.556358
 30
0.0
 11
7940.904426
 21
12198.556358
 31
0.0
  0
LINE
  8
0
 62
     0
 10
8004.059464
 20
12206.870877
 30
0.0
 11
8004.059464
 21
12206.870877
 31
0.0
  0
LINE
  8
0
 62
     0
 10
8029.093447
 20
12210.166663
 30
0.0
 11
8029.093447
 21
12210.166663
 31
0.0
  0
LINE
  8
0
 62
     0
 10
8066.96664
 20
12215.152764
 30
0.0
 11
8066.96664
 21
12215.152764
 31
0.0
  0
LINE
  8
0
 62
     0
 10
8130.121678
 20
12223.467282
 30
0.0
 11
8130.121678
 21
12223.467282
 31
0.0
  0
LINE
  8
0
 62
     0
 10
8155.155661
 20
12226.763068
 30
0.0
 11
8155.155661
 21
12226.763068
 31
0.0
  0
LINE
  8
0
 62
     0
 10
8193.028854
 20
12231.749169
 30
0.0
 11
8193.028854
 21
12231.749169
 31
0.0
  0
LINE
  8
0
 62
     0
 10
8256.183892
 20
12240.063687
 30
0.0
 11
8256.183892
 21
12240.063687
 31
0.0
  0
LINE
  8
0
 62
     0
 10
8281.217875
 20
12243.359474
 30
0.0
 11
8281.217875
 21
12243.359474
 31
0.0
  0
LINE
  8
0
 62
     0
 10
8319.091069
 20
12248.345574
 30
0.0
 11
8319.091069
 21
12248.345574
 31
0.0
  0
LINE
  8
0
 62
     0
 10
8382.246106
 20
12256.660093
 30
0.0
 11
8382.246106
 21
12256.660093
 31
0.0
  0
LINE
  8
0
 62
     0
 10
8407.280089
 20
12259.955879
 30
0.0
 11
8407.280089
 21
12259.955879
 31
0.0
  0
LINE
  8
0
 62
     0
 10
8445.153283
 20
12264.94198
 30
0.0
 11
8445.153283
 21
12264.94198
 31
0.0
  0
LINE
  8
0
 62
     0
 10
8508.30832
 20
12273.256498
 30
0.0
 11
8508.30832
 21
12273.256498
 31
0.0
  0
LINE
  8
0
 62
     0
 10
7778.241989
 20
12213.119237
 30
0.0
 11
7778.241989
 21
12213.119237
 31
0.0
  0
LINE
  8
0
 62
     0
 10
7803.275972
 20
12216.415024
 30
0.0
 11
7803.275972
 21
12216.415024
 31
0.0
  0
LINE
  8
0
 62
     0
 10
7841.149166
 20
12221.401124
 30
0.0
 11
7841.149166
 21
12221.401124
 31
0.0
  0
LINE
  8
0
 62
     0
 10
7904.304203
 20
12229.715643
 30
0.0
 11
7904.304203
 21
12229.715643
 31
0.0
  0
LINE
  8
0
 62
     0
 10
7929.338186
 20
12233.011429
 30
0.0
 11
7929.338186
 21
12233.011429
 31
0.0
  0
LINE
  8
0
 62
     0
 10
7967.21138
 20
12237.997529
 30
0.0
 11
7967.21138
 21
12237.997529
 31
0.0
  0
LINE
  8
0
 62
     0
 10
8030.366418
 20
12246.312048
 30
0.0
 11
8030.366418
 21
12246.312048
 31
0.0
  0
LINE
  8
0
 62
     0
 10
8055.4004
 20
12249.607834
 30
0.0
 11
8055.4004
 21
12249.607834
 31
0.0
  0
LINE
  8
0
 62
     0
 10
8093.273594
 20
12254.593935
 30
0.0
 11
8093.273594
 21
12254.593935
 31
0.0
  0
LINE
  8
0
 62
     0
 10
8156.428632
 20
12262.908453
 30
0.0
 11
8156.428632
 21
12262.908453
 31
0.0
  0
LINE
  8
0
 62
     0
 10
8181.462614
 20
12266.20424
 30
0.0
 11
8181.462614
 21
12266.20424
 31
0.0
  0
LINE
  8
0
 62
     0
 10
8219.335808
 20
12271.19034
 30
0.0
 11
8219.335808
 21
12271.19034
 31
0.0
  0
LINE
  8
0
 62
     0
 10
8282.490846
 20
12279.504859
 30
0.0
 11
8282.490846
 21
12279.504859
 31
0.0
  0
LINE
  8
0
 62
     0
 10
8307.524829
 20
12282.800645
 30
0.0
 11
8307.524829
 21
12282.800645
 31
0.0
  0
LINE
  8
0
 62
     0
 10
8345.398022
 20
12287.786745
 30
0.0
 11
8345.398022
 21
12287.786745
 31
0.0
  0
LINE
  8
0
 62
     0
 10
8408.55306
 20
12296.101264
 30
0.0
 11
8408.55306
 21
12296.101264
 31
0.0
  0
LINE
  8
0
 62
     0
 10
8433.587043
 20
12299.39705
 30
0.0
 11
8433.587043
 21
12299.39705
 31
0.0
  0
LINE
  8
0
 62
     0
 10
8471.460236
 20
12304.383151
 30
0.0
 11
8471.460236
 21
12304.383151
 31
0.0
  0
LINE
  8
0
 62
     0
 10
7804.548943
 20
12252.560408
 30
0.0
 11
7804.548943
 21
12252.560408
 31
0.0
  0
LINE
  8
0
 62
     0
 10
7829.582926
 20
12255.856195
 30
0.0
 11
7829.582926
 21
12255.856195
 31
0.0
  0
LINE
  8
0
 62
     0
 10
7867.45612
 20
12260.842295
 30
0.0
 11
7867.45612
 21
12260.842295
 31
0.0
  0
LINE
  8
0
 62
     0
 10
7930.611157
 20
12269.156814
 30
0.0
 11
7930.611157
 21
12269.156814
 31
0.0
  0
LINE
  8
0
 62
     0
 10
7955.64514
 20
12272.4526
 30
0.0
 11
7955.64514
 21
12272.4526
 31
0.0
  0
LINE
  8
0
 62
     0
 10
7993.518334
 20
12277.438701
 30
0.0
 11
7993.518334
 21
12277.438701
 31
0.0
  0
LINE
  8
0
 62
     0
 10
8056.673371
 20
12285.753219
 30
0.0
 11
8056.673371
 21
12285.753219
 31
0.0
  0
LINE
  8
0
 62
     0
 10
8081.707354
 20
12289.049005
 30
0.0
 11
8081.707354
 21
12289.049005
 31
0.0
  0
LINE
  8
0
 62
     0
 10
8119.580548
 20
12294.035106
 30
0.0
 11
8119.580548
 21
12294.035106
 31
0.0
  0
LINE
  8
0
 62
     0
 10
8182.735585
 20
12302.349624
 30
0.0
 11
8182.735585
 21
12302.349624
 31
0.0
  0
LINE
  8
0
 62
     0
 10
8207.769568
 20
12305.645411
 30
0.0
 11
8207.769568
 21
12305.645411
 31
0.0
  0
LINE
  8
0
 62
     0
 10
8245.642762
 20
12310.631511
 30
0.0
 11
8245.642762
 21
12310.631511
 31
0.0
  0
LINE
  8
0
 62
     0
 10
8308.7978
 20
12318.94603
 30
0.0
 11
8308.7978
 21
12318.94603
 31
0.0
  0
LINE
  8
0
 62
     0
 10
8333.831782
 20
12322.241816
 30
0.0
 11
8333.831782
 21
12322.241816
 31
0.0
  0
LINE
  8
0
 62
     0
 10
8371.704976
 20
12327.227917
 30
0.0
 11
8371.704976
 21
12327.227917
 31
0.0
  0
LINE
  8
0
 62
     0
 10
8434.860014
 20
12335.542435
 30
0.0
 11
8434.860014
 21
12335.542435
 31
0.0
  0
LINE
  8
0
 62
     0
 10
8459.893996
 20
12338.838221
 30
0.0
 11
8459.893996
 21
12338.838221
 31
0.0
  0
LINE
  8
0
 62
     0
 10
8497.76719
 20
12343.824322
 30
0.0
 11
8497.76719
 21
12343.824322
 31
0.0
  0
LINE
  8
0
 62
     0
 10
7767.700859
 20
12283.687061
 30
0.0
 11
7767.700859
 21
12283.687061
 31
0.0
  0
LINE
  8
0
 62
     0
 10
7830.855897
 20
12292.00158
 30
0.0
 11
7830.855897
 21
12292.00158
 31
0.0
  0
LINE
  8
0
 62
     0
 10
7855.88988
 20
12295.297366
 30
0.0
 11
7855.88988
 21
12295.297366
 31
0.0
  0
LINE
  8
0
 62
     0
 10
7893.763073
 20
12300.283466
 30
0.0
 11
7893.763073
 21
12300.283466
 31
0.0
  0
LINE
  8
0
 62
     0
 10
7956.918111
 20
12308.597985
 30
0.0
 11
7956.918111
 21
12308.597985
 31
0.0
  0
LINE
  8
0
 62
     0
 10
7981.952094
 20
12311.893771
 30
0.0
 11
7981.952094
 21
12311.893771
 31
0.0
  0
LINE
  8
0
 62
     0
 10
8019.825287
 20
12316.879872
 30
0.0
 11
8019.825287
 21
12316.879872
 31
0.0
  0
LINE
  8
0
 62
     0
 10
8082.980325
 20
12325.19439
 30
0.0
 11
8082.980325
 21
12325.19439
 31
0.0
  0
LINE
  8
0
 62
     0
 10
8108.014308
 20
12328.490177
 30
0.0
 11
8108.014308
 21
12328.490177
 31
0.0
  0
LINE
  8
0
 62
     0
 10
8145.887502
 20
12333.476277
 30
0.0
 11
8145.887502
 21
12333.476277
 31
0.0
  0
LINE
  8
0
 62
     0
 10
8209.042539
 20
12341.790796
 30
0.0
 11
8209.042539
 21
12341.790796
 31
0.0
  0
LINE
  8
0
 62
     0
 10
8234.076522
 20
12345.086582
 30
0.0
 11
8234.076522
 21
12345.086582
 31
0.0
  0
LINE
  8
0
 62
     0
 10
8271.949716
 20
12350.072682
 30
0.0
 11
8271.949716
 21
12350.072682
 31
0.0
  0
LINE
  8
0
 62
     0
 10
7794.007813
 20
12323.128232
 30
0.0
 11
7794.007813
 21
12323.128232
 31
0.0
  0
LINE
  8
0
 62
     0
 10
7857.162851
 20
12331.442751
 30
0.0
 11
7857.162851
 21
12331.442751
 31
0.0
  0
LINE
  8
0
 62
     0
 10
7882.196833
 20
12334.738537
 30
0.0
 11
7882.196833
 21
12334.738537
 31
0.0
  0
LINE
  8
0
 62
     0
 10
7920.070027
 20
12339.724638
 30
0.0
 11
7920.070027
 21
12339.724638
 31
0.0
  0
LINE
  8
0
 62
     0
 10
7983.225065
 20
12348.039156
 30
0.0
 11
7983.225065
 21
12348.039156
 31
0.0
  0
LINE
  8
0
 62
     0
 10
8008.259047
 20
12351.334942
 30
0.0
 11
8008.259047
 21
12351.334942
 31
0.0
  0
LINE
  8
0
 62
     0
 10
8046.132241
 20
12356.321043
 30
0.0
 11
8046.132241
 21
12356.321043
 31
0.0
  0
LINE
  8
0
 62
     0
 10
8109.287279
 20
12364.635561
 30
0.0
 11
8109.287279
 21
12364.635561
 31
0.0
  0
LINE
  8
0
 62
     0
 10
8134.321262
 20
12367.931348
 30
0.0
 11
8134.321262
 21
12367.931348
 31
0.0
  0
LINE
  8
0
 62
     0
 10
7782.441573
 20
12357.583303
 30
0.0
 11
7782.441573
 21
12357.583303
 31
0.0
  0
LINE
  8
0
 62
     0
 10
7820.314767
 20
12362.569403
 30
0.0
 11
7820.314767
 21
12362.569403
 31
0.0
  0
LINE
  8
0
 62
     0
 10
7883.469804
 20
12370.883922
 30
0.0
 11
7883.469804
 21
12370.883922
 31
0.0
  0
LINE
  8
0
 62
     0
 10
7908.503787
 20
12374.179708
 30
0.0
 11
7908.503787
 21
12374.179708
 31
0.0
  0
LINE
  8
0
 62
     0
 10
7946.376981
 20
12379.165809
 30
0.0
 11
7946.376981
 21
12379.165809
 31
0.0
  0
LINE
  8
0
 62
     0
 10
7783.714544
 20
12393.728688
 30
0.0
 11
7783.714544
 21
12393.728688
 31
0.0
  0
LINE
  8
0
 62
     0
 10
7976.479539
 20
12131.284321
 30
0.0
 11
7976.479539
 21
12131.284321
 31
0.0
  0
LINE
  8
0
 62
     0
 10
8014.352733
 20
12136.270421
 30
0.0
 11
8014.352733
 21
12136.270421
 31
0.0
  0
LINE
  8
0
 62
     0
 10
8077.50777
 20
12144.58494
 30
0.0
 11
8077.50777
 21
12144.58494
 31
0.0
  0
LINE
  8
0
 62
     0
 10
8102.541753
 20
12147.880726
 30
0.0
 11
8102.541753
 21
12147.880726
 31
0.0
  0
LINE
  8
0
 62
     0
 10
8140.414947
 20
12152.866827
 30
0.0
 11
8140.414947
 21
12152.866827
 31
0.0
  0
LINE
  8
0
 62
     0
 10
8203.569985
 20
12161.181345
 30
0.0
 11
8203.569985
 21
12161.181345
 31
0.0
  0
LINE
  8
0
 62
     0
 10
8228.603967
 20
12164.477131
 30
0.0
 11
8228.603967
 21
12164.477131
 31
0.0
  0
LINE
  8
0
 62
     0
 10
8266.477161
 20
12169.463232
 30
0.0
 11
8266.477161
 21
12169.463232
 31
0.0
  0
LINE
  8
0
 62
     0
 10
8329.632199
 20
12177.77775
 30
0.0
 11
8329.632199
 21
12177.77775
 31
0.0
  0
LINE
  8
0
 62
     0
 10
8354.666181
 20
12181.073537
 30
0.0
 11
8354.666181
 21
12181.073537
 31
0.0
  0
LINE
  8
0
 62
     0
 10
8392.539375
 20
12186.059637
 30
0.0
 11
8392.539375
 21
12186.059637
 31
0.0
  0
LINE
  8
0
 62
     0
 10
8455.694413
 20
12194.374156
 30
0.0
 11
8455.694413
 21
12194.374156
 31
0.0
  0
LINE
  8
0
 62
     0
 10
8480.728396
 20
12197.669942
 30
0.0
 11
8480.728396
 21
12197.669942
 31
0.0
  0
LINE
  8
0
 62
     0
 10
7988.045779
 20
12096.82925
 30
0.0
 11
7988.045779
 21
12096.82925
 31
0.0
  0
LINE
  8
0
 62
     0
 10
8051.200817
 20
12105.143768
 30
0.0
 11
8051.200817
 21
12105.143768
 31
0.0
  0
LINE
  8
0
 62
     0
 10
8076.234799
 20
12108.439555
 30
0.0
 11
8076.234799
 21
12108.439555
 31
0.0
  0
LINE
  8
0
 62
     0
 10
8114.107993
 20
12113.425655
 30
0.0
 11
8114.107993
 21
12113.425655
 31
0.0
  0
LINE
  8
0
 62
     0
 10
8177.263031
 20
12121.740174
 30
0.0
 11
8177.263031
 21
12121.740174
 31
0.0
  0
LINE
  8
0
 62
     0
 10
8202.297014
 20
12125.03596
 30
0.0
 11
8202.297014
 21
12125.03596
 31
0.0
  0
LINE
  8
0
 62
     0
 10
8240.170207
 20
12130.022061
 30
0.0
 11
8240.170207
 21
12130.022061
 31
0.0
  0
LINE
  8
0
 62
     0
 10
8303.325245
 20
12138.336579
 30
0.0
 11
8303.325245
 21
12138.336579
 31
0.0
  0
LINE
  8
0
 62
     0
 10
8429.387459
 20
12154.932984
 30
0.0
 11
8429.387459
 21
12154.932984
 31
0.0
  0
LINE
  8
0
 62
     0
 10
8454.421442
 20
12158.228771
 30
0.0
 11
8454.421442
 21
12158.228771
 31
0.0
  0
LINE
  8
0
 62
     0
 10
8492.294636
 20
12163.214871
 30
0.0
 11
8492.294636
 21
12163.214871
 31
0.0
  0
LINE
  8
0
 62
     0
 10
8024.893863
 20
12065.702597
 30
0.0
 11
8024.893863
 21
12065.702597
 31
0.0
  0
LINE
  8
0
 62
     0
 10
8049.927846
 20
12068.998384
 30
0.0
 11
8049.927846
 21
12068.998384
 31
0.0
  0
LINE
  8
0
 62
     0
 10
8087.801039
 20
12073.984484
 30
0.0
 11
8087.801039
 21
12073.984484
 31
0.0
  0
LINE
  8
0
 62
     0
 10
8150.956077
 20
12082.299003
 30
0.0
 11
8150.956077
 21
12082.299003
 31
0.0
  0
LINE
  8
0
 62
     0
 10
8175.99006
 20
12085.594789
 30
0.0
 11
8175.99006
 21
12085.594789
 31
0.0
  0
LINE
  8
0
 62
     0
 10
8213.863254
 20
12090.580889
 30
0.0
 11
8213.863254
 21
12090.580889
 31
0.0
  0
LINE
  8
0
 62
     0
 10
8277.018291
 20
12098.895408
 30
0.0
 11
8277.018291
 21
12098.895408
 31
0.0
  0
LINE
  8
0
 62
     0
 10
8302.052274
 20
12102.191194
 30
0.0
 11
8302.052274
 21
12102.191194
 31
0.0
  0
LINE
  8
0
 62
     0
 10
7998.586909
 20
12026.261426
 30
0.0
 11
7998.586909
 21
12026.261426
 31
0.0
  0
LINE
  8
0
 62
     0
 10
8023.620892
 20
12029.557212
 30
0.0
 11
8023.620892
 21
12029.557212
 31
0.0
  0
LINE
  8
0
 62
     0
 10
8061.494086
 20
12034.543313
 30
0.0
 11
8061.494086
 21
12034.543313
 31
0.0
  0
LINE
  8
0
 62
     0
 10
8124.649123
 20
12042.857831
 30
0.0
 11
8124.649123
 21
12042.857831
 31
0.0
  0
LINE
  8
0
 62
     0
 10
8149.683106
 20
12046.153618
 30
0.0
 11
8149.683106
 21
12046.153618
 31
0.0
  0
LINE
  8
0
 62
     0
 10
8187.5563
 20
12051.139718
 30
0.0
 11
8187.5563
 21
12051.139718
 31
0.0
  0
LINE
  8
0
 62
     0
 10
8250.711337
 20
12059.454237
 30
0.0
 11
8250.711337
 21
12059.454237
 31
0.0
  0
LINE
  8
0
 62
     0
 10
8275.74532
 20
12062.750023
 30
0.0
 11
8275.74532
 21
12062.750023
 31
0.0
  0
LINE
  8
0
 62
     0
 10
8313.618514
 20
12067.736124
 30
0.0
 11
8313.618514
 21
12067.736124
 31
0.0
  0
LINE
  8
0
 62
     0
 10
8249.438366
 20
12023.308852
 30
0.0
 11
8249.438366
 21
12023.308852
 31
0.0
  0
LINE
  8
0
 62
     0
 10
8287.31156
 20
12028.294952
 30
0.0
 11
8287.31156
 21
12028.294952
 31
0.0
  0
LINE
  8
0
 62
     0
 10
7896.317793
 20
12355.792572
 30
0.0
 11
7896.317793
 21
12355.792572
 31
0.0
  0
LINE
  8
0
 62
     0
 10
7983.608808
 20
12300.182062
 30
0.0
 11
7983.608808
 21
12300.182062
 31
0.0
  0
LINE
  8
0
 62
     0
 10
8004.693594
 20
12286.749572
 30
0.0
 11
8004.693594
 21
12286.749572
 31
0.0
  0
LINE
  8
0
 62
     0
 10
8070.478127
 20
12244.840202
 30
0.0
 11
8070.478127
 21
12244.840202
 31
0.0
  0
LINE
  8
0
 62
     0
 10
8157.769141
 20
12189.229693
 30
0.0
 11
8157.769141
 21
12189.229693
 31
0.0
  0
LINE
  8
0
 62
     0
 10
8178.853928
 20
12175.797203
 30
0.0
 11
8178.853928
 21
12175.797203
 31
0.0
  0
LINE
  8
0
 62
     0
 10
8244.63846
 20
12133.887833
 30
0.0
 11
8244.63846
 21
12133.887833
 31
0.0
  0
LINE
  8
0
 62
     0
 10
7949.700037
 20
12353.537084
 30
0.0
 11
7949.700037
 21
12353.537084
 31
0.0
  0
LINE
  8
0
 62
     0
 10
8036.991052
 20
12297.926575
 30
0.0
 11
8036.991052
 21
12297.926575
 31
0.0
  0
LINE
  8
0
 62
     0
 10
8058.075838
 20
12284.494085
 30
0.0
 11
8058.075838
 21
12284.494085
 31
0.0
  0
LINE
  8
0
 62
     0
 10
8123.86037
 20
12242.584715
 30
0.0
 11
8123.86037
 21
12242.584715
 31
0.0
  0
LINE
  8
0
 62
     0
 10
8211.151385
 20
12186.974206
 30
0.0
 11
8211.151385
 21
12186.974206
 31
0.0
  0
LINE
  8
0
 62
     0
 10
8232.236171
 20
12173.541716
 30
0.0
 11
8232.236171
 21
12173.541716
 31
0.0
  0
LINE
  8
0
 62
     0
 10
8298.020704
 20
12131.632346
 30
0.0
 11
8298.020704
 21
12131.632346
 31
0.0
  0
LINE
  8
0
 62
     0
 10
8003.08228
 20
12351.281597
 30
0.0
 11
8003.08228
 21
12351.281597
 31
0.0
  0
LINE
  8
0
 62
     0
 10
8090.373295
 20
12295.671088
 30
0.0
 11
8090.373295
 21
12295.671088
 31
0.0
  0
LINE
  8
0
 62
     0
 10
8111.458081
 20
12282.238597
 30
0.0
 11
8111.458081
 21
12282.238597
 31
0.0
  0
LINE
  8
0
 62
     0
 10
8177.242614
 20
12240.329228
 30
0.0
 11
8177.242614
 21
12240.329228
 31
0.0
  0
LINE
  8
0
 62
     0
 10
8264.533629
 20
12184.718719
 30
0.0
 11
8264.533629
 21
12184.718719
 31
0.0
  0
LINE
  8
0
 62
     0
 10
8285.618415
 20
12171.286228
 30
0.0
 11
8285.618415
 21
12171.286228
 31
0.0
  0
LINE
  8
0
 62
     0
 10
8056.464524
 20
12349.02611
 30
0.0
 11
8056.464524
 21
12349.02611
 31
0.0
  0
LINE
  8
0
 62
     0
 10
8143.755539
 20
12293.415601
 30
0.0
 11
8143.755539
 21
12293.415601
 31
0.0
  0
LINE
  8
0
 62
     0
 10
8164.840325
 20
12279.98311
 30
0.0
 11
8164.840325
 21
12279.98311
 31
0.0
  0
LINE
  8
0
 62
     0
 10
8230.624858
 20
12238.073741
 30
0.0
 11
8230.624858
 21
12238.073741
 31
0.0
  0
LINE
  8
0
 62
     0
 10
8317.915872
 20
12182.463231
 30
0.0
 11
8317.915872
 21
12182.463231
 31
0.0
  0
LINE
  8
0
 62
     0
 10
8339.000658
 20
12169.030741
 30
0.0
 11
8339.000658
 21
12169.030741
 31
0.0
  0
LINE
  8
0
 62
     0
 10
8109.846768
 20
12346.770623
 30
0.0
 11
8109.846768
 21
12346.770623
 31
0.0
  0
LINE
  8
0
 62
     0
 10
8197.137782
 20
12291.160113
 30
0.0
 11
8197.137782
 21
12291.160113
 31
0.0
  0
LINE
  8
0
 62
     0
 10
8218.222568
 20
12277.727623
 30
0.0
 11
8218.222568
 21
12277.727623
 31
0.0
  0
LINE
  8
0
 62
     0
 10
8284.007101
 20
12235.818254
 30
0.0
 11
8284.007101
 21
12235.818254
 31
0.0
  0
LINE
  8
0
 62
     0
 10
8371.298116
 20
12180.207744
 30
0.0
 11
8371.298116
 21
12180.207744
 31
0.0
  0
LINE
  8
0
 62
     0
 10
8392.382902
 20
12166.775254
 30
0.0
 11
8392.382902
 21
12166.775254
 31
0.0
  0
LINE
  8
0
 62
     0
 10
8163.229011
 20
12344.515136
 30
0.0
 11
8163.229011
 21
12344.515136
 31
0.0
  0
LINE
  8
0
 62
     0
 10
8250.520026
 20
12288.904626
 30
0.0
 11
8250.520026
 21
12288.904626
 31
0.0
  0
LINE
  8
0
 62
     0
 10
8271.604812
 20
12275.472136
 30
0.0
 11
8271.604812
 21
12275.472136
 31
0.0
  0
LINE
  8
0
 62
     0
 10
8337.389345
 20
12233.562767
 30
0.0
 11
8337.389345
 21
12233.562767
 31
0.0
  0
LINE
  8
0
 62
     0
 10
8424.68036
 20
12177.952257
 30
0.0
 11
8424.68036
 21
12177.952257
 31
0.0
  0
LINE
  8
0
 62
     0
 10
8445.765146
 20
12164.519767
 30
0.0
 11
8445.765146
 21
12164.519767
 31
0.0
  0
LINE
  8
0
 62
     0
 10
8216.611255
 20
12342.259648
 30
0.0
 11
8216.611255
 21
12342.259648
 31
0.0
  0
LINE
  8
0
 62
     0
 10
8303.90227
 20
12286.649139
 30
0.0
 11
8303.90227
 21
12286.649139
 31
0.0
  0
LINE
  8
0
 62
     0
 10
8324.987056
 20
12273.216649
 30
0.0
 11
8324.987056
 21
12273.216649
 31
0.0
  0
LINE
  8
0
 62
     0
 10
8390.771589
 20
12231.307279
 30
0.0
 11
8390.771589
 21
12231.307279
 31
0.0
  0
LINE
  8
0
 62
     0
 10
8478.062603
 20
12175.69677
 30
0.0
 11
8478.062603
 21
12175.69677
 31
0.0
  0
LINE
  8
0
 62
     0
 10
8499.147389
 20
12162.26428
 30
0.0
 11
8499.147389
 21
12162.26428
 31
0.0
  0
LINE
  8
0
 62
     0
 10
8269.993499
 20
12340.004161
 30
0.0
 11
8269.993499
 21
12340.004161
 31
0.0
  0
LINE
  8
0
 62
     0
 10
8357.284513
 20
12284.393652
 30
0.0
 11
8357.284513
 21
12284.393652
 31
0.0
  0
LINE
  8
0
 62
     0
 10
8378.369299
 20
12270.961162
 30
0.0
 11
8378.369299
 21
12270.961162
 31
0.0
  0
LINE
  8
0
 62
     0
 10
8444.153832
 20
12229.051792
 30
0.0
 11
8444.153832
 21
12229.051792
 31
0.0
  0
LINE
  8
0
 62
     0
 10
8323.375742
 20
12337.748674
 30
0.0
 11
8323.375742
 21
12337.748674
 31
0.0
  0
LINE
  8
0
 62
     0
 10
8410.666757
 20
12282.138165
 30
0.0
 11
8410.666757
 21
12282.138165
 31
0.0
  0
LINE
  8
0
 62
     0
 10
8431.751543
 20
12268.705674
 30
0.0
 11
8431.751543
 21
12268.705674
 31
0.0
  0
LINE
  8
0
 62
     0
 10
8497.536076
 20
12226.796305
 30
0.0
 11
8497.536076
 21
12226.796305
 31
0.0
  0
LINE
  8
0
 62
     0
 10
8376.757986
 20
12335.493187
 30
0.0
 11
8376.757986
 21
12335.493187
 31
0.0
  0
LINE
  8
0
 62
     0
 10
8464.049
 20
12279.882677
 30
0.0
 11
8464.049
 21
12279.882677
 31
0.0
  0
LINE
  8
0
 62
     0
 10
8485.133787
 20
12266.450187
 30
0.0
 11
8485.133787
 21
12266.450187
 31
0.0
  0
LINE
  8
0
 62
     0
 10
8430.140229
 20
12333.2377
 30
0.0
 11
8430.140229
 21
12333.2377
 31
0.0
  0
LINE
  8
0
 62
     0
 10
8483.522473
 20
12330.982213
 30
0.0
 11
8483.522473
 21
12330.982213
 31
0.0
  0
LINE
  8
0
 62
     0
 10
7842.93555
 20
12358.048059
 30
0.0
 11
7842.93555
 21
12358.048059
 31
0.0
  0
LINE
  8
0
 62
     0
 10
7930.226564
 20
12302.437549
 30
0.0
 11
7930.226564
 21
12302.437549
 31
0.0
  0
LINE
  8
0
 62
     0
 10
7951.31135
 20
12289.005059
 30
0.0
 11
7951.31135
 21
12289.005059
 31
0.0
  0
LINE
  8
0
 62
     0
 10
8017.095883
 20
12247.09569
 30
0.0
 11
8017.095883
 21
12247.09569
 31
0.0
  0
LINE
  8
0
 62
     0
 10
8104.386898
 20
12191.48518
 30
0.0
 11
8104.386898
 21
12191.48518
 31
0.0
  0
LINE
  8
0
 62
     0
 10
8125.471684
 20
12178.05269
 30
0.0
 11
8125.471684
 21
12178.05269
 31
0.0
  0
LINE
  8
0
 62
     0
 10
8191.256217
 20
12136.14332
 30
0.0
 11
8191.256217
 21
12136.14332
 31
0.0
  0
LINE
  8
0
 62
     0
 10
8278.547231
 20
12080.532811
 30
0.0
 11
8278.547231
 21
12080.532811
 31
0.0
  0
LINE
  8
0
 62
     0
 10
8299.632018
 20
12067.100321
 30
0.0
 11
8299.632018
 21
12067.100321
 31
0.0
  0
LINE
  8
0
 62
     0
 10
7789.553306
 20
12360.303546
 30
0.0
 11
7789.553306
 21
12360.303546
 31
0.0
  0
LINE
  8
0
 62
     0
 10
7876.844321
 20
12304.693036
 30
0.0
 11
7876.844321
 21
12304.693036
 31
0.0
  0
LINE
  8
0
 62
     0
 10
7897.929107
 20
12291.260546
 30
0.0
 11
7897.929107
 21
12291.260546
 31
0.0
  0
LINE
  8
0
 62
     0
 10
7963.71364
 20
12249.351177
 30
0.0
 11
7963.71364
 21
12249.351177
 31
0.0
  0
LINE
  8
0
 62
     0
 10
8051.004654
 20
12193.740667
 30
0.0
 11
8051.004654
 21
12193.740667
 31
0.0
  0
LINE
  8
0
 62
     0
 10
8072.08944
 20
12180.308177
 30
0.0
 11
8072.08944
 21
12180.308177
 31
0.0
  0
LINE
  8
0
 62
     0
 10
8137.873973
 20
12138.398808
 30
0.0
 11
8137.873973
 21
12138.398808
 31
0.0
  0
LINE
  8
0
 62
     0
 10
8225.164988
 20
12082.788298
 30
0.0
 11
8225.164988
 21
12082.788298
 31
0.0
  0
LINE
  8
0
 62
     0
 10
8246.249774
 20
12069.355808
 30
0.0
 11
8246.249774
 21
12069.355808
 31
0.0
  0
LINE
  8
0
 62
     0
 10
8312.034307
 20
12027.446438
 30
0.0
 11
8312.034307
 21
12027.446438
 31
0.0
  0
LINE
  8
0
 62
     0
 10
7823.462077
 20
12306.948524
 30
0.0
 11
7823.462077
 21
12306.948524
 31
0.0
  0
LINE
  8
0
 62
     0
 10
7844.546863
 20
12293.516033
 30
0.0
 11
7844.546863
 21
12293.516033
 31
0.0
  0
LINE
  8
0
 62
     0
 10
7910.331396
 20
12251.606664
 30
0.0
 11
7910.331396
 21
12251.606664
 31
0.0
  0
LINE
  8
0
 62
     0
 10
7997.622411
 20
12195.996154
 30
0.0
 11
7997.622411
 21
12195.996154
 31
0.0
  0
LINE
  8
0
 62
     0
 10
8018.707197
 20
12182.563664
 30
0.0
 11
8018.707197
 21
12182.563664
 31
0.0
  0
LINE
  8
0
 62
     0
 10
8084.49173
 20
12140.654295
 30
0.0
 11
8084.49173
 21
12140.654295
 31
0.0
  0
LINE
  8
0
 62
     0
 10
8171.782744
 20
12085.043785
 30
0.0
 11
8171.782744
 21
12085.043785
 31
0.0
  0
LINE
  8
0
 62
     0
 10
8192.86753
 20
12071.611295
 30
0.0
 11
8192.86753
 21
12071.611295
 31
0.0
  0
LINE
  8
0
 62
     0
 10
8258.652063
 20
12029.701926
 30
0.0
 11
8258.652063
 21
12029.701926
 31
0.0
  0
LINE
  8
0
 62
     0
 10
7770.079833
 20
12309.204011
 30
0.0
 11
7770.079833
 21
12309.204011
 31
0.0
  0
LINE
  8
0
 62
     0
 10
7791.16462
 20
12295.771521
 30
0.0
 11
7791.16462
 21
12295.771521
 31
0.0
  0
LINE
  8
0
 62
     0
 10
7856.949152
 20
12253.862151
 30
0.0
 11
7856.949152
 21
12253.862151
 31
0.0
  0
LINE
  8
0
 62
     0
 10
7944.240167
 20
12198.251642
 30
0.0
 11
7944.240167
 21
12198.251642
 31
0.0
  0
LINE
  8
0
 62
     0
 10
7965.324953
 20
12184.819151
 30
0.0
 11
7965.324953
 21
12184.819151
 31
0.0
  0
LINE
  8
0
 62
     0
 10
8031.109486
 20
12142.909782
 30
0.0
 11
8031.109486
 21
12142.909782
 31
0.0
  0
LINE
  8
0
 62
     0
 10
8118.400501
 20
12087.299272
 30
0.0
 11
8118.400501
 21
12087.299272
 31
0.0
  0
LINE
  8
0
 62
     0
 10
8139.485287
 20
12073.866782
 30
0.0
 11
8139.485287
 21
12073.866782
 31
0.0
  0
LINE
  8
0
 62
     0
 10
8205.269819
 20
12031.957413
 30
0.0
 11
8205.269819
 21
12031.957413
 31
0.0
  0
LINE
  8
0
 62
     0
 10
7803.566909
 20
12256.117638
 30
0.0
 11
7803.566909
 21
12256.117638
 31
0.0
  0
LINE
  8
0
 62
     0
 10
7890.857923
 20
12200.507129
 30
0.0
 11
7890.857923
 21
12200.507129
 31
0.0
  0
LINE
  8
0
 62
     0
 10
7911.94271
 20
12187.074639
 30
0.0
 11
7911.94271
 21
12187.074639
 31
0.0
  0
LINE
  8
0
 62
     0
 10
7977.727242
 20
12145.165269
 30
0.0
 11
7977.727242
 21
12145.165269
 31
0.0
  0
LINE
  8
0
 62
     0
 10
8065.018257
 20
12089.55476
 30
0.0
 11
8065.018257
 21
12089.55476
 31
0.0
  0
LINE
  8
0
 62
     0
 10
8086.103043
 20
12076.122269
 30
0.0
 11
8086.103043
 21
12076.122269
 31
0.0
  0
LINE
  8
0
 62
     0
 10
8151.887576
 20
12034.2129
 30
0.0
 11
8151.887576
 21
12034.2129
 31
0.0
  0
LINE
  8
0
 62
     0
 10
7837.47568
 20
12202.762616
 30
0.0
 11
7837.47568
 21
12202.762616
 31
0.0
  0
LINE
  8
0
 62
     0
 10
7858.560466
 20
12189.330126
 30
0.0
 11
7858.560466
 21
12189.330126
 31
0.0
  0
LINE
  8
0
 62
     0
 10
8011.636013
 20
12091.810247
 30
0.0
 11
8011.636013
 21
12091.810247
 31
0.0
  0
LINE
  8
0
 62
     0
 10
8032.720799
 20
12078.377757
 30
0.0
 11
8032.720799
 21
12078.377757
 31
0.0
  0
LINE
  8
0
 62
     0
 10
8098.505332
 20
12036.468387
 30
0.0
 11
8098.505332
 21
12036.468387
 31
0.0
  0
LINE
  8
0
 62
     0
 10
7784.093436
 20
12205.018103
 30
0.0
 11
7784.093436
 21
12205.018103
 31
0.0
  0
LINE
  8
0
 62
     0
 10
7805.178222
 20
12191.585613
 30
0.0
 11
7805.178222
 21
12191.585613
 31
0.0
  0
LINE
  8
0
 62
     0
 10
7979.338556
 20
12080.633244
 30
0.0
 11
7979.338556
 21
12080.633244
 31
0.0
  0
LINE
  8
0
 62
     0
 10
8045.123089
 20
12038.723874
 30
0.0
 11
8045.123089
 21
12038.723874
 31
0.0
  0
LINE
  8
0
 62
     0
 10
7817.580511
 20
12151.931731
 30
0.0
 11
7817.580511
 21
12151.931731
 31
0.0
  0
LINE
  8
0
 62
     0
 10
7991.740845
 20
12040.979362
 30
0.0
 11
7991.740845
 21
12040.979362
 31
0.0
  0
LINE
  8
0
 62
     0
 10
7924.685603
 20
12378.162177
 30
0.0
 11
7924.685603
 21
12378.162177
 31
0.0
  0
LINE
  8
0
 62
     0
 10
7948.647117
 20
12356.205495
 30
0.0
 11
7948.647117
 21
12356.205495
 31
0.0
  0
LINE
  8
0
 62
     0
 10
7986.838083
 20
12321.209922
 30
0.0
 11
7986.838083
 21
12321.209922
 31
0.0
  0
LINE
  8
0
 62
     0
 10
8041.027967
 20
12271.554042
 30
0.0
 11
8041.027967
 21
12271.554042
 31
0.0
  0
LINE
  8
0
 62
     0
 10
8064.989481
 20
12249.59736
 30
0.0
 11
8064.989481
 21
12249.59736
 31
0.0
  0
LINE
  8
0
 62
     0
 10
8103.180447
 20
12214.601787
 30
0.0
 11
8103.180447
 21
12214.601787
 31
0.0
  0
LINE
  8
0
 62
     0
 10
8157.370331
 20
12164.945907
 30
0.0
 11
8157.370331
 21
12164.945907
 31
0.0
  0
LINE
  8
0
 62
     0
 10
8181.331844
 20
12142.989225
 30
0.0
 11
8181.331844
 21
12142.989225
 31
0.0
  0
LINE
  8
0
 62
     0
 10
8219.52281
 20
12107.993653
 30
0.0
 11
8219.52281
 21
12107.993653
 31
0.0
  0
LINE
  8
0
 62
     0
 10
8273.712695
 20
12058.337772
 30
0.0
 11
8273.712695
 21
12058.337772
 31
0.0
  0
LINE
  8
0
 62
     0
 10
8297.674208
 20
12036.381091
 30
0.0
 11
8297.674208
 21
12036.381091
 31
0.0
  0
LINE
  8
0
 62
     0
 10
8006.965734
 20
12366.215993
 30
0.0
 11
8006.965734
 21
12366.215993
 31
0.0
  0
LINE
  8
0
 62
     0
 10
8045.1567
 20
12331.22042
 30
0.0
 11
8045.1567
 21
12331.22042
 31
0.0
  0
LINE
  8
0
 62
     0
 10
8099.346584
 20
12281.56454
 30
0.0
 11
8099.346584
 21
12281.56454
 31
0.0
  0
LINE
  8
0
 62
     0
 10
8123.308098
 20
12259.607858
 30
0.0
 11
8123.308098
 21
12259.607858
 31
0.0
  0
LINE
  8
0
 62
     0
 10
8161.499064
 20
12224.612286
 30
0.0
 11
8161.499064
 21
12224.612286
 31
0.0
  0
LINE
  8
0
 62
     0
 10
8215.688948
 20
12174.956405
 30
0.0
 11
8215.688948
 21
12174.956405
 31
0.0
  0
LINE
  8
0
 62
     0
 10
8239.650461
 20
12152.999724
 30
0.0
 11
8239.650461
 21
12152.999724
 31
0.0
  0
LINE
  8
0
 62
     0
 10
8277.841427
 20
12118.004151
 30
0.0
 11
8277.841427
 21
12118.004151
 31
0.0
  0
LINE
  8
0
 62
     0
 10
8065.284351
 20
12376.226491
 30
0.0
 11
8065.284351
 21
12376.226491
 31
0.0
  0
LINE
  8
0
 62
     0
 10
8103.475317
 20
12341.230919
 30
0.0
 11
8103.475317
 21
12341.230919
 31
0.0
  0
LINE
  8
0
 62
     0
 10
8157.665201
 20
12291.575038
 30
0.0
 11
8157.665201
 21
12291.575038
 31
0.0
  0
LINE
  8
0
 62
     0
 10
8181.626715
 20
12269.618357
 30
0.0
 11
8181.626715
 21
12269.618357
 31
0.0
  0
LINE
  8
0
 62
     0
 10
8219.817681
 20
12234.622784
 30
0.0
 11
8219.817681
 21
12234.622784
 31
0.0
  0
LINE
  8
0
 62
     0
 10
8274.007565
 20
12184.966904
 30
0.0
 11
8274.007565
 21
12184.966904
 31
0.0
  0
LINE
  8
0
 62
     0
 10
8297.969078
 20
12163.010222
 30
0.0
 11
8297.969078
 21
12163.010222
 31
0.0
  0
LINE
  8
0
 62
     0
 10
8161.793934
 20
12351.241417
 30
0.0
 11
8161.793934
 21
12351.241417
 31
0.0
  0
LINE
  8
0
 62
     0
 10
8215.983818
 20
12301.585537
 30
0.0
 11
8215.983818
 21
12301.585537
 31
0.0
  0
LINE
  8
0
 62
     0
 10
8239.945331
 20
12279.628855
 30
0.0
 11
8239.945331
 21
12279.628855
 31
0.0
  0
LINE
  8
0
 62
     0
 10
8278.136298
 20
12244.633282
 30
0.0
 11
8278.136298
 21
12244.633282
 31
0.0
  0
LINE
  8
0
 62
     0
 10
8332.326182
 20
12194.977402
 30
0.0
 11
8332.326182
 21
12194.977402
 31
0.0
  0
LINE
  8
0
 62
     0
 10
8356.287695
 20
12173.02072
 30
0.0
 11
8356.287695
 21
12173.02072
 31
0.0
  0
LINE
  8
0
 62
     0
 10
8220.112551
 20
12361.251915
 30
0.0
 11
8220.112551
 21
12361.251915
 31
0.0
  0
LINE
  8
0
 62
     0
 10
8274.302435
 20
12311.596035
 30
0.0
 11
8274.302435
 21
12311.596035
 31
0.0
  0
LINE
  8
0
 62
     0
 10
8298.263948
 20
12289.639353
 30
0.0
 11
8298.263948
 21
12289.639353
 31
0.0
  0
LINE
  8
0
 62
     0
 10
8336.454914
 20
12254.64378
 30
0.0
 11
8336.454914
 21
12254.64378
 31
0.0
  0
LINE
  8
0
 62
     0
 10
8390.644799
 20
12204.9879
 30
0.0
 11
8390.644799
 21
12204.9879
 31
0.0
  0
LINE
  8
0
 62
     0
 10
8414.606312
 20
12183.031218
 30
0.0
 11
8414.606312
 21
12183.031218
 31
0.0
  0
LINE
  8
0
 62
     0
 10
8332.621052
 20
12321.606533
 30
0.0
 11
8332.621052
 21
12321.606533
 31
0.0
  0
LINE
  8
0
 62
     0
 10
8356.582565
 20
12299.649851
 30
0.0
 11
8356.582565
 21
12299.649851
 31
0.0
  0
LINE
  8
0
 62
     0
 10
8394.773531
 20
12264.654278
 30
0.0
 11
8394.773531
 21
12264.654278
 31
0.0
  0
LINE
  8
0
 62
     0
 10
8448.963416
 20
12214.998398
 30
0.0
 11
8448.963416
 21
12214.998398
 31
0.0
  0
LINE
  8
0
 62
     0
 10
8472.924929
 20
12193.041716
 30
0.0
 11
8472.924929
 21
12193.041716
 31
0.0
  0
LINE
  8
0
 62
     0
 10
8511.115895
 20
12158.046144
 30
0.0
 11
8511.115895
 21
12158.046144
 31
0.0
  0
LINE
  8
0
 62
     0
 10
8390.939669
 20
12331.617031
 30
0.0
 11
8390.939669
 21
12331.617031
 31
0.0
  0
LINE
  8
0
 62
     0
 10
8414.901182
 20
12309.660349
 30
0.0
 11
8414.901182
 21
12309.660349
 31
0.0
  0
LINE
  8
0
 62
     0
 10
8453.092148
 20
12274.664777
 30
0.0
 11
8453.092148
 21
12274.664777
 31
0.0
  0
LINE
  8
0
 62
     0
 10
8507.282033
 20
12225.008896
 30
0.0
 11
8507.282033
 21
12225.008896
 31
0.0
  0
LINE
  8
0
 62
     0
 10
8449.258286
 20
12341.627529
 30
0.0
 11
8449.258286
 21
12341.627529
 31
0.0
  0
LINE
  8
0
 62
     0
 10
8473.219799
 20
12319.670848
 30
0.0
 11
8473.219799
 21
12319.670848
 31
0.0
  0
LINE
  8
0
 62
     0
 10
8511.410765
 20
12284.675275
 30
0.0
 11
8511.410765
 21
12284.675275
 31
0.0
  0
LINE
  8
0
 62
     0
 10
7866.366987
 20
12368.151678
 30
0.0
 11
7866.366987
 21
12368.151678
 31
0.0
  0
LINE
  8
0
 62
     0
 10
7890.3285
 20
12346.194997
 30
0.0
 11
7890.3285
 21
12346.194997
 31
0.0
  0
LINE
  8
0
 62
     0
 10
7928.519466
 20
12311.199424
 30
0.0
 11
7928.519466
 21
12311.199424
 31
0.0
  0
LINE
  8
0
 62
     0
 10
7982.70935
 20
12261.543544
 30
0.0
 11
7982.70935
 21
12261.543544
 31
0.0
  0
LINE
  8
0
 62
     0
 10
8006.670864
 20
12239.586862
 30
0.0
 11
8006.670864
 21
12239.586862
 31
0.0
  0
LINE
  8
0
 62
     0
 10
8044.86183
 20
12204.591289
 30
0.0
 11
8044.86183
 21
12204.591289
 31
0.0
  0
LINE
  8
0
 62
     0
 10
8099.051714
 20
12154.935409
 30
0.0
 11
8099.051714
 21
12154.935409
 31
0.0
  0
LINE
  8
0
 62
     0
 10
8123.013227
 20
12132.978727
 30
0.0
 11
8123.013227
 21
12132.978727
 31
0.0
  0
LINE
  8
0
 62
     0
 10
8161.204194
 20
12097.983154
 30
0.0
 11
8161.204194
 21
12097.983154
 31
0.0
  0
LINE
  8
0
 62
     0
 10
8215.394078
 20
12048.327274
 30
0.0
 11
8215.394078
 21
12048.327274
 31
0.0
  0
LINE
  8
0
 62
     0
 10
8239.355591
 20
12026.370592
 30
0.0
 11
8239.355591
 21
12026.370592
 31
0.0
  0
LINE
  8
0
 62
     0
 10
7808.04837
 20
12358.14118
 30
0.0
 11
7808.04837
 21
12358.14118
 31
0.0
  0
LINE
  8
0
 62
     0
 10
7832.009883
 20
12336.184498
 30
0.0
 11
7832.009883
 21
12336.184498
 31
0.0
  0
LINE
  8
0
 62
     0
 10
7870.200849
 20
12301.188926
 30
0.0
 11
7870.200849
 21
12301.188926
 31
0.0
  0
LINE
  8
0
 62
     0
 10
7924.390733
 20
12251.533045
 30
0.0
 11
7924.390733
 21
12251.533045
 31
0.0
  0
LINE
  8
0
 62
     0
 10
7948.352247
 20
12229.576364
 30
0.0
 11
7948.352247
 21
12229.576364
 31
0.0
  0
LINE
  8
0
 62
     0
 10
7986.543213
 20
12194.580791
 30
0.0
 11
7986.543213
 21
12194.580791
 31
0.0
  0
LINE
  8
0
 62
     0
 10
8040.733097
 20
12144.924911
 30
0.0
 11
8040.733097
 21
12144.924911
 31
0.0
  0
LINE
  8
0
 62
     0
 10
8064.694611
 20
12122.968229
 30
0.0
 11
8064.694611
 21
12122.968229
 31
0.0
  0
LINE
  8
0
 62
     0
 10
8102.885577
 20
12087.972656
 30
0.0
 11
8102.885577
 21
12087.972656
 31
0.0
  0
LINE
  8
0
 62
     0
 10
8157.075461
 20
12038.316776
 30
0.0
 11
8157.075461
 21
12038.316776
 31
0.0
  0
LINE
  8
0
 62
     0
 10
7773.691266
 20
12326.174
 30
0.0
 11
7773.691266
 21
12326.174
 31
0.0
  0
LINE
  8
0
 62
     0
 10
7811.882232
 20
12291.178427
 30
0.0
 11
7811.882232
 21
12291.178427
 31
0.0
  0
LINE
  8
0
 62
     0
 10
7866.072116
 20
12241.522547
 30
0.0
 11
7866.072116
 21
12241.522547
 31
0.0
  0
LINE
  8
0
 62
     0
 10
7890.03363
 20
12219.565865
 30
0.0
 11
7890.03363
 21
12219.565865
 31
0.0
  0
LINE
  8
0
 62
     0
 10
7928.224596
 20
12184.570293
 30
0.0
 11
7928.224596
 21
12184.570293
 31
0.0
  0
LINE
  8
0
 62
     0
 10
7982.41448
 20
12134.914412
 30
0.0
 11
7982.41448
 21
12134.914412
 31
0.0
  0
LINE
  8
0
 62
     0
 10
8006.375994
 20
12112.957731
 30
0.0
 11
8006.375994
 21
12112.957731
 31
0.0
  0
LINE
  8
0
 62
     0
 10
8044.56696
 20
12077.962158
 30
0.0
 11
8044.56696
 21
12077.962158
 31
0.0
  0
LINE
  8
0
 62
     0
 10
8098.756844
 20
12028.306278
 30
0.0
 11
8098.756844
 21
12028.306278
 31
0.0
  0
LINE
  8
0
 62
     0
 10
7807.753499
 20
12231.512049
 30
0.0
 11
7807.753499
 21
12231.512049
 31
0.0
  0
LINE
  8
0
 62
     0
 10
7831.715013
 20
12209.555367
 30
0.0
 11
7831.715013
 21
12209.555367
 31
0.0
  0
LINE
  8
0
 62
     0
 10
7869.905979
 20
12174.559794
 30
0.0
 11
7869.905979
 21
12174.559794
 31
0.0
  0
LINE
  8
0
 62
     0
 10
7986.248343
 20
12067.95166
 30
0.0
 11
7986.248343
 21
12067.95166
 31
0.0
  0
LINE
  8
0
 62
     0
 10
7773.396396
 20
12199.544869
 30
0.0
 11
7773.396396
 21
12199.544869
 31
0.0
  0
LINE
  8
0
 62
     0
 10
7811.587362
 20
12164.549296
 30
0.0
 11
7811.587362
 21
12164.549296
 31
0.0
  0
ENDBLK
  8
HATCH
  0
ENDSEC
  0
SECTION
  2
ENTITIES
  0
TEXT
  8
JISSEN
 10
2469.746406
 20
6214.649332
 30
0.0
 40
250.0
  1
組立マンホール構造図（内径７５０ｍｍ)
  7
K
  0
TEXT
  8
TEXT
 10
8019.674589
 20
2897.797322
 30
0.0
 40
60.0
  1
管取付壁
  7
K
  0
TEXT
  8
TEXT
 10
8091.72806
 20
3401.000398
 30
0.0
 40
60.0
  1
直壁
  7
K
  0
TEXT
  8
TEXT
 10
8100.944201
 20
3769.356377
 30
0.0
 40
60.0
  1
斜壁
  7
K
  0
TEXT
  8
TEXT
 10
8617.467045
 20
2752.990144
 30
0.0
 40
60.0
  1
底版
  7
K
  0
TEXT
  8
TEXT
 10
8473.360104
 20
2661.430356
 30
0.0
 40
60.0
  1
（Ｍ０Ｐ  ）
  7
K
  0
TEXT
  8
TEXT
 10
7992.026164
 20
2797.521182
 30
0.0
 40
60.0
  1
（Ｍ０Ｂ）
  7
K
  0
TEXT
  8
TEXT
 10
8002.080137
 20
3290.982453
 30
0.0
 40
60.0
  1
（Ｍ０Ｓ）
  7
K
  0
TEXT
  8
TEXT
 10
7992.863995
 20
3673.694776
 30
0.0
 40
60.0
  1
（Ｍ０Ｔ）
  7
K
  0
LINE
  8
SUNPOU
 10
6796.086665
 20
1803.482361
 30
0.0
 11
6796.086665
 21
1379.494081
 31
0.0
  0
LINE
  8
SUNPOU
 10
7746.086665
 20
1803.482361
 30
0.0
 11
7746.086665
 21
1379.494081
 31
0.0
  0
LINE
  8
SUNPOU
 10
6796.086665
 20
1409.494081
 30
0.0
 11
7746.086665
 21
1409.494081
 31
0.0
  0
INSERT
  8
SUNPOU
  2
ARROWANG
 10
6796.086665
 20
1409.494081
 30
0.0
 41
30.0
 42
30.0
 50
180.0
 43
30.0
  0
INSERT
  8
SUNPOU
  2
ARROWANG
 10
7746.086665
 20
1409.494081
 30
0.0
 41
30.0
 42
30.0
 43
30.0
  0
TEXT
  8
SUNPOU
 10
7185.372394
 20
1454.494081
 30
0.0
 40
60.0
  1
950
  7
K
 72
     1
 11
7271.08668
 21
1454.494081
 31
0.0
  0
LINE
  8
SUNPOU
 10
6796.086665
 20
1803.482361
 30
0.0
 11
6796.086665
 21
1600.991975
 31
0.0
  0
LINE
  8
SUNPOU
 10
7096.086665
 20
2003.482361
 30
0.0
 11
7096.086665
 21
1600.991975
 31
0.0
  0
LINE
  8
SUNPOU
 10
6796.086665
 20
1630.991975
 30
0.0
 11
7096.086665
 21
1630.991975
 31
0.0
  0
INSERT
  8
SUNPOU
  2
ARROWANG
 10
6796.086665
 20
1630.991975
 30
0.0
 41
30.0
 42
30.0
 50
180.0
 43
30.0
  0
INSERT
  8
SUNPOU
  2
ARROWANG
 10
7096.086665
 20
1630.991975
 30
0.0
 41
30.0
 42
30.0
 43
30.0
  0
TEXT
  8
SUNPOU
 10
6860.372394
 20
1675.991975
 30
0.0
 40
60.0
  1
300
  7
K
 72
     1
 11
6946.08668
 21
1675.991975
 31
0.0
  0
LINE
  8
SUNPOU
 10
7096.086665
 20
1630.991975
 30
0.0
 11
7446.086665
 21
1630.991975
 31
0.0
  0
LINE
  8
SUNPOU
 10
7446.086665
 20
2003.482361
 30
0.0
 11
7446.086665
 21
1600.991975
 31
0.0
  0
INSERT
  8
SUNPOU
  2
ARROWANG
 10
7096.086665
 20
1630.991975
 30
0.0
 41
30.0
 42
30.0
 50
180.0
 43
30.0
  0
INSERT
  8
SUNPOU
  2
ARROWANG
 10
7446.086665
 20
1630.991975
 30
0.0
 41
30.0
 42
30.0
 43
30.0
  0
TEXT
  8
SUNPOU
 10
7185.372379
 20
1675.991975
 30
0.0
 40
60.0
  1
350
  7
K
 72
     1
 11
7271.086665
 21
1675.991975
 31
0.0
  0
LINE
  8
SUNPOU
 10
7446.086665
 20
1630.991975
 30
0.0
 11
7746.086665
 21
1630.991975
 31
0.0
  0
LINE
  8
SUNPOU
 10
7746.086665
 20
1803.482361
 30
0.0
 11
7746.086665
 21
1600.991975
 31
0.0
  0
INSERT
  8
SUNPOU
  2
ARROWANG
 10
7446.086665
 20
1630.991975
 30
0.0
 41
30.0
 42
30.0
 50
180.0
 43
30.0
  0
INSERT
  8
SUNPOU
  2
ARROWANG
 10
7746.086665
 20
1630.991975
 30
0.0
 41
30.0
 42
30.0
 43
30.0
  0
TEXT
  8
SUNPOU
 10
7510.372379
 20
1675.991975
 30
0.0
 40
60.0
  1
300
  7
K
 72
     1
 11
7596.086665
 21
1675.991975
 31
0.0
  0
INSERT
  8
HATCH
  2
*X2
 10
-870.96962
 20
-9987.6493
 30
0.0
  0
LINE
  8
JISSEN
 10
6796.086665
 20
1833.482361
 30
0.0
 11
7746.086665
 21
1833.482361
 31
0.0
  0
LINE
  8
JISSEN
 10
7096.086665
 20
2033.482361
 30
0.0
 11
7446.086665
 21
2033.482361
 31
0.0
  0
LINE
  8
JISSEN
 10
7646.086665
 20
2358.482361
 30
0.0
 11
6896.086665
 21
2408.482361
 31
0.0
  0
ARC
  8
JISSEN
 10
7083.586665
 20
-304.017639
 30
0.0
 40
2843.688186
 50
78.591282
 51
93.780569
  0
LINE
  8
JISSEN
 10
6896.086665
 20
2533.482361
 30
0.0
 11
7646.086665
 21
2483.482361
 31
0.0
  0
LINE
  8
JISSEN
 10
6896.086665
 20
3055.482361
 30
0.0
 11
6896.086665
 21
2408.482361
 31
0.0
  0
LINE
  8
JISSEN
 10
6896.086665
 20
3363.482361
 30
0.0
 11
7011.086665
 21
3938.482361
 31
0.0
  0
LINE
  8
JISSEN
 10
6901.086665
 20
3973.482361
 30
0.0
 11
6821.086665
 21
3438.482361
 31
0.0
  0
LINE
  8
SUNPOU
 10
5350.430838
 20
2713.637095
 30
0.0
 11
5753.179675
 21
2713.637095
 31
0.0
  0
LINE
  8
SUNPOU
 10
5350.430838
 20
3863.637095
 30
0.0
 11
5753.179675
 21
3863.637095
 31
0.0
  0
LINE
  8
SUNPOU
 10
5723.179675
 20
2713.637095
 30
0.0
 11
5723.179675
 21
3863.637095
 31
0.0
  0
INSERT
  8
SUNPOU
  2
ARROWANG
 10
5723.179675
 20
2713.637095
 30
0.0
 41
30.0
 42
30.0
 50
270.0
 43
30.0
  0
INSERT
  8
SUNPOU
  2
ARROWANG
 10
5723.179675
 20
3863.637095
 30
0.0
 41
30.0
 42
30.0
 50
90.0
 43
30.0
  0
TEXT
  8
SUNPOU
 10
5678.179675
 20
3188.065666
 30
0.0
 40
60.0
  1
掘削幅
 50
90.0
  7
K
 72
     1
 11
5678.179675
 21
3288.637095
 31
0.0
  0
INSERT
  8
SUNPOU
  2
ARROWANG
 10
4170.430838
 20
4266.385933
 30
0.0
 41
30.0
 42
30.0
 50
180.0
 43
30.0
  0
INSERT
  8
SUNPOU
  2
ARROWANG
 10
5320.430838
 20
4266.385933
 30
0.0
 41
30.0
 42
30.0
 43
30.0
  0
LINE
  8
SUNPOU
 10
5320.430838
 20
4266.385933
 30
0.0
 11
4170.430838
 21
4266.385933
 31
0.0
  0
LINE
  8
SUNPOU
 10
4170.430838
 20
3893.637095
 30
0.0
 11
4170.430838
 21
4296.385933
 31
0.0
  0
LINE
  8
SUNPOU
 10
5320.430838
 20
3893.637095
 30
0.0
 11
5320.430838
 21
4296.385933
 31
0.0
  0
TEXT
  8
SUNPOU
 10
5149.304257
 20
3575.967831
 30
0.0
 40
60.0
  1
25
 50
30.0
  7
K
 72
     4
 11
5183.791423
 21
3630.520021
 31
0.0
  0
INSERT
  8
SUNPOU
  2
ARROWANG
 10
5156.792904
 20
3526.137095
 30
0.0
 41
30.0
 42
30.0
 50
210.0
 43
30.0
  0
LINE
  8
SUNPOU
 10
5178.443539
 20
3538.637095
 30
0.0
 11
5156.792904
 21
3526.137095
 31
0.0
  0
TEXT
  8
SUNPOU
 10
5030.679151
 20
3505.286809
 30
0.0
 40
60.0
  1
75
 50
30.0
  7
K
 72
     1
 11
5080.166317
 21
3533.858238
 31
0.0
  0
INSERT
  8
SUNPOU
  2
ARROWANG
 10
5070.190364
 20
3476.137095
 30
0.0
 41
30.0
 42
30.0
 50
210.0
 43
30.0
  0
LINE
  8
SUNPOU
 10
5070.190364
 20
3476.137095
 30
0.0
 11
5135.142269
 21
3513.637095
 31
0.0
  0
TEXT
  8
SUNPOU
 10
4648.700089
 20
3284.751095
 30
0.0
 40
60.0
  1
750
 50
30.0
  7
K
 72
     1
 11
4722.930838
 21
3327.608238
 31
0.0
  0
INSERT
  8
SUNPOU
  2
ARROWANG
 10
5070.190364
 20
3476.137095
 30
0.0
 41
30.0
 42
30.0
 50
30.0
 43
30.0
  0
INSERT
  8
SUNPOU
  2
ARROWANG
 10
4420.671311
 20
3101.137095
 30
0.0
 41
30.0
 42
30.0
 50
210.0
 43
30.0
  0
LINE
  8
SUNPOU
 10
5085.190364
 20
3450.156333
 30
0.0
 11
5085.190364
 21
3450.156333
 31
0.0
  0
LINE
  8
SUNPOU
 10
4420.671311
 20
3101.137095
 30
0.0
 11
5070.190364
 21
3476.137095
 31
0.0
  0
TEXT
  8
SUNPOU
 10
4316.208193
 20
3092.786809
 30
0.0
 40
60.0
  1
75
 50
30.0
  7
K
 72
     1
 11
4365.695358
 21
3121.358238
 31
0.0
  0
INSERT
  8
SUNPOU
  2
ARROWANG
 10
4420.671311
 20
3101.137095
 30
0.0
 41
30.0
 42
30.0
 50
30.0
 43
30.0
  0
INSERT
  8
SUNPOU
  2
ARROWANG
 10
4355.719406
 20
3063.637095
 30
0.0
 41
30.0
 42
30.0
 50
210.0
 43
30.0
  0
LINE
  8
SUNPOU
 10
4435.671311
 20
3075.156333
 30
0.0
 11
4435.671311
 21
3075.156333
 31
0.0
  0
LINE
  8
SUNPOU
 10
4355.719406
 20
3063.637095
 30
0.0
 11
4420.671311
 21
3101.137095
 31
0.0
  0
TEXT
  8
SUNPOU
 10
4204.923928
 20
3028.536809
 30
0.0
 40
60.0
  1
25
 50
30.0
  7
K
 72
     1
 11
4254.411094
 21
3057.108238
 31
0.0
  0
LINE
  8
SUNPOU
 10
4355.719406
 20
3063.637095
 30
0.0
 11
4407.68093
 21
3093.637095
 31
0.0
  0
LINE
  8
SUNPOU
 10
4334.068771
 20
3051.137095
 30
0.0
 11
4219.753417
 21
2985.137095
 31
0.0
  0
INSERT
  8
SUNPOU
  2
ARROWANG
 10
4355.719406
 20
3063.637095
 30
0.0
 41
30.0
 42
30.0
 50
210.0
 43
30.0
  0
INSERT
  8
SUNPOU
  2
ARROWANG
 10
4334.068771
 20
3051.137095
 30
0.0
 41
30.0
 42
30.0
 50
30.0
 43
30.0
  0
LINE
  8
SUNPOU
 10
4334.068771
 20
3051.137095
 30
0.0
 11
4355.719406
 21
3063.637095
 31
0.0
  0
LINE
  8
SUNPOU
 10
4370.719406
 20
3037.656333
 30
0.0
 11
4370.719406
 21
3037.656333
 31
0.0
  0
LINE
  8
SUNPOU
 10
4349.068771
 20
3025.156333
 30
0.0
 11
4349.068771
 21
3025.156333
 31
0.0
  0
LINE
  8
JISSEN
 10
4391.877447
 20
3163.637095
 30
0.0
 11
5177.721249
 21
3163.637095
 31
0.0
  0
LINE
  8
JISSEN
 10
4391.877447
 20
3413.637095
 30
0.0
 11
5177.721249
 21
3413.637095
 31
0.0
  0
ARC
  8
JISSEN
 10
4745.430838
 20
3288.637095
 30
0.0
 40
475.0
 50
18.40848
 51
90.0
  0
ARC
  8
HASEN
 10
4745.430838
 20
3288.637095
 30
0.0
 40
475.0
 50
341.59152
 51
18.40848
  0
ARC
  8
JISSEN
 10
4745.430838
 20
3288.637095
 30
0.0
 40
475.0
 50
199.471221
 51
270.0
  0
ARC
  8
HASEN
 10
4745.430838
 20
3288.637095
 30
0.0
 40
475.0
 50
161.59152
 51
199.471221
  0
ARC
  8
JISSEN
 10
4745.430838
 20
3288.637095
 30
0.0
 40
475.0
 50
270.0
 51
341.59152
  0
ARC
  8
JISSEN
 10
4745.430838
 20
3288.637095
 30
0.0
 40
475.0
 50
90.0
 51
161.59152
  0
LINE
  8
HASEN
 10
5320.430838
 20
3863.637095
 30
0.0
 11
4170.430838
 21
3863.637095
 31
0.0
  0
LINE
  8
HASEN
 10
5320.430838
 20
2713.637095
 30
0.0
 11
5320.430838
 21
3863.637095
 31
0.0
  0
LINE
  8
HASEN
 10
4170.430838
 20
2713.637095
 30
0.0
 11
5320.430838
 21
2713.637095
 31
0.0
  0
LINE
  8
HASEN
 10
4170.430838
 20
3863.637095
 30
0.0
 11
4170.430838
 21
2713.637095
 31
0.0
  0
CIRCLE
  8
JISSEN
 10
4745.430838
 20
3288.637095
 30
0.0
 40
450.0
  0
CIRCLE
  8
JISSEN
 10
4745.430838
 20
3288.637095
 30
0.0
 40
375.0
  0
INSERT
  8
HATCH
  2
*X1
 10
-870.96962
 20
-9987.6493
 30
0.0
  0
TEXT
  8
SUNPOU
 10
2534.716552
 20
1675.991975
 30
0.0
 40
60.0
  1
300
  7
K
 72
     1
 11
2620.430838
 21
1675.991975
 31
0.0
  0
INSERT
  8
SUNPOU
  2
ARROWANG
 10
2770.430838
 20
1630.991975
 30
0.0
 41
30.0
 42
30.0
 43
30.0
  0
INSERT
  8
SUNPOU
  2
ARROWANG
 10
2470.430838
 20
1630.991975
 30
0.0
 41
30.0
 42
30.0
 50
180.0
 43
30.0
  0
LINE
  8
SUNPOU
 10
2770.430838
 20
1803.482361
 30
0.0
 11
2770.430838
 21
1600.991975
 31
0.0
  0
LINE
  8
SUNPOU
 10
2470.430838
 20
1630.991975
 30
0.0
 11
2770.430838
 21
1630.991975
 31
0.0
  0
TEXT
  8
SUNPOU
 10
2209.716552
 20
1675.991975
 30
0.0
 40
60.0
  1
350
  7
K
 72
     1
 11
2295.430838
 21
1675.991975
 31
0.0
  0
INSERT
  8
SUNPOU
  2
ARROWANG
 10
2470.430838
 20
1630.991975
 30
0.0
 41
30.0
 42
30.0
 43
30.0
  0
INSERT
  8
SUNPOU
  2
ARROWANG
 10
2120.430838
 20
1630.991975
 30
0.0
 41
30.0
 42
30.0
 50
180.0
 43
30.0
  0
LINE
  8
SUNPOU
 10
2470.430838
 20
2003.482361
 30
0.0
 11
2470.430838
 21
1600.991975
 31
0.0
  0
LINE
  8
SUNPOU
 10
2120.430838
 20
1630.991975
 30
0.0
 11
2470.430838
 21
1630.991975
 31
0.0
  0
TEXT
  8
SUNPOU
 10
1884.716567
 20
1675.991975
 30
0.0
 40
60.0
  1
300
  7
K
 72
     1
 11
1970.430852
 21
1675.991975
 31
0.0
  0
INSERT
  8
SUNPOU
  2
ARROWANG
 10
2120.430838
 20
1630.991975
 30
0.0
 41
30.0
 42
30.0
 43
30.0
  0
INSERT
  8
SUNPOU
  2
ARROWANG
 10
1820.430838
 20
1630.991975
 30
0.0
 41
30.0
 42
30.0
 50
180.0
 43
30.0
  0
LINE
  8
SUNPOU
 10
1820.430838
 20
1630.991975
 30
0.0
 11
2120.430838
 21
1630.991975
 31
0.0
  0
LINE
  8
SUNPOU
 10
2120.430838
 20
2003.482361
 30
0.0
 11
2120.430838
 21
1600.991975
 31
0.0
  0
LINE
  8
SUNPOU
 10
1820.430838
 20
1803.482361
 30
0.0
 11
1820.430838
 21
1600.991975
 31
0.0
  0
TEXT
  8
SUNPOU
 10
2209.716567
 20
1454.494081
 30
0.0
 40
60.0
  1
950
  7
K
 72
     1
 11
2295.430852
 21
1454.494081
 31
0.0
  0
INSERT
  8
SUNPOU
  2
ARROWANG
 10
2770.430838
 20
1409.494081
 30
0.0
 41
30.0
 42
30.0
 43
30.0
  0
INSERT
  8
SUNPOU
  2
ARROWANG
 10
1820.430838
 20
1409.494081
 30
0.0
 41
30.0
 42
30.0
 50
180.0
 43
30.0
  0
LINE
  8
SUNPOU
 10
1820.430838
 20
1409.494081
 30
0.0
 11
2770.430838
 21
1409.494081
 31
0.0
  0
LINE
  8
SUNPOU
 10
2770.430838
 20
1803.482361
 30
0.0
 11
2770.430838
 21
1379.494081
 31
0.0
  0
LINE
  8
SUNPOU
 10
1820.430838
 20
1803.482361
 30
0.0
 11
1820.430838
 21
1379.494081
 31
0.0
  0
TEXT
  8
SUNPOU
 10
2650.78798
 20
2795.274158
 30
0.0
 40
60.0
  1
75
  7
K
 72
     1
 11
2707.930838
 21
2795.274158
 31
0.0
  0
INSERT
  8
SUNPOU
  2
ARROWANG
 10
2745.430838
 20
2750.274158
 30
0.0
 41
30.0
 42
30.0
 43
30.0
  0
INSERT
  8
SUNPOU
  2
ARROWANG
 10
2670.430838
 20
2750.274158
 30
0.0
 41
30.0
 42
30.0
 50
180.0
 43
30.0
  0
LINE
  8
SUNPOU
 10
2745.430838
 20
2780.274158
 30
0.0
 11
2745.430838
 21
2780.274158
 31
0.0
  0
LINE
  8
SUNPOU
 10
2670.430838
 20
2750.274158
 30
0.0
 11
2745.430838
 21
2750.274158
 31
0.0
  0
TEXT
  8
SUNPOU
 10
2209.716552
 20
2795.274158
 30
0.0
 40
60.0
  1
750
  7
K
 72
     1
 11
2295.430838
 21
2795.274158
 31
0.0
  0
INSERT
  8
SUNPOU
  2
ARROWANG
 10
2670.430838
 20
2750.274158
 30
0.0
 41
30.0
 42
30.0
 43
30.0
  0
INSERT
  8
SUNPOU
  2
ARROWANG
 10
1920.430838
 20
2750.274158
 30
0.0
 41
30.0
 42
30.0
 50
180.0
 43
30.0
  0
LINE
  8
SUNPOU
 10
2670.430838
 20
2780.274158
 30
0.0
 11
2670.430838
 21
2780.274158
 31
0.0
  0
LINE
  8
SUNPOU
 10
1920.430838
 20
2750.274158
 30
0.0
 11
2670.430838
 21
2750.274158
 31
0.0
  0
TEXT
  8
SUNPOU
 10
1825.787995
 20
2795.274158
 30
0.0
 40
60.0
  1
75
  7
K
 72
     1
 11
1882.930852
 21
2795.274158
 31
0.0
  0
INSERT
  8
SUNPOU
  2
ARROWANG
 10
1920.430838
 20
2750.274158
 30
0.0
 41
30.0
 42
30.0
 43
30.0
  0
INSERT
  8
SUNPOU
  2
ARROWANG
 10
1845.430838
 20
2750.274158
 30
0.0
 41
30.0
 42
30.0
 50
180.0
 43
30.0
  0
LINE
  8
SUNPOU
 10
1845.430838
 20
2750.274158
 30
0.0
 11
1920.430838
 21
2750.274158
 31
0.0
  0
LINE
  8
SUNPOU
 10
1920.430838
 20
2720.274158
 30
0.0
 11
1920.430838
 21
2720.274158
 31
0.0
  0
LINE
  8
SUNPOU
 10
1845.430838
 20
2720.274158
 30
0.0
 11
1845.430838
 21
2720.274158
 31
0.0
  0
LINE
  8
JISSEN
 10
2295.430838
 20
2033.482361
 30
0.0
 11
2120.430838
 21
2033.482361
 31
0.0
  0
LINE
  8
JISSEN
 10
2670.430838
 20
2483.482361
 30
0.0
 11
2670.430838
 21
2163.482361
 31
0.0
  0
LINE
  8
JISSEN
 10
1920.430838
 20
2483.482361
 30
0.0
 11
1920.430838
 21
2163.482361
 31
0.0
  0
LINE
  8
JISSEN
 10
1845.430838
 20
3438.482361
 30
0.0
 11
1885.430838
 21
3973.482361
 31
0.0
  0
LINE
  8
JISSEN
 10
1995.430838
 20
3938.482361
 30
0.0
 11
1920.430838
 21
3363.482361
 31
0.0
  0
LINE
  8
JISSEN
 10
2670.430838
 20
3363.482361
 30
0.0
 11
2595.430838
 21
3938.482361
 31
0.0
  0
LINE
  8
JISSEN
 10
2705.430838
 20
3973.482361
 30
0.0
 11
2745.430838
 21
3438.482361
 31
0.0
  0
LINE
  8
JISSEN
 10
2295.430838
 20
1833.482361
 30
0.0
 11
2770.430838
 21
1833.482361
 31
0.0
  0
TEXT
  8
TEXT
 10
6934.348244
 20
4903.775714
 30
0.0
 40
120.0
  1
縦断面図
  7
K
  0
TEXT
  8
TEXT
 10
4535.470376
 20
4919.594062
 30
0.0
 40
120.0
  1
平面図
  7
K
  0
TEXT
  8
TEXT
 10
2054.987763
 20
4919.005159
 30
0.0
 40
120.0
  1
横断面図
  7
K
  0
TEXT
  8
SUNPOU
 10
8952.423427
 20
3073.982361
 30
0.0
 40
60.0
  1
マンホール深
 50
90.0
  7
K
 72
     1
 11
8952.423427
 21
3285.982361
 31
0.0
  0
INSERT
  8
SUNPOU
  2
ARROWANG
 10
8997.423427
 20
4213.482361
 30
0.0
 41
30.0
 42
30.0
 50
90.0
 43
30.0
  0
INSERT
  8
SUNPOU
  2
ARROWANG
 10
8997.423427
 20
2358.482361
 30
0.0
 41
30.0
 42
30.0
 50
270.0
 43
30.0
  0
LINE
  8
SUNPOU
 10
8997.423427
 20
2358.482361
 30
0.0
 11
8997.423427
 21
4213.482361
 31
0.0
  0
LINE
  8
SUNPOU
 10
7698.568787
 20
4213.482361
 30
0.0
 11
9027.423427
 21
4213.482361
 31
0.0
  0
LINE
  8
SUNPOU
 10
8538.130093
 20
2358.482361
 30
0.0
 11
9027.423427
 21
2358.482361
 31
0.0
  0
TEXT
  8
SUNPOU
 10
8463.130093
 20
2110.268075
 30
0.0
 40
60.0
  1
300
 50
90.0
  7
K
 72
     1
 11
8463.130093
 21
2195.982361
 31
0.0
  0
INSERT
  8
SUNPOU
  2
ARROWANG
 10
8508.130093
 20
2358.482361
 30
0.0
 41
30.0
 42
30.0
 50
90.0
 43
30.0
  0
INSERT
  8
SUNPOU
  2
ARROWANG
 10
8508.130093
 20
2033.482361
 30
0.0
 41
30.0
 42
30.0
 50
270.0
 43
30.0
  0
LINE
  8
SUNPOU
 10
8508.130093
 20
2033.482361
 30
0.0
 11
8508.130093
 21
2358.482361
 31
0.0
  0
LINE
  8
SUNPOU
 10
8341.077877
 20
2358.482361
 30
0.0
 11
8538.130093
 21
2358.482361
 31
0.0
  0
LINE
  8
SUNPOU
 10
8341.077877
 20
2033.482361
 30
0.0
 11
8538.130093
 21
2033.482361
 31
0.0
  0
TEXT
  8
SUNPOU
 10
8236.077877
 20
2170.982361
 30
0.0
 40
60.0
  1
170
 50
90.0
  7
K
 72
     1
 11
8236.077877
 21
2260.982361
 31
0.0
  0
INSERT
  8
SUNPOU
  2
ARROWANG
 10
8281.077877
 20
2358.482361
 30
0.0
 41
30.0
 42
30.0
 50
90.0
 43
30.0
  0
INSERT
  8
SUNPOU
  2
ARROWANG
 10
8281.077877
 20
2163.482361
 30
0.0
 41
30.0
 42
30.0
 50
270.0
 43
30.0
  0
LINE
  8
SUNPOU
 10
8281.077877
 20
2163.482361
 30
0.0
 11
8281.077877
 21
2358.482361
 31
0.0
  0
LINE
  8
SUNPOU
 10
8164.203284
 20
2358.482361
 30
0.0
 11
8311.077877
 21
2358.482361
 31
0.0
  0
LINE
  8
SUNPOU
 10
8251.077877
 20
2163.482361
 30
0.0
 11
8251.077877
 21
2163.482361
 31
0.0
  0
TEXT
  8
SUNPOU
 10
8236.077877
 20
2008.482361
 30
0.0
 40
60.0
  1
130
 50
90.0
  7
K
 72
     1
 11
8236.077877
 21
2098.482361
 31
0.0
  0
INSERT
  8
SUNPOU
  2
ARROWANG
 10
8281.077877
 20
2163.482361
 30
0.0
 41
30.0
 42
30.0
 50
90.0
 43
30.0
  0
INSERT
  8
SUNPOU
  2
ARROWANG
 10
8281.077877
 20
2033.482361
 30
0.0
 41
30.0
 42
30.0
 50
270.0
 43
30.0
  0
LINE
  8
SUNPOU
 10
7676.086665
 20
2163.482361
 30
0.0
 11
8311.077877
 21
2163.482361
 31
0.0
  0
LINE
  8
SUNPOU
 10
8281.077877
 20
2033.482361
 30
0.0
 11
8281.077877
 21
2163.482361
 31
0.0
  0
TEXT
  8
SUNPOU
 10
8236.077877
 20
1847.768075
 30
0.0
 40
60.0
  1
200
 50
90.0
  7
K
 72
     1
 11
8236.077877
 21
1933.482361
 31
0.0
  0
INSERT
  8
SUNPOU
  2
ARROWANG
 10
8281.077877
 20
2033.482361
 30
0.0
 41
30.0
 42
30.0
 50
90.0
 43
30.0
  0
INSERT
  8
SUNPOU
  2
ARROWANG
 10
8281.077877
 20
1833.482361
 30
0.0
 41
30.0
 42
30.0
 50
270.0
 43
30.0
  0
LINE
  8
SUNPOU
 10
8281.077877
 20
1833.482361
 30
0.0
 11
8281.077877
 21
2033.482361
 31
0.0
  0
LINE
  8
SUNPOU
 10
7776.086665
 20
2033.482361
 30
0.0
 11
8311.077877
 21
2033.482361
 31
0.0
  0
LINE
  8
SUNPOU
 10
7776.086665
 20
1833.482361
 30
0.0
 11
8311.077877
 21
1833.482361
 31
0.0
  0
LINE
  8
SUNPOU
 10
8508.549008
 20
2737.455992
 30
0.0
 11
8888.50539
 21
2737.455992
 31
0.0
  0
LINE
  8
SUNPOU
 10
7670.29904
 20
2076.03867
 30
0.0
 11
8508.549008
 21
2737.455992
 31
0.0
  0
INSERT
  8
SUNPOU
  2
ARROWANG
 10
7670.29904
 20
2076.03867
 30
0.0
 41
30.0
 42
30.0
 50
218.275045
 43
30.0
  0
LINE
  8
SUNPOU
 10
7931.702329
 20
2879.993989
 30
0.0
 11
8369.050138
 21
2879.993989
 31
0.0
  0
LINE
  8
SUNPOU
 10
7696.271803
 20
2752.837791
 30
0.0
 11
7931.702329
 21
2879.993989
 31
0.0
  0
INSERT
  8
SUNPOU
  2
ARROWANG
 10
7696.271803
 20
2752.837791
 30
0.0
 41
30.0
 42
30.0
 50
208.373514
 43
30.0
  0
LINE
  8
SUNPOU
 10
7934.215822
 20
3372.211532
 30
0.0
 11
8369.050138
 21
3372.211532
 31
0.0
  0
LINE
  8
SUNPOU
 10
7698.785296
 20
3229.160808
 30
0.0
 11
7934.215822
 21
3372.211532
 31
0.0
  0
INSERT
  8
SUNPOU
  2
ARROWANG
 10
7698.785296
 20
3229.160808
 30
0.0
 41
30.0
 42
30.0
 50
211.283423
 43
30.0
  0
TEXT
  8
SUNPOU
 10
7340.436483
 20
3577.768075
 30
0.0
 40
60.0
  1
300
 50
90.0
  7
K
 72
     1
 11
7340.436483
 21
3663.482361
 31
0.0
  0
INSERT
  8
SUNPOU
  2
ARROWANG
 10
7385.436483
 20
3813.482361
 30
0.0
 41
30.0
 42
30.0
 50
90.0
 43
30.0
  0
INSERT
  8
SUNPOU
  2
ARROWANG
 10
7385.436483
 20
3513.482361
 30
0.0
 41
30.0
 42
30.0
 50
270.0
 43
30.0
  0
LINE
  8
SUNPOU
 10
7438.695361
 20
3813.482361
 30
0.0
 11
7355.436483
 21
3813.482361
 31
0.0
  0
LINE
  8
SUNPOU
 10
7385.436483
 20
3513.482361
 30
0.0
 11
7385.436483
 21
3813.482361
 31
0.0
  0
TEXT
  8
SUNPOU
 10
7340.436483
 20
3277.768075
 30
0.0
 40
60.0
  1
300
 50
90.0
  7
K
 72
     1
 11
7340.436483
 21
3363.482361
 31
0.0
  0
INSERT
  8
SUNPOU
  2
ARROWANG
 10
7385.436483
 20
3513.482361
 30
0.0
 41
30.0
 42
30.0
 50
90.0
 43
30.0
  0
INSERT
  8
SUNPOU
  2
ARROWANG
 10
7385.436483
 20
3213.482361
 30
0.0
 41
30.0
 42
30.0
 50
270.0
 43
30.0
  0
LINE
  8
SUNPOU
 10
7456.95623
 20
3513.482361
 30
0.0
 11
7355.436483
 21
3513.482361
 31
0.0
  0
LINE
  8
SUNPOU
 10
7385.436483
 20
3213.482361
 30
0.0
 11
7385.436483
 21
3513.482361
 31
0.0
  0
TEXT
  8
SUNPOU
 10
7340.436483
 20
2977.768075
 30
0.0
 40
60.0
  1
300
 50
90.0
  7
K
 72
     1
 11
7340.436483
 21
3063.482361
 31
0.0
  0
INSERT
  8
SUNPOU
  2
ARROWANG
 10
7385.436483
 20
3213.482361
 30
0.0
 41
30.0
 42
30.0
 50
90.0
 43
30.0
  0
INSERT
  8
SUNPOU
  2
ARROWANG
 10
7385.436483
 20
2913.482361
 30
0.0
 41
30.0
 42
30.0
 50
270.0
 43
30.0
  0
LINE
  8
SUNPOU
 10
7385.436483
 20
2913.482361
 30
0.0
 11
7385.436483
 21
3213.482361
 31
0.0
  0
LINE
  8
SUNPOU
 10
7466.086665
 20
3213.482361
 30
0.0
 11
7355.436483
 21
3213.482361
 31
0.0
  0
LINE
  8
SUNPOU
 10
7466.086665
 20
2913.482361
 30
0.0
 11
7355.436483
 21
2913.482361
 31
0.0
  0
LINE
  8
SUNPOU
 10
7944.269794
 20
3756.756487
 30
0.0
 11
8369.050138
 21
3756.756487
 31
0.0
  0
LINE
  8
SUNPOU
 10
7677.001689
 20
3621.396663
 30
0.0
 11
7944.269794
 21
3756.756487
 31
0.0
  0
INSERT
  8
SUNPOU
  2
ARROWANG
 10
7677.001689
 20
3621.396663
 30
0.0
 41
30.0
 42
30.0
 50
206.860257
 43
30.0
  0
TEXT
  8
TEXT
 10
7976.945205
 20
4021.836143
 30
0.0
 40
60.0
  1
（ＭＲ）
  7
K
  0
LINE
  8
SUNPOU
 10
7945.107625
 20
4100.283313
 30
0.0
 11
8369.050138
 21
4100.283313
 31
0.0
  0
TEXT
  8
SUNPOU
 10
7998.728813
 20
4121.308767
 30
0.0
 40
60.0
  1
調整リング
  7
K
  0
LINE
  8
SUNPOU
 10
7674.488196
 20
4008.505251
 30
0.0
 11
7945.107625
 21
4100.283313
 31
0.0
  0
INSERT
  8
SUNPOU
  2
ARROWANG
 10
7674.488196
 20
4008.505251
 30
0.0
 41
30.0
 42
30.0
 50
198.733889
 43
30.0
  0
LINE
  8
SUNPOU
 10
7947.621119
 20
4314.090308
 30
0.0
 11
8242.537649
 21
4314.090308
 31
0.0
  0
TEXT
  8
SUNPOU
 10
7947.621119
 20
4334.090308
 30
0.0
 40
60.0
  1
モルタル
  7
K
  0
LINE
  8
SUNPOU
 10
7631.758812
 20
4081.312429
 30
0.0
 11
7947.621119
 21
4314.090308
 31
0.0
  0
INSERT
  8
SUNPOU
  2
ARROWANG
 10
7631.758812
 20
4081.312429
 30
0.0
 41
30.0
 42
30.0
 50
216.388729
 43
30.0
  0
TEXT
  8
TEXT
 10
7939.242808
 20
4500.722793
 30
0.0
 40
60.0
  1
（ＭＦ１）
  7
K
  0
LINE
  8
SUNPOU
 10
7861.32452
 20
4568.402705
 30
0.0
 11
8369.050138
 21
4568.402705
 31
0.0
  0
TEXT
  8
SUNPOU
 10
7861.32452
 20
4588.402705
 30
0.0
 40
60.0
  1
ふた及び受わく
  7
K
  0
LINE
  8
SUNPOU
 10
7531.219086
 20
4189.497743
 30
0.0
 11
7861.32452
 21
4568.402705
 31
0.0
  0
INSERT
  8
SUNPOU
  2
ARROWANG
 10
7531.219086
 20
4189.497743
 30
0.0
 41
30.0
 42
30.0
 50
228.937325
 43
30.0
  0
LINE
  8
SUNPOU
 10
6684.171892
 20
4305.886683
 30
0.0
 11
5834.611205
 21
4305.886683
 31
0.0
  0
TEXT
  8
SUNPOU
 10
5872.171892
 20
4325.886683
 30
0.0
 40
60.0
  1
調整ワッシャー（ＭＷＢ）
  7
K
 72
     2
 11
6684.171892
 21
4325.886683
 31
0.0
  0
LINE
  8
SUNPOU
 10
6946.413011
 20
4086.952422
 30
0.0
 11
6684.171892
 21
4305.886683
 31
0.0
  0
INSERT
  8
SUNPOU
  2
ARROWANG
 10
6946.413011
 20
4086.952422
 30
0.0
 41
30.0
 42
30.0
 50
320.142891
 43
30.0
  0
LINE
  8
SUNPOU
 10
2927.337454
 20
4421.250169
 30
0.0
 11
3295.145286
 21
4421.250169
 31
0.0
  0
TEXT
  8
SUNPOU
 10
2927.337454
 20
4441.250169
 30
0.0
 40
60.0
  1
ふたボルト
  7
K
  0
LINE
  8
SUNPOU
 10
2660.90718
 20
4116.177838
 30
0.0
 11
2927.337454
 21
4421.250169
 31
0.0
  0
INSERT
  8
SUNPOU
  2
ARROWANG
 10
2660.90718
 20
4116.177838
 30
0.0
 41
30.0
 42
30.0
 50
228.868157
 43
30.0
  0
LINE
  8
SUNPOU
 10
3068.930902
 20
1989.9006
 30
0.0
 11
3427.522593
 21
1989.9006
 31
0.0
  0
TEXT
  8
SUNPOU
 10
3068.930902
 20
2009.9006
 30
0.0
 40
60.0
  1
インバート
  7
K
  0
LINE
  8
SUNPOU
 10
2529.367705
 20
2250.878442
 30
0.0
 11
3068.930902
 21
1989.9006
 31
0.0
  0
INSERT
  8
SUNPOU
  2
ARROWANG
 10
2529.367705
 20
2250.878442
 30
0.0
 41
30.0
 42
30.0
 50
154.18771
 43
30.0
  0
TEXT
  8
TEXT
 10
6795.785426
 20
1883.766192
 30
0.0
 40
100.0
  1
栗石又は砕石基礎
  7
K
  0
TEXT
  8
TEXT
 10
1822.238297
 20
1881.715286
 30
0.0
 40
100.0
  1
栗石又は砕石基礎
  7
K
  0
TEXT
  8
SUNPOU
 10
2971.985377
 20
3170.466064
 30
0.0
 40
60.0
  1
マンホール深
 50
90.0
  7
K
 72
     1
 11
2971.985377
 21
3382.466064
 31
0.0
  0
INSERT
  8
SUNPOU
  2
ARROWANG
 10
3016.985377
 20
4213.482361
 30
0.0
 41
30.0
 42
30.0
 50
90.0
 43
30.0
  0
INSERT
  8
SUNPOU
  2
ARROWANG
 10
3016.985377
 20
2333.482361
 30
0.0
 41
30.0
 42
30.0
 50
270.0
 43
30.0
  0
LINE
  8
SUNPOU
 10
3016.985377
 20
2333.482361
 30
0.0
 11
3016.985377
 21
4213.482361
 31
0.0
  0
LINE
  8
SUNPOU
 10
2625.430838
 20
4213.482361
 30
0.0
 11
3046.985377
 21
4213.482361
 31
0.0
  0
LINE
  8
SUNPOU
 10
2325.430838
 20
2333.482361
 30
0.0
 11
3046.985377
 21
2333.482361
 31
0.0
  0
LINE
  8
SUNPOU
 10
1920.430838
 20
3215.055333
 30
0.0
 11
1920.430838
 21
3215.055333
 31
0.0
  0
LINE
  8
SUNPOU
 10
1845.430838
 20
3215.055333
 30
0.0
 11
1845.430838
 21
3215.055333
 31
0.0
  0
LINE
  8
SUNPOU
 10
6901.086665
 20
4143.482361
 30
0.0
 11
6901.086665
 21
4594.300893
 31
0.0
  0
LINE
  8
SUNPOU
 10
7721.086665
 20
4133.482361
 30
0.0
 11
7721.086665
 21
4594.300893
 31
0.0
  0
LINE
  8
SUNPOU
 10
6901.086665
 20
4564.300893
 30
0.0
 11
7721.086665
 21
4564.300893
 31
0.0
  0
INSERT
  8
SUNPOU
  2
ARROWANG
 10
6901.086665
 20
4564.300893
 30
0.0
 41
30.0
 42
30.0
 50
180.0
 43
30.0
  0
INSERT
  8
SUNPOU
  2
ARROWANG
 10
7721.086665
 20
4564.300893
 30
0.0
 41
30.0
 42
30.0
 43
30.0
  0
TEXT
  8
SUNPOU
 10
7225.372394
 20
4609.300893
 30
0.0
 40
60.0
  1
820
  7
K
 72
     1
 11
7311.08668
 21
4609.300893
 31
0.0
  0
LINE
  8
SUNPOU
 10
6901.086665
 20
4143.482361
 30
0.0
 11
6901.086665
 21
4423.562932
 31
0.0
  0
LINE
  8
SUNPOU
 10
7011.086665
 20
4199.418433
 30
0.0
 11
7011.086665
 21
4423.562932
 31
0.0
  0
LINE
  8
SUNPOU
 10
6901.086665
 20
4393.562932
 30
0.0
 11
7011.086665
 21
4393.562932
 31
0.0
  0
INSERT
  8
SUNPOU
  2
ARROWANG
 10
6901.086665
 20
4393.562932
 30
0.0
 41
30.0
 42
30.0
 50
180.0
 43
30.0
  0
INSERT
  8
SUNPOU
  2
ARROWANG
 10
7011.086665
 20
4393.562932
 30
0.0
 41
30.0
 42
30.0
 43
30.0
  0
TEXT
  8
SUNPOU
 10
6866.08668
 20
4438.562932
 30
0.0
 40
60.0
  1
110
  7
K
 72
     1
 11
6956.08668
 21
4438.562932
 31
0.0
  0
LINE
  8
SUNPOU
 10
7011.086665
 20
4393.562932
 30
0.0
 11
7611.086665
 21
4393.562932
 31
0.0
  0
LINE
  8
SUNPOU
 10
7611.086665
 20
4199.418433
 30
0.0
 11
7611.086665
 21
4423.562932
 31
0.0
  0
INSERT
  8
SUNPOU
  2
ARROWANG
 10
7011.086665
 20
4393.562932
 30
0.0
 41
30.0
 42
30.0
 50
180.0
 43
30.0
  0
INSERT
  8
SUNPOU
  2
ARROWANG
 10
7611.086665
 20
4393.562932
 30
0.0
 41
30.0
 42
30.0
 43
30.0
  0
TEXT
  8
SUNPOU
 10
7223.943808
 20
4438.562932
 30
0.0
 40
60.0
  1
600
  7
K
 72
     1
 11
7311.086665
 21
4438.562932
 31
0.0
  0
LINE
  8
SUNPOU
 10
7611.086665
 20
4393.562932
 30
0.0
 11
7721.086665
 21
4393.562932
 31
0.0
  0
LINE
  8
SUNPOU
 10
7721.086665
 20
4143.482361
 30
0.0
 11
7721.086665
 21
4423.562932
 31
0.0
  0
INSERT
  8
SUNPOU
  2
ARROWANG
 10
7611.086665
 20
4393.562932
 30
0.0
 41
30.0
 42
30.0
 50
180.0
 43
30.0
  0
INSERT
  8
SUNPOU
  2
ARROWANG
 10
7721.086665
 20
4393.562932
 30
0.0
 41
30.0
 42
30.0
 43
30.0
  0
TEXT
  8
SUNPOU
 10
7576.086665
 20
4438.562932
 30
0.0
 40
60.0
  1
110
  7
K
 72
     1
 11
7666.086665
 21
4438.562932
 31
0.0
  0
TEXT
  8
SUNPOU
 10
2560.430838
 20
4438.562932
 30
0.0
 40
60.0
  1
110
  7
K
 72
     1
 11
2650.430838
 21
4438.562932
 31
0.0
  0
INSERT
  8
SUNPOU
  2
ARROWANG
 10
2705.430838
 20
4393.562932
 30
0.0
 41
30.0
 42
30.0
 43
30.0
  0
INSERT
  8
SUNPOU
  2
ARROWANG
 10
2595.430838
 20
4393.562932
 30
0.0
 41
30.0
 42
30.0
 50
180.0
 43
30.0
  0
LINE
  8
SUNPOU
 10
2705.430838
 20
4143.482361
 30
0.0
 11
2705.430838
 21
4423.562932
 31
0.0
  0
LINE
  8
SUNPOU
 10
2595.430838
 20
4393.562932
 30
0.0
 11
2705.430838
 21
4393.562932
 31
0.0
  0
TEXT
  8
SUNPOU
 10
2208.28798
 20
4438.562932
 30
0.0
 40
60.0
  1
600
  7
K
 72
     1
 11
2295.430838
 21
4438.562932
 31
0.0
  0
INSERT
  8
SUNPOU
  2
ARROWANG
 10
2595.430838
 20
4393.562932
 30
0.0
 41
30.0
 42
30.0
 43
30.0
  0
INSERT
  8
SUNPOU
  2
ARROWANG
 10
1995.430838
 20
4393.562932
 30
0.0
 41
30.0
 42
30.0
 50
180.0
 43
30.0
  0
LINE
  8
SUNPOU
 10
2595.430838
 20
4199.418433
 30
0.0
 11
2595.430838
 21
4423.562932
 31
0.0
  0
LINE
  8
SUNPOU
 10
1995.430838
 20
4393.562932
 30
0.0
 11
2595.430838
 21
4393.562932
 31
0.0
  0
TEXT
  8
SUNPOU
 10
1850.430852
 20
4438.562932
 30
0.0
 40
60.0
  1
110
  7
K
 72
     1
 11
1940.430852
 21
4438.562932
 31
0.0
  0
INSERT
  8
SUNPOU
  2
ARROWANG
 10
1995.430838
 20
4393.562932
 30
0.0
 41
30.0
 42
30.0
 43
30.0
  0
INSERT
  8
SUNPOU
  2
ARROWANG
 10
1885.430838
 20
4393.562932
 30
0.0
 41
30.0
 42
30.0
 50
180.0
 43
30.0
  0
LINE
  8
SUNPOU
 10
1885.430838
 20
4393.562932
 30
0.0
 11
1995.430838
 21
4393.562932
 31
0.0
  0
LINE
  8
SUNPOU
 10
1995.430838
 20
4199.418433
 30
0.0
 11
1995.430838
 21
4423.562932
 31
0.0
  0
LINE
  8
SUNPOU
 10
1885.430838
 20
4143.482361
 30
0.0
 11
1885.430838
 21
4423.562932
 31
0.0
  0
TEXT
  8
SUNPOU
 10
2209.716567
 20
4609.300893
 30
0.0
 40
60.0
  1
820
  7
K
 72
     1
 11
2295.430852
 21
4609.300893
 31
0.0
  0
INSERT
  8
SUNPOU
  2
ARROWANG
 10
2705.430838
 20
4564.300893
 30
0.0
 41
30.0
 42
30.0
 43
30.0
  0
INSERT
  8
SUNPOU
  2
ARROWANG
 10
1885.430838
 20
4564.300893
 30
0.0
 41
30.0
 42
30.0
 50
180.0
 43
30.0
  0
LINE
  8
SUNPOU
 10
1885.430838
 20
4564.300893
 30
0.0
 11
2705.430838
 21
4564.300893
 31
0.0
  0
LINE
  8
SUNPOU
 10
2705.430838
 20
4133.482361
 30
0.0
 11
2705.430838
 21
4594.300893
 31
0.0
  0
LINE
  8
SUNPOU
 10
1885.430838
 20
4143.482361
 30
0.0
 11
1885.430838
 21
4594.300893
 31
0.0
  0
TEXT
  8
SUNPOU
 10
4636.481113
 20
4302.690382
 30
0.0
 40
60.0
  1
掘削幅
  7
K
 72
     1
 11
4737.052542
 21
4302.690382
 31
0.0
  0
POINT
  8
JISSEN
 10
4744.430838
 20
3288.637095
 30
0.0
  0
ARC
  8
JISSEN
 10
5030.430838
 20
3148.637095
 30
0.0
 40
10.0
 50
180.0
 51
270.0
  0
ARC
  8
JISSEN
 10
5050.430838
 20
3168.637095
 30
0.0
 40
10.0
 50
180.0
 51
270.0
  0
ARC
  8
JISSEN
 10
5050.430838
 20
3408.637095
 30
0.0
 40
10.0
 50
90.0
 51
180.0
  0
ARC
  8
JISSEN
 10
5030.430838
 20
3428.637095
 30
0.0
 40
10.0
 50
90.0
 51
180.0
  0
LINE
  8
JISSEN
 10
5050.430838
 20
3158.637095
 30
0.0
 11
5101.244022
 21
3158.637095
 31
0.0
  0
LINE
  8
JISSEN
 10
5040.430838
 20
3408.637095
 30
0.0
 11
5040.430838
 21
3168.637095
 31
0.0
  0
LINE
  8
JISSEN
 10
5101.244022
 20
3418.637095
 30
0.0
 11
5050.430838
 21
3418.637095
 31
0.0
  0
LINE
  8
JISSEN
 10
5030.430838
 20
3138.637095
 30
0.0
 11
5094.694906
 21
3138.637095
 31
0.0
  0
LINE
  8
JISSEN
 10
5020.430838
 20
3148.637095
 30
0.0
 11
5020.430838
 21
3428.637095
 31
0.0
  0
LINE
  8
JISSEN
 10
5094.694906
 20
3438.637095
 30
0.0
 11
5030.430838
 21
3438.637095
 31
0.0
  0
POINT
  8
JISSEN
 10
5169.361816
 20
3289.149821
 30
0.0
  0
LINE
  8
HASEN
 10
5320.430838
 20
3326.137095
 30
0.0
 11
5370.430838
 21
3301.137095
 31
0.0
  0
LINE
  8
HASEN
 10
5370.430838
 20
3301.137095
 30
0.0
 11
5270.430838
 21
3276.137095
 31
0.0
  0
LINE
  8
HASEN
 10
5270.430838
 20
3276.137095
 30
0.0
 11
5320.430838
 21
3251.137095
 31
0.0
  0
INSERT
  8
SUNPOU
  2
ARROWANG
 10
5283.192939
 20
3329.993989
 30
0.0
 41
30.0
 42
30.0
 50
359.606037
 43
30.0
  0
LINE
  8
SUNPOU
 10
5283.192939
 20
3329.993989
 30
0.0
 11
5059.492048
 21
3331.532169
 31
0.0
  0
LINE
  8
JISSEN
 10
5089.124015
 20
3438.637095
 30
0.0
 11
5320.430838
 21
3438.637095
 31
0.0
  0
LINE
  8
JISSEN
 10
5177.721249
 20
3413.637095
 30
0.0
 11
5320.430838
 21
3413.637095
 31
0.0
  0
LINE
  8
JISSEN
 10
5098.984228
 20
3163.637095
 30
0.0
 11
5320.430838
 21
3163.637095
 31
0.0
  0
LINE
  8
JISSEN
 10
5089.124015
 20
3138.637095
 30
0.0
 11
5320.430838
 21
3138.637095
 31
0.0
  0
LINE
  8
JISSEN
 10
4401.73766
 20
3138.637095
 30
0.0
 11
4170.430838
 21
3138.637095
 31
0.0
  0
LINE
  8
JISSEN
 10
4391.877447
 20
3163.637095
 30
0.0
 11
4170.430838
 21
3163.637095
 31
0.0
  0
LINE
  8
JISSEN
 10
4391.877447
 20
3413.637095
 30
0.0
 11
4170.430838
 21
3413.637095
 31
0.0
  0
LINE
  8
JISSEN
 10
4401.73766
 20
3438.637095
 30
0.0
 11
4170.430838
 21
3438.637095
 31
0.0
  0
LINE
  8
SUNPOU
 10
4410.681302
 20
3348.800069
 30
0.0
 11
4186.980411
 21
3347.261889
 31
0.0
  0
INSERT
  8
SUNPOU
  2
ARROWANG
 10
4410.681302
 20
3348.800069
 30
0.0
 41
-30.0
 42
30.0
 50
180.393963
 43
30.0
  0
LINE
  8
HASEN
 10
4220.430838
 20
3276.137095
 30
0.0
 11
4170.430838
 21
3251.137095
 31
0.0
  0
LINE
  8
HASEN
 10
4120.430838
 20
3301.137095
 30
0.0
 11
4220.430838
 21
3276.137095
 31
0.0
  0
LINE
  8
HASEN
 10
4170.430838
 20
3326.137095
 30
0.0
 11
4120.430838
 21
3301.137095
 31
0.0
  0
TEXT
  8
SUNPOU
 10
2243.793627
 20
2477.092939
 30
0.0
 40
60.0
  1
D
 50
35.249382
  7
K
 72
     1
 11
2269.4597
 21
2495.231511
 31
0.0
  0
INSERT
  8
SUNPOU
  2
ARROWANG
 10
2193.349865
 20
2386.340313
 30
0.0
 41
30.0
 42
30.0
 50
215.249382
 43
30.0
  0
INSERT
  8
SUNPOU
  2
ARROWANG
 10
2397.51181
 20
2530.624409
 30
0.0
 41
30.0
 42
30.0
 50
35.249382
 43
30.0
  0
LINE
  8
SUNPOU
 10
2397.51181
 20
2530.624409
 30
0.0
 11
2193.349865
 21
2386.340313
 31
0.0
  0
LINE
  8
ITTEN
 10
2095.430838
 20
3813.482361
 30
0.0
 11
2495.430838
 21
3813.482361
 31
0.0
  0
ARC
  8
JISSEN
 10
2155.430838
 20
3813.482361
 30
0.0
 40
10.0
 50
90.0
 51
270.0
  0
LINE
  8
JISSEN
 10
2155.430838
 20
3823.482361
 30
0.0
 11
2295.430838
 21
3823.482361
 31
0.0
  0
LINE
  8
JISSEN
 10
2155.430838
 20
3803.482361
 30
0.0
 11
2295.430838
 21
3803.482361
 31
0.0
  0
LINE
  8
JISSEN
 10
2435.430838
 20
3823.482361
 30
0.0
 11
2295.430838
 21
3823.482361
 31
0.0
  0
LINE
  8
JISSEN
 10
2435.430838
 20
3803.482361
 30
0.0
 11
2295.430838
 21
3803.482361
 31
0.0
  0
ARC
  8
JISSEN
 10
2435.430838
 20
3813.482361
 30
0.0
 40
10.0
 50
270.0
 51
90.0
  0
LINE
  8
ITTEN
 10
2095.430838
 20
3513.482361
 30
0.0
 11
2495.430838
 21
3513.482361
 31
0.0
  0
ARC
  8
JISSEN
 10
2155.430838
 20
3513.482361
 30
0.0
 40
10.0
 50
90.0
 51
270.0
  0
LINE
  8
JISSEN
 10
2155.430838
 20
3523.482361
 30
0.0
 11
2295.430838
 21
3523.482361
 31
0.0
  0
LINE
  8
JISSEN
 10
2155.430838
 20
3503.482361
 30
0.0
 11
2295.430838
 21
3503.482361
 31
0.0
  0
LINE
  8
JISSEN
 10
2435.430838
 20
3523.482361
 30
0.0
 11
2295.430838
 21
3523.482361
 31
0.0
  0
LINE
  8
JISSEN
 10
2435.430838
 20
3503.482361
 30
0.0
 11
2295.430838
 21
3503.482361
 31
0.0
  0
ARC
  8
JISSEN
 10
2435.430838
 20
3513.482361
 30
0.0
 40
10.0
 50
270.0
 51
90.0
  0
LINE
  8
JISSEN
 10
2745.430838
 20
3378.482361
 30
0.0
 11
2745.430838
 21
3438.482361
 31
0.0
  0
LINE
  8
ITTEN
 10
2095.430838
 20
2913.482361
 30
0.0
 11
2495.430838
 21
2913.482361
 31
0.0
  0
ARC
  8
JISSEN
 10
2155.430838
 20
2913.482361
 30
0.0
 40
10.0
 50
90.0
 51
270.0
  0
LINE
  8
JISSEN
 10
2155.430838
 20
2923.482361
 30
0.0
 11
2295.430838
 21
2923.482361
 31
0.0
  0
LINE
  8
JISSEN
 10
2155.430838
 20
2903.482361
 30
0.0
 11
2295.430838
 21
2903.482361
 31
0.0
  0
LINE
  8
JISSEN
 10
2435.430838
 20
2923.482361
 30
0.0
 11
2295.430838
 21
2923.482361
 31
0.0
  0
LINE
  8
JISSEN
 10
2435.430838
 20
2903.482361
 30
0.0
 11
2295.430838
 21
2903.482361
 31
0.0
  0
ARC
  8
JISSEN
 10
2435.430838
 20
2913.482361
 30
0.0
 40
10.0
 50
270.0
 51
90.0
  0
LINE
  8
JISSEN
 10
1845.430838
 20
2490.982361
 30
0.0
 11
1845.430838
 21
2408.482361
 31
0.0
  0
LINE
  8
JISSEN
 10
2745.430838
 20
2490.982361
 30
0.0
 11
2745.430838
 21
2358.482361
 31
0.0
  0
ARC
  8
SAISEN
 10
2295.430838
 20
2458.482361
 30
0.0
 40
125.0
 50
180.0
 51
360.0
  0
ARC
  8
JISSEN
 10
2295.430838
 20
2458.482361
 30
0.0
 40
153.025619
 50
1.048433
 51
178.951567
  0
LINE
  8
JISSEN
 10
2170.430838
 20
2458.482361
 30
0.0
 11
1920.430838
 21
2483.482361
 31
0.0
  0
LINE
  8
JISSEN
 10
2420.430838
 20
2458.482361
 30
0.0
 11
2670.430838
 21
2483.482361
 31
0.0
  0
CIRCLE
  8
JISSEN
 10
2295.430838
 20
2458.482361
 30
0.0
 40
125.0
  0
LINE
  8
JISSEN
 10
2670.430838
 20
3355.482361
 30
0.0
 11
2670.430838
 21
3055.482361
 31
0.0
  0
LINE
  8
JISSEN
 10
2698.430838
 20
3355.482361
 30
0.0
 11
2295.430838
 21
3355.482361
 31
0.0
  0
LINE
  8
JISSEN
 10
2705.430838
 20
3378.482361
 30
0.0
 11
2698.430838
 21
3355.482361
 31
0.0
  0
LINE
  8
JISSEN
 10
1892.430838
 20
3355.482361
 30
0.0
 11
2295.430838
 21
3355.482361
 31
0.0
  0
LINE
  8
JISSEN
 10
1885.430838
 20
3378.482361
 30
0.0
 11
1892.430838
 21
3355.482361
 31
0.0
  0
LINE
  8
JISSEN
 10
1920.430838
 20
3355.482361
 30
0.0
 11
1920.430838
 21
3055.482361
 31
0.0
  0
LINE
  8
JISSEN
 10
1845.430838
 20
3378.482361
 30
0.0
 11
1845.430838
 21
3078.482361
 31
0.0
  0
LINE
  8
JISSEN
 10
2745.430838
 20
3378.482361
 30
0.0
 11
2745.430838
 21
3078.482361
 31
0.0
  0
LINE
  8
JISSEN
 10
1820.430838
 20
2033.482361
 30
0.0
 11
1820.430838
 21
2178.482361
 31
0.0
  0
LINE
  8
JISSEN
 10
1820.430838
 20
2178.482361
 30
0.0
 11
1820.430838
 21
2178.482361
 31
0.0
  0
LINE
  8
JISSEN
 10
2770.430838
 20
2178.482361
 30
0.0
 11
2770.430838
 21
2033.482361
 31
0.0
  0
LINE
  8
JISSEN
 10
2770.430838
 20
2033.482361
 30
0.0
 11
2470.430838
 21
2033.482361
 31
0.0
  0
LINE
  8
JISSEN
 10
2120.430838
 20
2163.482361
 30
0.0
 11
2120.430838
 21
2033.482361
 31
0.0
  0
LINE
  8
JISSEN
 10
2470.430838
 20
2163.482361
 30
0.0
 11
2470.430838
 21
2033.482361
 31
0.0
  0
LINE
  8
JISSEN
 10
2670.430838
 20
3055.482361
 30
0.0
 11
2670.430838
 21
2483.482361
 31
0.0
  0
LINE
  8
JISSEN
 10
2704.430838
 20
2178.482361
 30
0.0
 11
2695.430838
 21
2163.482361
 31
0.0
  0
LINE
  8
JISSEN
 10
2770.430838
 20
2178.482361
 30
0.0
 11
2704.430838
 21
2178.482361
 31
0.0
  0
LINE
  8
JISSEN
 10
1886.430838
 20
2178.482361
 30
0.0
 11
1895.430838
 21
2163.482361
 31
0.0
  0
LINE
  8
JISSEN
 10
1820.430838
 20
2178.482361
 30
0.0
 11
1886.430838
 21
2178.482361
 31
0.0
  0
LINE
  8
JISSEN
 10
2698.430838
 20
3055.482361
 30
0.0
 11
2295.430838
 21
3055.482361
 31
0.0
  0
LINE
  8
JISSEN
 10
2705.430838
 20
3078.482361
 30
0.0
 11
2698.430838
 21
3055.482361
 31
0.0
  0
LINE
  8
JISSEN
 10
1892.430838
 20
3055.482361
 30
0.0
 11
2295.430838
 21
3055.482361
 31
0.0
  0
LINE
  8
JISSEN
 10
1885.430838
 20
3078.482361
 30
0.0
 11
1892.430838
 21
3055.482361
 31
0.0
  0
LINE
  8
JISSEN
 10
1920.430838
 20
3055.482361
 30
0.0
 11
1920.430838
 21
2483.482361
 31
0.0
  0
LINE
  8
JISSEN
 10
1845.430838
 20
3078.482361
 30
0.0
 11
1845.430838
 21
2178.482361
 31
0.0
  0
LINE
  8
JISSEN
 10
2745.430838
 20
3078.482361
 30
0.0
 11
2745.430838
 21
2178.482361
 31
0.0
  0
LINE
  8
JISSEN
 10
1845.430838
 20
3378.482361
 30
0.0
 11
1845.430838
 21
3438.482361
 31
0.0
  0
LINE
  8
JISSEN
 10
2595.430838
 20
3958.482361
 30
0.0
 11
2595.430838
 21
3938.482361
 31
0.0
  0
LINE
  8
JISSEN
 10
1995.430838
 20
3958.482361
 30
0.0
 11
1995.430838
 21
3938.482361
 31
0.0
  0
LINE
  8
JISSEN
 10
2627.430838
 20
3973.482361
 30
0.0
 11
2621.430838
 21
3958.482361
 31
0.0
  0
LINE
  8
JISSEN
 10
2621.430838
 20
3958.482361
 30
0.0
 11
2295.430838
 21
3958.482361
 31
0.0
  0
LINE
  8
JISSEN
 10
1963.430838
 20
3973.482361
 30
0.0
 11
1969.430838
 21
3958.482361
 31
0.0
  0
LINE
  8
JISSEN
 10
1969.430838
 20
3958.482361
 30
0.0
 11
2295.430838
 21
3958.482361
 31
0.0
  0
LINE
  8
JISSEN
 10
1885.430838
 20
3078.482361
 30
0.0
 11
1845.430838
 21
3078.482361
 31
0.0
  0
LINE
  8
JISSEN
 10
2705.430838
 20
3078.482361
 30
0.0
 11
2745.430838
 21
3078.482361
 31
0.0
  0
LINE
  8
JISSEN
 10
1885.430838
 20
3378.482361
 30
0.0
 11
1845.430838
 21
3378.482361
 31
0.0
  0
LINE
  8
JISSEN
 10
1920.430838
 20
3355.482361
 30
0.0
 11
1920.430838
 21
3363.482361
 31
0.0
  0
LINE
  8
JISSEN
 10
2705.430838
 20
3378.482361
 30
0.0
 11
2745.430838
 21
3378.482361
 31
0.0
  0
LINE
  8
JISSEN
 10
2670.430838
 20
3363.482361
 30
0.0
 11
2670.430838
 21
3355.482361
 31
0.0
  0
LINE
  8
JISSEN
 10
2705.430838
 20
4073.482361
 30
0.0
 11
2705.430838
 21
3973.482361
 31
0.0
  0
LINE
  8
JISSEN
 10
1885.430838
 20
4073.482361
 30
0.0
 11
1885.430838
 21
3973.482361
 31
0.0
  0
LINE
  8
JISSEN
 10
2705.430838
 20
3973.482361
 30
0.0
 11
2627.430838
 21
3973.482361
 31
0.0
  0
LINE
  8
JISSEN
 10
1963.430838
 20
4073.482361
 30
0.0
 11
1969.430838
 21
4058.482361
 31
0.0
  0
LINE
  8
JISSEN
 10
1969.430838
 20
4058.482361
 30
0.0
 11
2295.430838
 21
4058.482361
 31
0.0
  0
LINE
  8
JISSEN
 10
2627.430838
 20
4073.482361
 30
0.0
 11
2621.430838
 21
4058.482361
 31
0.0
  0
LINE
  8
JISSEN
 10
2621.430838
 20
4058.482361
 30
0.0
 11
2295.430838
 21
4058.482361
 31
0.0
  0
LINE
  8
JISSEN
 10
1995.430838
 20
4058.482361
 30
0.0
 11
1995.430838
 21
3958.482361
 31
0.0
  0
LINE
  8
JISSEN
 10
2595.430838
 20
4058.482361
 30
0.0
 11
2595.430838
 21
3958.482361
 31
0.0
  0
LINE
  8
JISSEN
 10
1963.430838
 20
3973.482361
 30
0.0
 11
1885.430838
 21
3973.482361
 31
0.0
  0
LINE
  8
JISSEN
 10
1885.430838
 20
4073.482361
 30
0.0
 11
1963.430838
 21
4073.482361
 31
0.0
  0
LINE
  8
JISSEN
 10
2627.430838
 20
4073.482361
 30
0.0
 11
2705.430838
 21
4073.482361
 31
0.0
  0
LINE
  8
JISSEN
 10
1995.430838
 20
4103.482361
 30
0.0
 11
1995.430838
 21
4058.482361
 31
0.0
  0
LINE
  8
JISSEN
 10
1885.430838
 20
4073.482361
 30
0.0
 11
1885.430838
 21
4103.482361
 31
0.0
  0
LINE
  8
JISSEN
 10
1885.430838
 20
4103.482361
 30
0.0
 11
2295.430838
 21
4103.482361
 31
0.0
  0
LINE
  8
JISSEN
 10
1885.430838
 20
4103.482361
 30
0.0
 11
1885.430838
 21
4113.482361
 31
0.0
  0
LINE
  8
JISSEN
 10
1885.430838
 20
4113.482361
 30
0.0
 11
1937.948716
 21
4113.482361
 31
0.0
  0
LINE
  8
JISSEN
 10
1937.948716
 20
4113.482361
 30
0.0
 11
1985.430838
 21
4113.482361
 31
0.0
  0
LINE
  8
JISSEN
 10
1985.430838
 20
4113.482361
 30
0.0
 11
1985.430838
 21
4159.418433
 31
0.0
  0
LINE
  8
JISSEN
 10
1985.430838
 20
4159.418433
 30
0.0
 11
1947.948716
 21
4159.418433
 31
0.0
  0
LINE
  8
JISSEN
 10
1947.948716
 20
4159.418433
 30
0.0
 11
1937.948716
 21
4213.482361
 31
0.0
  0
LINE
  8
JISSEN
 10
1937.948716
 20
4213.482361
 30
0.0
 11
1885.430838
 21
4113.482361
 31
0.0
  0
LINE
  8
JISSEN
 10
1937.948716
 20
4213.482361
 30
0.0
 11
2295.430838
 21
4213.482361
 31
0.0
  0
LINE
  8
JISSEN
 10
1947.948716
 20
4213.482361
 30
0.0
 11
1957.948716
 21
4169.418433
 31
0.0
  0
LINE
  8
JISSEN
 10
1957.948716
 20
4169.418433
 30
0.0
 11
1995.430838
 21
4169.418433
 31
0.0
  0
LINE
  8
JISSEN
 10
1995.430838
 20
4169.418433
 30
0.0
 11
1995.430838
 21
4103.482361
 31
0.0
  0
LINE
  8
JISSEN
 10
1995.430838
 20
4169.418433
 30
0.0
 11
2295.430838
 21
4169.418433
 31
0.0
  0
LINE
  8
JISSEN
 10
2652.912959
 20
4213.482361
 30
0.0
 11
2295.430838
 21
4213.482361
 31
0.0
  0
LINE
  8
JISSEN
 10
2642.912959
 20
4213.482361
 30
0.0
 11
2632.912959
 21
4169.418433
 31
0.0
  0
LINE
  8
JISSEN
 10
2642.912959
 20
4159.418433
 30
0.0
 11
2652.912959
 21
4213.482361
 31
0.0
  0
LINE
  8
JISSEN
 10
2652.912959
 20
4213.482361
 30
0.0
 11
2705.430838
 21
4113.482361
 31
0.0
  0
LINE
  8
JISSEN
 10
2632.912959
 20
4169.418433
 30
0.0
 11
2595.430838
 21
4169.418433
 31
0.0
  0
LINE
  8
JISSEN
 10
2605.430838
 20
4159.418433
 30
0.0
 11
2642.912959
 21
4159.418433
 31
0.0
  0
LINE
  8
JISSEN
 10
2595.430838
 20
4169.418433
 30
0.0
 11
2595.430838
 21
4103.482361
 31
0.0
  0
LINE
  8
JISSEN
 10
2605.430838
 20
4113.482361
 30
0.0
 11
2605.430838
 21
4159.418433
 31
0.0
  0
LINE
  8
JISSEN
 10
2652.912959
 20
4113.482361
 30
0.0
 11
2605.430838
 21
4113.482361
 31
0.0
  0
LINE
  8
JISSEN
 10
2705.430838
 20
4113.482361
 30
0.0
 11
2652.912959
 21
4113.482361
 31
0.0
  0
LINE
  8
JISSEN
 10
2705.430838
 20
4103.482361
 30
0.0
 11
2705.430838
 21
4113.482361
 31
0.0
  0
LINE
  8
JISSEN
 10
2595.430838
 20
4169.418433
 30
0.0
 11
2295.430838
 21
4169.418433
 31
0.0
  0
LINE
  8
JISSEN
 10
2705.430838
 20
4103.482361
 30
0.0
 11
2295.430838
 21
4103.482361
 31
0.0
  0
LINE
  8
JISSEN
 10
2595.430838
 20
4103.482361
 30
0.0
 11
2595.430838
 21
4058.482361
 31
0.0
  0
LINE
  8
JISSEN
 10
2705.430838
 20
4073.482361
 30
0.0
 11
2705.430838
 21
4103.482361
 31
0.0
  0
LINE
  8
JISSEN
 10
1895.430838
 20
2163.482361
 30
0.0
 11
1920.430838
 21
2163.482361
 31
0.0
  0
LINE
  8
JISSEN
 10
2470.430838
 20
2163.482361
 30
0.0
 11
2670.430838
 21
2163.482361
 31
0.0
  0
LINE
  8
JISSEN
 10
2470.430838
 20
2033.482361
 30
0.0
 11
2295.430838
 21
2033.482361
 31
0.0
  0
LINE
  8
JISSEN
 10
2120.430838
 20
2033.482361
 30
0.0
 11
1820.430838
 21
2033.482361
 31
0.0
  0
LINE
  8
JISSEN
 10
2670.430838
 20
2163.482361
 30
0.0
 11
2695.430838
 21
2163.482361
 31
0.0
  0
LINE
  8
JISSEN
 10
1920.430838
 20
2163.482361
 30
0.0
 11
2120.430838
 21
2163.482361
 31
0.0
  0
LINE
  8
JISSEN
 10
1820.430838
 20
2033.482361
 30
0.0
 11
1820.430838
 21
1833.482361
 31
0.0
  0
LINE
  8
JISSEN
 10
2770.430838
 20
2033.482361
 30
0.0
 11
2770.430838
 21
1833.482361
 31
0.0
  0
LINE
  8
JISSEN
 10
1820.430838
 20
1833.482361
 30
0.0
 11
2295.430838
 21
1833.482361
 31
0.0
  0
POLYLINE
  8
HATCH
 66
     1
 10
0.0
 20
0.0
 30
0.0
  0
VERTEX
  8
HATCH
 10
1859.099736
 20
1833.518984
 30
0.0
  0
VERTEX
  8
HATCH
 10
1833.964805
 20
1851.977142
 30
0.0
  0
VERTEX
  8
HATCH
 10
1824.748663
 20
1876.588019
 30
0.0
  0
VERTEX
  8
HATCH
 10
1821.397339
 20
1928.373407
 30
0.0
  0
VERTEX
  8
HATCH
 10
1828.937819
 20
1973.493348
 30
0.0
  0
VERTEX
  8
HATCH
 10
1844.018777
 20
2008.358757
 30
0.0
  0
VERTEX
  8
HATCH
 10
1858.261905
 20
2030.918728
 30
0.0
  0
VERTEX
  8
HATCH
 10
1908.531769
 20
2027.842368
 30
0.0
  0
VERTEX
  8
HATCH
 10
1933.6667
 20
2010.92239
 30
0.0
  0
VERTEX
  8
HATCH
 10
1941.20718
 20
1995.540592
 30
0.0
  0
VERTEX
  8
HATCH
 10
1943.720673
 20
1963.751543
 30
0.0
  0
VERTEX
  8
HATCH
 10
1944.558504
 20
1932.47522
 30
0.0
  0
VERTEX
  8
HATCH
 10
1943.720673
 20
1885.304372
 30
0.0
  0
VERTEX
  8
HATCH
 10
1926.964052
 20
1860.180768
 30
0.0
  0
VERTEX
  8
HATCH
 10
1906.018275
 20
1840.697157
 30
0.0
  0
VERTEX
  8
HATCH
 10
1859.937567
 20
1832.493531
 30
0.0
  0
SEQEND
  8
HATCH
  0
POLYLINE
  8
HATCH
 66
     1
 10
0.0
 20
0.0
 30
0.0
  0
VERTEX
  8
HATCH
 10
1983.098732
 20
1831.980805
 30
0.0
  0
VERTEX
  8
HATCH
 10
1957.963801
 20
1850.438963
 30
0.0
  0
VERTEX
  8
HATCH
 10
1948.747659
 20
1875.04984
 30
0.0
  0
VERTEX
  8
HATCH
 10
1945.396335
 20
1926.835227
 30
0.0
  0
VERTEX
  8
HATCH
 10
1952.936814
 20
1971.955168
 30
0.0
  0
VERTEX
  8
HATCH
 10
1968.017773
 20
2006.820578
 30
0.0
  0
VERTEX
  8
HATCH
 10
1982.260901
 20
2029.380548
 30
0.0
  0
VERTEX
  8
HATCH
 10
2032.530764
 20
2026.304189
 30
0.0
  0
VERTEX
  8
HATCH
 10
2057.665696
 20
2009.384211
 30
0.0
  0
VERTEX
  8
HATCH
 10
2065.206175
 20
1994.002412
 30
0.0
  0
VERTEX
  8
HATCH
 10
2067.719668
 20
1962.213363
 30
0.0
  0
VERTEX
  8
HATCH
 10
2068.557499
 20
1930.93704
 30
0.0
  0
VERTEX
  8
HATCH
 10
2067.719668
 20
1883.766192
 30
0.0
  0
VERTEX
  8
HATCH
 10
2050.963047
 20
1858.642588
 30
0.0
  0
VERTEX
  8
HATCH
 10
2030.017271
 20
1839.158977
 30
0.0
  0
VERTEX
  8
HATCH
 10
1983.936563
 20
1830.955351
 30
0.0
  0
SEQEND
  8
HATCH
  0
POLYLINE
  8
HATCH
 66
     1
 10
0.0
 20
0.0
 30
0.0
  0
VERTEX
  8
HATCH
 10
2106.259897
 20
1832.493531
 30
0.0
  0
VERTEX
  8
HATCH
 10
2081.124965
 20
1850.951689
 30
0.0
  0
VERTEX
  8
HATCH
 10
2071.908824
 20
1875.562566
 30
0.0
  0
VERTEX
  8
HATCH
 10
2068.557499
 20
1927.347954
 30
0.0
  0
VERTEX
  8
HATCH
 10
2076.097979
 20
1972.467895
 30
0.0
  0
VERTEX
  8
HATCH
 10
2091.178938
 20
2007.333304
 30
0.0
  0
VERTEX
  8
HATCH
 10
2105.422066
 20
2029.893275
 30
0.0
  0
VERTEX
  8
HATCH
 10
2155.691929
 20
2026.816915
 30
0.0
  0
VERTEX
  8
HATCH
 10
2180.82686
 20
2009.896937
 30
0.0
  0
VERTEX
  8
HATCH
 10
2188.36734
 20
1994.515139
 30
0.0
  0
VERTEX
  8
HATCH
 10
2190.880833
 20
1962.726089
 30
0.0
  0
VERTEX
  8
HATCH
 10
2191.718664
 20
1931.449766
 30
0.0
  0
VERTEX
  8
HATCH
 10
2190.880833
 20
1884.278919
 30
0.0
  0
VERTEX
  8
HATCH
 10
2174.124212
 20
1859.155315
 30
0.0
  0
VERTEX
  8
HATCH
 10
2153.178436
 20
1839.671704
 30
0.0
  0
VERTEX
  8
HATCH
 10
2107.097728
 20
1831.468078
 30
0.0
  0
SEQEND
  8
HATCH
  0
POLYLINE
  8
HATCH
 66
     1
 10
0.0
 20
0.0
 30
0.0
  0
VERTEX
  8
HATCH
 10
1945.396335
 20
1833.518984
 30
0.0
  0
VERTEX
  8
HATCH
 10
1932.828869
 20
1833.518984
 30
0.0
  0
VERTEX
  8
HATCH
 10
1916.910079
 20
1843.26079
 30
0.0
  0
VERTEX
  8
HATCH
 10
1927.801883
 20
1857.617135
 30
0.0
  0
VERTEX
  8
HATCH
 10
1940.369348
 20
1866.846214
 30
0.0
  0
VERTEX
  8
HATCH
 10
1948.747659
 20
1859.155315
 30
0.0
  0
VERTEX
  8
HATCH
 10
1955.450307
 20
1854.540775
 30
0.0
  0
VERTEX
  8
HATCH
 10
1952.936814
 20
1843.26079
 30
0.0
  0
VERTEX
  8
HATCH
 10
1946.234166
 20
1836.082618
 30
0.0
  0
SEQEND
  8
HATCH
  0
POLYLINE
  8
HATCH
 66
     1
 10
0.0
 20
0.0
 30
0.0
  0
VERTEX
  8
HATCH
 10
1953.774645
 20
1991.438779
 30
0.0
  0
VERTEX
  8
HATCH
 10
1941.20718
 20
1998.616952
 30
0.0
  0
VERTEX
  8
HATCH
 10
1933.6667
 20
2015.024203
 30
0.0
  0
VERTEX
  8
HATCH
 10
1933.6667
 20
2026.816915
 30
0.0
  0
VERTEX
  8
HATCH
 10
1943.720673
 20
2030.406002
 30
0.0
  0
VERTEX
  8
HATCH
 10
1962.990787
 20
2025.278735
 30
0.0
  0
VERTEX
  8
HATCH
 10
1975.558253
 20
2019.638743
 30
0.0
  0
VERTEX
  8
HATCH
 10
1968.017773
 20
2008.358757
 30
0.0
  0
VERTEX
  8
HATCH
 10
1957.963801
 20
1997.591499
 30
0.0
  0
VERTEX
  8
HATCH
 10
1952.936814
 20
1991.951506
 30
0.0
  0
SEQEND
  8
HATCH
  0
POLYLINE
  8
HATCH
 66
     1
 10
0.0
 20
0.0
 30
0.0
  0
VERTEX
  8
HATCH
 10
1829.77565
 20
1987.336967
 30
0.0
  0
VERTEX
  8
HATCH
 10
1825.586494
 20
1998.616952
 30
0.0
  0
VERTEX
  8
HATCH
 10
1820.559508
 20
2013.99875
 30
0.0
  0
VERTEX
  8
HATCH
 10
1828.937819
 20
2030.918728
 30
0.0
  0
VERTEX
  8
HATCH
 10
1838.991791
 20
2030.918728
 30
0.0
  0
VERTEX
  8
HATCH
 10
1850.721426
 20
2024.766009
 30
0.0
  0
VERTEX
  8
HATCH
 10
1849.045764
 20
2020.664196
 30
0.0
  0
VERTEX
  8
HATCH
 10
1841.505284
 20
2003.744218
 30
0.0
  0
VERTEX
  8
HATCH
 10
1834.802636
 20
1991.438779
 30
0.0
  0
VERTEX
  8
HATCH
 10
1829.77565
 20
1987.336967
 30
0.0
  0
SEQEND
  8
HATCH
  0
POLYLINE
  8
HATCH
 66
     1
 10
0.0
 20
0.0
 30
0.0
  0
VERTEX
  8
HATCH
 10
2069.395331
 20
1991.438779
 30
0.0
  0
VERTEX
  8
HATCH
 10
2055.152203
 20
2012.46057
 30
0.0
  0
VERTEX
  8
HATCH
 10
2054.314372
 20
2020.664196
 30
0.0
  0
VERTEX
  8
HATCH
 10
2061.854851
 20
2030.918728
 30
0.0
  0
VERTEX
  8
HATCH
 10
2074.422317
 20
2029.380548
 30
0.0
  0
VERTEX
  8
HATCH
 10
2083.638458
 20
2025.278735
 30
0.0
  0
VERTEX
  8
HATCH
 10
2092.016769
 20
2019.126016
 30
0.0
  0
VERTEX
  8
HATCH
 10
2092.016769
 20
2010.92239
 30
0.0
  0
VERTEX
  8
HATCH
 10
2086.151952
 20
2001.693312
 30
0.0
  0
VERTEX
  8
HATCH
 10
2080.287134
 20
1994.515139
 30
0.0
  0
VERTEX
  8
HATCH
 10
2073.584486
 20
1990.413326
 30
0.0
  0
SEQEND
  8
HATCH
  0
POLYLINE
  8
HATCH
 66
     1
 10
0.0
 20
0.0
 30
0.0
  0
VERTEX
  8
HATCH
 10
2068.557499
 20
1832.493531
 30
0.0
  0
VERTEX
  8
HATCH
 10
2053.476541
 20
1835.057164
 30
0.0
  0
VERTEX
  8
HATCH
 10
2045.09823
 20
1848.900783
 30
0.0
  0
VERTEX
  8
HATCH
 10
2055.990034
 20
1858.642588
 30
0.0
  0
VERTEX
  8
HATCH
 10
2068.557499
 20
1867.358941
 30
0.0
  0
VERTEX
  8
HATCH
 10
2076.93581
 20
1858.642588
 30
0.0
  0
VERTEX
  8
HATCH
 10
2078.611472
 20
1853.002596
 30
0.0
  0
VERTEX
  8
HATCH
 10
2077.773641
 20
1842.235337
 30
0.0
  0
VERTEX
  8
HATCH
 10
2071.070993
 20
1832.493531
 30
0.0
  0
SEQEND
  8
HATCH
  0
POLYLINE
  8
HATCH
 66
     1
 10
0.0
 20
0.0
 30
0.0
  0
VERTEX
  8
HATCH
 10
1848.207933
 20
1833.518984
 30
0.0
  0
VERTEX
  8
HATCH
 10
1821.397339
 20
1833.518984
 30
0.0
  0
VERTEX
  8
HATCH
 10
1820.559508
 20
1843.26079
 30
0.0
  0
VERTEX
  8
HATCH
 10
1828.937819
 20
1857.104408
 30
0.0
  0
VERTEX
  8
HATCH
 10
1833.964805
 20
1850.438963
 30
0.0
  0
VERTEX
  8
HATCH
 10
1845.69444
 20
1839.158977
 30
0.0
  0
VERTEX
  8
HATCH
 10
1845.69444
 20
1833.518984
 30
0.0
  0
SEQEND
  8
HATCH
  0
POLYLINE
  8
HATCH
 66
     1
 10
0.0
 20
0.0
 30
0.0
  0
VERTEX
  8
HATCH
 10
2731.761939
 20
1833.518984
 30
0.0
  0
VERTEX
  8
HATCH
 10
2756.89687
 20
1851.977142
 30
0.0
  0
VERTEX
  8
HATCH
 10
2766.113012
 20
1876.588019
 30
0.0
  0
VERTEX
  8
HATCH
 10
2769.464336
 20
1928.373407
 30
0.0
  0
VERTEX
  8
HATCH
 10
2761.923856
 20
1973.493348
 30
0.0
  0
VERTEX
  8
HATCH
 10
2746.842898
 20
2008.358757
 30
0.0
  0
VERTEX
  8
HATCH
 10
2732.59977
 20
2030.918728
 30
0.0
  0
VERTEX
  8
HATCH
 10
2682.329907
 20
2027.842368
 30
0.0
  0
VERTEX
  8
HATCH
 10
2657.194975
 20
2010.92239
 30
0.0
  0
VERTEX
  8
HATCH
 10
2649.654495
 20
1995.540592
 30
0.0
  0
VERTEX
  8
HATCH
 10
2647.141002
 20
1963.751543
 30
0.0
  0
VERTEX
  8
HATCH
 10
2646.303171
 20
1932.47522
 30
0.0
  0
VERTEX
  8
HATCH
 10
2647.141002
 20
1885.304372
 30
0.0
  0
VERTEX
  8
HATCH
 10
2663.897623
 20
1860.180768
 30
0.0
  0
VERTEX
  8
HATCH
 10
2684.8434
 20
1840.697157
 30
0.0
  0
VERTEX
  8
HATCH
 10
2730.924108
 20
1832.493531
 30
0.0
  0
SEQEND
  8
HATCH
  0
POLYLINE
  8
HATCH
 66
     1
 10
0.0
 20
0.0
 30
0.0
  0
VERTEX
  8
HATCH
 10
2607.762943
 20
1831.980805
 30
0.0
  0
VERTEX
  8
HATCH
 10
2632.897874
 20
1850.438963
 30
0.0
  0
VERTEX
  8
HATCH
 10
2642.114016
 20
1875.04984
 30
0.0
  0
VERTEX
  8
HATCH
 10
2645.46534
 20
1926.835227
 30
0.0
  0
VERTEX
  8
HATCH
 10
2637.924861
 20
1971.955168
 30
0.0
  0
VERTEX
  8
HATCH
 10
2622.843902
 20
2006.820578
 30
0.0
  0
VERTEX
  8
HATCH
 10
2608.600774
 20
2029.380548
 30
0.0
  0
VERTEX
  8
HATCH
 10
2558.330911
 20
2026.304189
 30
0.0
  0
VERTEX
  8
HATCH
 10
2533.195979
 20
2009.384211
 30
0.0
  0
VERTEX
  8
HATCH
 10
2525.6555
 20
1994.002412
 30
0.0
  0
VERTEX
  8
HATCH
 10
2523.142007
 20
1962.213363
 30
0.0
  0
VERTEX
  8
HATCH
 10
2522.304176
 20
1930.93704
 30
0.0
  0
VERTEX
  8
HATCH
 10
2523.142007
 20
1883.766192
 30
0.0
  0
VERTEX
  8
HATCH
 10
2539.898628
 20
1858.642588
 30
0.0
  0
VERTEX
  8
HATCH
 10
2560.844404
 20
1839.158977
 30
0.0
  0
VERTEX
  8
HATCH
 10
2606.925112
 20
1830.955351
 30
0.0
  0
SEQEND
  8
HATCH
  0
POLYLINE
  8
HATCH
 66
     1
 10
0.0
 20
0.0
 30
0.0
  0
VERTEX
  8
HATCH
 10
2484.601778
 20
1832.493531
 30
0.0
  0
VERTEX
  8
HATCH
 10
2509.73671
 20
1850.951689
 30
0.0
  0
VERTEX
  8
HATCH
 10
2518.952851
 20
1875.562566
 30
0.0
  0
VERTEX
  8
HATCH
 10
2522.304176
 20
1927.347954
 30
0.0
  0
VERTEX
  8
HATCH
 10
2514.763696
 20
1972.467895
 30
0.0
  0
VERTEX
  8
HATCH
 10
2499.682737
 20
2007.333304
 30
0.0
  0
VERTEX
  8
HATCH
 10
2485.439609
 20
2029.893275
 30
0.0
  0
VERTEX
  8
HATCH
 10
2435.169746
 20
2026.816915
 30
0.0
  0
VERTEX
  8
HATCH
 10
2410.034815
 20
2009.896937
 30
0.0
  0
VERTEX
  8
HATCH
 10
2402.494335
 20
1994.515139
 30
0.0
  0
VERTEX
  8
HATCH
 10
2399.980842
 20
1962.726089
 30
0.0
  0
VERTEX
  8
HATCH
 10
2399.143011
 20
1931.449766
 30
0.0
  0
VERTEX
  8
HATCH
 10
2399.980842
 20
1884.278919
 30
0.0
  0
VERTEX
  8
HATCH
 10
2416.737463
 20
1859.155315
 30
0.0
  0
VERTEX
  8
HATCH
 10
2437.683239
 20
1839.671704
 30
0.0
  0
VERTEX
  8
HATCH
 10
2483.763947
 20
1831.468078
 30
0.0
  0
SEQEND
  8
HATCH
  0
POLYLINE
  8
HATCH
 66
     1
 10
0.0
 20
0.0
 30
0.0
  0
VERTEX
  8
HATCH
 10
2521.466345
 20
1991.438779
 30
0.0
  0
VERTEX
  8
HATCH
 10
2535.709472
 20
2012.46057
 30
0.0
  0
VERTEX
  8
HATCH
 10
2536.547303
 20
2020.664196
 30
0.0
  0
VERTEX
  8
HATCH
 10
2529.006824
 20
2030.918728
 30
0.0
  0
VERTEX
  8
HATCH
 10
2516.439358
 20
2029.380548
 30
0.0
  0
VERTEX
  8
HATCH
 10
2507.223217
 20
2025.278735
 30
0.0
  0
VERTEX
  8
HATCH
 10
2498.844906
 20
2019.126016
 30
0.0
  0
VERTEX
  8
HATCH
 10
2498.844906
 20
2010.92239
 30
0.0
  0
VERTEX
  8
HATCH
 10
2504.709723
 20
2001.693312
 30
0.0
  0
VERTEX
  8
HATCH
 10
2510.574541
 20
1994.515139
 30
0.0
  0
VERTEX
  8
HATCH
 10
2517.277189
 20
1990.413326
 30
0.0
  0
SEQEND
  8
HATCH
  0
POLYLINE
  8
HATCH
 66
     1
 10
0.0
 20
0.0
 30
0.0
  0
VERTEX
  8
HATCH
 10
2522.304176
 20
1832.493531
 30
0.0
  0
VERTEX
  8
HATCH
 10
2537.385134
 20
1835.057164
 30
0.0
  0
VERTEX
  8
HATCH
 10
2545.763445
 20
1848.900783
 30
0.0
  0
VERTEX
  8
HATCH
 10
2534.871641
 20
1858.642588
 30
0.0
  0
VERTEX
  8
HATCH
 10
2522.304176
 20
1867.358941
 30
0.0
  0
VERTEX
  8
HATCH
 10
2513.925865
 20
1858.642588
 30
0.0
  0
VERTEX
  8
HATCH
 10
2512.250203
 20
1853.002596
 30
0.0
  0
VERTEX
  8
HATCH
 10
2513.088034
 20
1842.235337
 30
0.0
  0
VERTEX
  8
HATCH
 10
2519.790682
 20
1832.493531
 30
0.0
  0
SEQEND
  8
HATCH
  0
POLYLINE
  8
HATCH
 66
     1
 10
0.0
 20
0.0
 30
0.0
  0
VERTEX
  8
HATCH
 10
2645.46534
 20
1833.518984
 30
0.0
  0
VERTEX
  8
HATCH
 10
2658.032806
 20
1833.518984
 30
0.0
  0
VERTEX
  8
HATCH
 10
2673.951596
 20
1843.26079
 30
0.0
  0
VERTEX
  8
HATCH
 10
2663.059792
 20
1857.617135
 30
0.0
  0
VERTEX
  8
HATCH
 10
2650.492327
 20
1866.846214
 30
0.0
  0
VERTEX
  8
HATCH
 10
2642.114016
 20
1859.155315
 30
0.0
  0
VERTEX
  8
HATCH
 10
2635.411368
 20
1854.540775
 30
0.0
  0
VERTEX
  8
HATCH
 10
2637.924861
 20
1843.26079
 30
0.0
  0
VERTEX
  8
HATCH
 10
2644.627509
 20
1836.082618
 30
0.0
  0
SEQEND
  8
HATCH
  0
POLYLINE
  8
HATCH
 66
     1
 10
0.0
 20
0.0
 30
0.0
  0
VERTEX
  8
HATCH
 10
2637.08703
 20
1991.438779
 30
0.0
  0
VERTEX
  8
HATCH
 10
2649.654495
 20
1998.616952
 30
0.0
  0
VERTEX
  8
HATCH
 10
2657.194975
 20
2015.024203
 30
0.0
  0
VERTEX
  8
HATCH
 10
2657.194975
 20
2026.816915
 30
0.0
  0
VERTEX
  8
HATCH
 10
2647.141002
 20
2030.406002
 30
0.0
  0
VERTEX
  8
HATCH
 10
2627.870888
 20
2025.278735
 30
0.0
  0
VERTEX
  8
HATCH
 10
2615.303422
 20
2019.638743
 30
0.0
  0
VERTEX
  8
HATCH
 10
2622.843902
 20
2008.358757
 30
0.0
  0
VERTEX
  8
HATCH
 10
2632.897874
 20
1997.591499
 30
0.0
  0
VERTEX
  8
HATCH
 10
2637.924861
 20
1991.951506
 30
0.0
  0
SEQEND
  8
HATCH
  0
POLYLINE
  8
HATCH
 66
     1
 10
0.0
 20
0.0
 30
0.0
  0
VERTEX
  8
HATCH
 10
2761.086025
 20
1987.336967
 30
0.0
  0
VERTEX
  8
HATCH
 10
2765.275181
 20
1998.616952
 30
0.0
  0
VERTEX
  8
HATCH
 10
2770.302167
 20
2013.99875
 30
0.0
  0
VERTEX
  8
HATCH
 10
2761.923856
 20
2030.918728
 30
0.0
  0
VERTEX
  8
HATCH
 10
2751.869884
 20
2030.918728
 30
0.0
  0
VERTEX
  8
HATCH
 10
2740.140249
 20
2024.766009
 30
0.0
  0
VERTEX
  8
HATCH
 10
2741.815911
 20
2020.664196
 30
0.0
  0
VERTEX
  8
HATCH
 10
2749.356391
 20
2003.744218
 30
0.0
  0
VERTEX
  8
HATCH
 10
2756.059039
 20
1991.438779
 30
0.0
  0
VERTEX
  8
HATCH
 10
2761.086025
 20
1987.336967
 30
0.0
  0
SEQEND
  8
HATCH
  0
POLYLINE
  8
HATCH
 66
     1
 10
0.0
 20
0.0
 30
0.0
  0
VERTEX
  8
HATCH
 10
2742.653742
 20
1833.518984
 30
0.0
  0
VERTEX
  8
HATCH
 10
2769.464336
 20
1833.518984
 30
0.0
  0
VERTEX
  8
HATCH
 10
2770.302167
 20
1843.26079
 30
0.0
  0
VERTEX
  8
HATCH
 10
2761.923856
 20
1857.104408
 30
0.0
  0
VERTEX
  8
HATCH
 10
2756.89687
 20
1850.438963
 30
0.0
  0
VERTEX
  8
HATCH
 10
2745.167235
 20
1839.158977
 30
0.0
  0
VERTEX
  8
HATCH
 10
2745.167235
 20
1833.518984
 30
0.0
  0
SEQEND
  8
HATCH
  0
POLYLINE
  8
HATCH
 66
     1
 10
0.0
 20
0.0
 30
0.0
  0
VERTEX
  8
HATCH
 10
7718.30957
 20
1833.518984
 30
0.0
  0
VERTEX
  8
HATCH
 10
7745.120163
 20
1833.518984
 30
0.0
  0
VERTEX
  8
HATCH
 10
7745.957994
 20
1843.26079
 30
0.0
  0
VERTEX
  8
HATCH
 10
7737.579684
 20
1857.104408
 30
0.0
  0
VERTEX
  8
HATCH
 10
7732.552698
 20
1850.438963
 30
0.0
  0
VERTEX
  8
HATCH
 10
7720.823063
 20
1839.158977
 30
0.0
  0
VERTEX
  8
HATCH
 10
7720.823063
 20
1833.518984
 30
0.0
  0
SEQEND
  8
HATCH
  0
POLYLINE
  8
HATCH
 66
     1
 10
0.0
 20
0.0
 30
0.0
  0
VERTEX
  8
HATCH
 10
7736.741853
 20
1987.336967
 30
0.0
  0
VERTEX
  8
HATCH
 10
7740.931008
 20
1998.616952
 30
0.0
  0
VERTEX
  8
HATCH
 10
7745.957994
 20
2013.99875
 30
0.0
  0
VERTEX
  8
HATCH
 10
7737.579684
 20
2030.918728
 30
0.0
  0
VERTEX
  8
HATCH
 10
7727.525711
 20
2030.918728
 30
0.0
  0
VERTEX
  8
HATCH
 10
7715.796077
 20
2024.766009
 30
0.0
  0
VERTEX
  8
HATCH
 10
7717.471739
 20
2020.664196
 30
0.0
  0
VERTEX
  8
HATCH
 10
7725.012218
 20
2003.744218
 30
0.0
  0
VERTEX
  8
HATCH
 10
7731.714866
 20
1991.438779
 30
0.0
  0
VERTEX
  8
HATCH
 10
7736.741853
 20
1987.336967
 30
0.0
  0
SEQEND
  8
HATCH
  0
POLYLINE
  8
HATCH
 66
     1
 10
0.0
 20
0.0
 30
0.0
  0
VERTEX
  8
HATCH
 10
7612.742857
 20
1991.438779
 30
0.0
  0
VERTEX
  8
HATCH
 10
7625.310323
 20
1998.616952
 30
0.0
  0
VERTEX
  8
HATCH
 10
7632.850802
 20
2015.024203
 30
0.0
  0
VERTEX
  8
HATCH
 10
7632.850802
 20
2026.816915
 30
0.0
  0
VERTEX
  8
HATCH
 10
7622.79683
 20
2030.406002
 30
0.0
  0
VERTEX
  8
HATCH
 10
7603.526716
 20
2025.278735
 30
0.0
  0
VERTEX
  8
HATCH
 10
7590.95925
 20
2019.638743
 30
0.0
  0
VERTEX
  8
HATCH
 10
7598.499729
 20
2008.358757
 30
0.0
  0
VERTEX
  8
HATCH
 10
7608.553702
 20
1997.591499
 30
0.0
  0
VERTEX
  8
HATCH
 10
7613.580688
 20
1991.951506
 30
0.0
  0
SEQEND
  8
HATCH
  0
POLYLINE
  8
HATCH
 66
     1
 10
0.0
 20
0.0
 30
0.0
  0
VERTEX
  8
HATCH
 10
7621.121168
 20
1833.518984
 30
0.0
  0
VERTEX
  8
HATCH
 10
7633.688633
 20
1833.518984
 30
0.0
  0
VERTEX
  8
HATCH
 10
7649.607423
 20
1843.26079
 30
0.0
  0
VERTEX
  8
HATCH
 10
7638.71562
 20
1857.617135
 30
0.0
  0
VERTEX
  8
HATCH
 10
7626.148154
 20
1866.846214
 30
0.0
  0
VERTEX
  8
HATCH
 10
7617.769843
 20
1859.155315
 30
0.0
  0
VERTEX
  8
HATCH
 10
7611.067195
 20
1854.540775
 30
0.0
  0
VERTEX
  8
HATCH
 10
7613.580688
 20
1843.26079
 30
0.0
  0
VERTEX
  8
HATCH
 10
7620.283337
 20
1836.082618
 30
0.0
  0
SEQEND
  8
HATCH
  0
POLYLINE
  8
HATCH
 66
     1
 10
0.0
 20
0.0
 30
0.0
  0
VERTEX
  8
HATCH
 10
7497.960003
 20
1832.493531
 30
0.0
  0
VERTEX
  8
HATCH
 10
7513.040962
 20
1835.057164
 30
0.0
  0
VERTEX
  8
HATCH
 10
7521.419272
 20
1848.900783
 30
0.0
  0
VERTEX
  8
HATCH
 10
7510.527469
 20
1858.642588
 30
0.0
  0
VERTEX
  8
HATCH
 10
7497.960003
 20
1867.358941
 30
0.0
  0
VERTEX
  8
HATCH
 10
7489.581692
 20
1858.642588
 30
0.0
  0
VERTEX
  8
HATCH
 10
7487.90603
 20
1853.002596
 30
0.0
  0
VERTEX
  8
HATCH
 10
7488.743861
 20
1842.235337
 30
0.0
  0
VERTEX
  8
HATCH
 10
7495.44651
 20
1832.493531
 30
0.0
  0
SEQEND
  8
HATCH
  0
POLYLINE
  8
HATCH
 66
     1
 10
0.0
 20
0.0
 30
0.0
  0
VERTEX
  8
HATCH
 10
7497.122172
 20
1991.438779
 30
0.0
  0
VERTEX
  8
HATCH
 10
7511.3653
 20
2012.46057
 30
0.0
  0
VERTEX
  8
HATCH
 10
7512.203131
 20
2020.664196
 30
0.0
  0
VERTEX
  8
HATCH
 10
7504.662651
 20
2030.918728
 30
0.0
  0
VERTEX
  8
HATCH
 10
7492.095186
 20
2029.380548
 30
0.0
  0
VERTEX
  8
HATCH
 10
7482.879044
 20
2025.278735
 30
0.0
  0
VERTEX
  8
HATCH
 10
7474.500734
 20
2019.126016
 30
0.0
  0
VERTEX
  8
HATCH
 10
7474.500734
 20
2010.92239
 30
0.0
  0
VERTEX
  8
HATCH
 10
7480.365551
 20
2001.693312
 30
0.0
  0
VERTEX
  8
HATCH
 10
7486.230368
 20
1994.515139
 30
0.0
  0
VERTEX
  8
HATCH
 10
7492.933017
 20
1990.413326
 30
0.0
  0
SEQEND
  8
HATCH
  0
POLYLINE
  8
HATCH
 66
     1
 10
0.0
 20
0.0
 30
0.0
  0
VERTEX
  8
HATCH
 10
7368.934021
 20
2005.795124
 30
0.0
  0
VERTEX
  8
HATCH
 10
7381.501487
 20
2006.820578
 30
0.0
  0
VERTEX
  8
HATCH
 10
7396.582446
 20
2013.99875
 30
0.0
  0
VERTEX
  8
HATCH
 10
7389.879797
 20
2026.816915
 30
0.0
  0
VERTEX
  8
HATCH
 10
7378.150163
 20
2030.918728
 30
0.0
  0
VERTEX
  8
HATCH
 10
7363.069204
 20
2026.816915
 30
0.0
  0
VERTEX
  8
HATCH
 10
7362.231373
 20
2020.664196
 30
0.0
  0
VERTEX
  8
HATCH
 10
7363.907035
 20
2011.435117
 30
0.0
  0
SEQEND
  8
HATCH
  0
POLYLINE
  8
HATCH
 66
     1
 10
0.0
 20
0.0
 30
0.0
  0
VERTEX
  8
HATCH
 10
7460.257606
 20
1832.493531
 30
0.0
  0
VERTEX
  8
HATCH
 10
7485.392537
 20
1850.951689
 30
0.0
  0
VERTEX
  8
HATCH
 10
7494.608679
 20
1875.562566
 30
0.0
  0
VERTEX
  8
HATCH
 10
7497.960003
 20
1927.347954
 30
0.0
  0
VERTEX
  8
HATCH
 10
7490.419523
 20
1972.467895
 30
0.0
  0
VERTEX
  8
HATCH
 10
7475.338565
 20
2007.333304
 30
0.0
  0
VERTEX
  8
HATCH
 10
7461.095437
 20
2029.893275
 30
0.0
  0
VERTEX
  8
HATCH
 10
7410.825574
 20
2026.816915
 30
0.0
  0
VERTEX
  8
HATCH
 10
7385.690642
 20
2009.896937
 30
0.0
  0
VERTEX
  8
HATCH
 10
7378.150163
 20
1994.515139
 30
0.0
  0
VERTEX
  8
HATCH
 10
7375.636669
 20
1962.726089
 30
0.0
  0
VERTEX
  8
HATCH
 10
7374.798838
 20
1931.449766
 30
0.0
  0
VERTEX
  8
HATCH
 10
7375.636669
 20
1884.278919
 30
0.0
  0
VERTEX
  8
HATCH
 10
7392.39329
 20
1859.155315
 30
0.0
  0
VERTEX
  8
HATCH
 10
7413.339067
 20
1839.671704
 30
0.0
  0
VERTEX
  8
HATCH
 10
7459.419775
 20
1831.468078
 30
0.0
  0
SEQEND
  8
HATCH
  0
POLYLINE
  8
HATCH
 66
     1
 10
0.0
 20
0.0
 30
0.0
  0
VERTEX
  8
HATCH
 10
7583.41877
 20
1831.980805
 30
0.0
  0
VERTEX
  8
HATCH
 10
7608.553702
 20
1850.438963
 30
0.0
  0
VERTEX
  8
HATCH
 10
7617.769843
 20
1875.04984
 30
0.0
  0
VERTEX
  8
HATCH
 10
7621.121168
 20
1926.835227
 30
0.0
  0
VERTEX
  8
HATCH
 10
7613.580688
 20
1971.955168
 30
0.0
  0
VERTEX
  8
HATCH
 10
7598.499729
 20
2006.820578
 30
0.0
  0
VERTEX
  8
HATCH
 10
7584.256601
 20
2029.380548
 30
0.0
  0
VERTEX
  8
HATCH
 10
7533.986738
 20
2026.304189
 30
0.0
  0
VERTEX
  8
HATCH
 10
7508.851807
 20
2009.384211
 30
0.0
  0
VERTEX
  8
HATCH
 10
7501.311327
 20
1994.002412
 30
0.0
  0
VERTEX
  8
HATCH
 10
7498.797834
 20
1962.213363
 30
0.0
  0
VERTEX
  8
HATCH
 10
7497.960003
 20
1930.93704
 30
0.0
  0
VERTEX
  8
HATCH
 10
7498.797834
 20
1883.766192
 30
0.0
  0
VERTEX
  8
HATCH
 10
7515.554455
 20
1858.642588
 30
0.0
  0
VERTEX
  8
HATCH
 10
7536.500231
 20
1839.158977
 30
0.0
  0
VERTEX
  8
HATCH
 10
7582.580939
 20
1830.955351
 30
0.0
  0
SEQEND
  8
HATCH
  0
POLYLINE
  8
HATCH
 66
     1
 10
0.0
 20
0.0
 30
0.0
  0
VERTEX
  8
HATCH
 10
7707.417766
 20
1833.518984
 30
0.0
  0
VERTEX
  8
HATCH
 10
7732.552698
 20
1851.977142
 30
0.0
  0
VERTEX
  8
HATCH
 10
7741.768839
 20
1876.588019
 30
0.0
  0
VERTEX
  8
HATCH
 10
7745.120163
 20
1928.373407
 30
0.0
  0
VERTEX
  8
HATCH
 10
7737.579684
 20
1973.493348
 30
0.0
  0
VERTEX
  8
HATCH
 10
7722.498725
 20
2008.358757
 30
0.0
  0
VERTEX
  8
HATCH
 10
7708.255597
 20
2030.918728
 30
0.0
  0
VERTEX
  8
HATCH
 10
7657.985734
 20
2027.842368
 30
0.0
  0
VERTEX
  8
HATCH
 10
7632.850802
 20
2010.92239
 30
0.0
  0
VERTEX
  8
HATCH
 10
7625.310323
 20
1995.540592
 30
0.0
  0
VERTEX
  8
HATCH
 10
7622.79683
 20
1963.751543
 30
0.0
  0
VERTEX
  8
HATCH
 10
7621.958999
 20
1932.47522
 30
0.0
  0
VERTEX
  8
HATCH
 10
7622.79683
 20
1885.304372
 30
0.0
  0
VERTEX
  8
HATCH
 10
7639.553451
 20
1860.180768
 30
0.0
  0
VERTEX
  8
HATCH
 10
7660.499227
 20
1840.697157
 30
0.0
  0
VERTEX
  8
HATCH
 10
7706.579935
 20
1832.493531
 30
0.0
  0
SEQEND
  8
HATCH
  0
POLYLINE
  8
HATCH
 66
     1
 10
0.0
 20
0.0
 30
0.0
  0
VERTEX
  8
HATCH
 10
6823.86376
 20
1833.518984
 30
0.0
  0
VERTEX
  8
HATCH
 10
6797.053166
 20
1833.518984
 30
0.0
  0
VERTEX
  8
HATCH
 10
6796.215335
 20
1843.26079
 30
0.0
  0
VERTEX
  8
HATCH
 10
6804.593646
 20
1857.104408
 30
0.0
  0
VERTEX
  8
HATCH
 10
6809.620632
 20
1850.438963
 30
0.0
  0
VERTEX
  8
HATCH
 10
6821.350267
 20
1839.158977
 30
0.0
  0
VERTEX
  8
HATCH
 10
6821.350267
 20
1833.518984
 30
0.0
  0
SEQEND
  8
HATCH
  0
POLYLINE
  8
HATCH
 66
     1
 10
0.0
 20
0.0
 30
0.0
  0
VERTEX
  8
HATCH
 10
7175.796748
 20
2004.769671
 30
0.0
  0
VERTEX
  8
HATCH
 10
7163.229282
 20
2005.795124
 30
0.0
  0
VERTEX
  8
HATCH
 10
7148.148323
 20
2012.973297
 30
0.0
  0
VERTEX
  8
HATCH
 10
7154.850971
 20
2025.791462
 30
0.0
  0
VERTEX
  8
HATCH
 10
7166.580606
 20
2029.893275
 30
0.0
  0
VERTEX
  8
HATCH
 10
7181.661565
 20
2025.791462
 30
0.0
  0
VERTEX
  8
HATCH
 10
7182.499396
 20
2019.638743
 30
0.0
  0
VERTEX
  8
HATCH
 10
7180.823734
 20
2010.409664
 30
0.0
  0
SEQEND
  8
HATCH
  0
POLYLINE
  8
HATCH
 66
     1
 10
0.0
 20
0.0
 30
0.0
  0
VERTEX
  8
HATCH
 10
7046.770766
 20
1831.468078
 30
0.0
  0
VERTEX
  8
HATCH
 10
7031.689807
 20
1834.031711
 30
0.0
  0
VERTEX
  8
HATCH
 10
7023.311496
 20
1847.875329
 30
0.0
  0
VERTEX
  8
HATCH
 10
7034.2033
 20
1857.617135
 30
0.0
  0
VERTEX
  8
HATCH
 10
7046.770766
 20
1866.333487
 30
0.0
  0
VERTEX
  8
HATCH
 10
7055.149076
 20
1857.617135
 30
0.0
  0
VERTEX
  8
HATCH
 10
7056.824738
 20
1851.977142
 30
0.0
  0
VERTEX
  8
HATCH
 10
7055.986907
 20
1841.209884
 30
0.0
  0
VERTEX
  8
HATCH
 10
7049.284259
 20
1831.468078
 30
0.0
  0
SEQEND
  8
HATCH
  0
POLYLINE
  8
HATCH
 66
     1
 10
0.0
 20
0.0
 30
0.0
  0
VERTEX
  8
HATCH
 10
7047.608597
 20
1990.413326
 30
0.0
  0
VERTEX
  8
HATCH
 10
7033.365469
 20
2011.435117
 30
0.0
  0
VERTEX
  8
HATCH
 10
7032.527638
 20
2019.638743
 30
0.0
  0
VERTEX
  8
HATCH
 10
7040.068117
 20
2029.893275
 30
0.0
  0
VERTEX
  8
HATCH
 10
7052.635583
 20
2028.355095
 30
0.0
  0
VERTEX
  8
HATCH
 10
7061.851724
 20
2024.253282
 30
0.0
  0
VERTEX
  8
HATCH
 10
7070.230035
 20
2018.100563
 30
0.0
  0
VERTEX
  8
HATCH
 10
7070.230035
 20
2009.896937
 30
0.0
  0
VERTEX
  8
HATCH
 10
7064.365218
 20
2000.667858
 30
0.0
  0
VERTEX
  8
HATCH
 10
7058.5004
 20
1993.489686
 30
0.0
  0
VERTEX
  8
HATCH
 10
7051.797752
 20
1989.387873
 30
0.0
  0
SEQEND
  8
HATCH
  0
POLYLINE
  8
HATCH
 66
     1
 10
0.0
 20
0.0
 30
0.0
  0
VERTEX
  8
HATCH
 10
6805.431477
 20
1987.336967
 30
0.0
  0
VERTEX
  8
HATCH
 10
6801.242322
 20
1998.616952
 30
0.0
  0
VERTEX
  8
HATCH
 10
6796.215335
 20
2013.99875
 30
0.0
  0
VERTEX
  8
HATCH
 10
6804.593646
 20
2030.918728
 30
0.0
  0
VERTEX
  8
HATCH
 10
6814.647619
 20
2030.918728
 30
0.0
  0
VERTEX
  8
HATCH
 10
6826.377253
 20
2024.766009
 30
0.0
  0
VERTEX
  8
HATCH
 10
6824.701591
 20
2020.664196
 30
0.0
  0
VERTEX
  8
HATCH
 10
6817.161112
 20
2003.744218
 30
0.0
  0
VERTEX
  8
HATCH
 10
6810.458463
 20
1991.438779
 30
0.0
  0
VERTEX
  8
HATCH
 10
6805.431477
 20
1987.336967
 30
0.0
  0
SEQEND
  8
HATCH
  0
POLYLINE
  8
HATCH
 66
     1
 10
0.0
 20
0.0
 30
0.0
  0
VERTEX
  8
HATCH
 10
6929.430473
 20
1991.438779
 30
0.0
  0
VERTEX
  8
HATCH
 10
6916.863007
 20
1998.616952
 30
0.0
  0
VERTEX
  8
HATCH
 10
6909.322527
 20
2015.024203
 30
0.0
  0
VERTEX
  8
HATCH
 10
6909.322527
 20
2026.816915
 30
0.0
  0
VERTEX
  8
HATCH
 10
6919.3765
 20
2030.406002
 30
0.0
  0
VERTEX
  8
HATCH
 10
6938.646614
 20
2025.278735
 30
0.0
  0
VERTEX
  8
HATCH
 10
6951.21408
 20
2019.638743
 30
0.0
  0
VERTEX
  8
HATCH
 10
6943.673601
 20
2008.358757
 30
0.0
  0
VERTEX
  8
HATCH
 10
6933.619628
 20
1997.591499
 30
0.0
  0
VERTEX
  8
HATCH
 10
6928.592642
 20
1991.951506
 30
0.0
  0
SEQEND
  8
HATCH
  0
POLYLINE
  8
HATCH
 66
     1
 10
0.0
 20
0.0
 30
0.0
  0
VERTEX
  8
HATCH
 10
6923.609601
 20
1832.493531
 30
0.0
  0
VERTEX
  8
HATCH
 10
6911.042135
 20
1832.493531
 30
0.0
  0
VERTEX
  8
HATCH
 10
6895.123345
 20
1842.235337
 30
0.0
  0
VERTEX
  8
HATCH
 10
6906.015149
 20
1856.591682
 30
0.0
  0
VERTEX
  8
HATCH
 10
6918.582615
 20
1865.820761
 30
0.0
  0
VERTEX
  8
HATCH
 10
6926.960925
 20
1858.129862
 30
0.0
  0
VERTEX
  8
HATCH
 10
6933.663574
 20
1853.515322
 30
0.0
  0
VERTEX
  8
HATCH
 10
6931.15008
 20
1842.235337
 30
0.0
  0
VERTEX
  8
HATCH
 10
6924.447432
 20
1835.057164
 30
0.0
  0
SEQEND
  8
HATCH
  0
POLYLINE
  8
HATCH
 66
     1
 10
0.0
 20
0.0
 30
0.0
  0
VERTEX
  8
HATCH
 10
7084.473163
 20
1831.468078
 30
0.0
  0
VERTEX
  8
HATCH
 10
7059.338231
 20
1849.926236
 30
0.0
  0
VERTEX
  8
HATCH
 10
7050.12209
 20
1874.537113
 30
0.0
  0
VERTEX
  8
HATCH
 10
7046.770766
 20
1926.3225
 30
0.0
  0
VERTEX
  8
HATCH
 10
7054.311245
 20
1971.442442
 30
0.0
  0
VERTEX
  8
HATCH
 10
7069.392204
 20
2006.307851
 30
0.0
  0
VERTEX
  8
HATCH
 10
7083.635332
 20
2028.867822
 30
0.0
  0
VERTEX
  8
HATCH
 10
7133.905195
 20
2025.791462
 30
0.0
  0
VERTEX
  8
HATCH
 10
7159.040127
 20
2008.871484
 30
0.0
  0
VERTEX
  8
HATCH
 10
7166.580606
 20
1993.489686
 30
0.0
  0
VERTEX
  8
HATCH
 10
7169.094099
 20
1961.700636
 30
0.0
  0
VERTEX
  8
HATCH
 10
7169.93193
 20
1930.424313
 30
0.0
  0
VERTEX
  8
HATCH
 10
7169.094099
 20
1883.253465
 30
0.0
  0
VERTEX
  8
HATCH
 10
7152.337478
 20
1858.129862
 30
0.0
  0
VERTEX
  8
HATCH
 10
7131.391702
 20
1838.646251
 30
0.0
  0
VERTEX
  8
HATCH
 10
7085.310994
 20
1830.442625
 30
0.0
  0
SEQEND
  8
HATCH
  0
POLYLINE
  8
HATCH
 66
     1
 10
0.0
 20
0.0
 30
0.0
  0
VERTEX
  8
HATCH
 10
6958.75456
 20
1831.980805
 30
0.0
  0
VERTEX
  8
HATCH
 10
6933.619628
 20
1850.438963
 30
0.0
  0
VERTEX
  8
HATCH
 10
6924.403486
 20
1875.04984
 30
0.0
  0
VERTEX
  8
HATCH
 10
6921.052162
 20
1926.835227
 30
0.0
  0
VERTEX
  8
HATCH
 10
6928.592642
 20
1971.955168
 30
0.0
  0
VERTEX
  8
HATCH
 10
6943.673601
 20
2006.820578
 30
0.0
  0
VERTEX
  8
HATCH
 10
6957.916729
 20
2029.380548
 30
0.0
  0
VERTEX
  8
HATCH
 10
7008.186592
 20
2026.304189
 30
0.0
  0
VERTEX
  8
HATCH
 10
7033.321523
 20
2009.384211
 30
0.0
  0
VERTEX
  8
HATCH
 10
7040.862003
 20
1994.002412
 30
0.0
  0
VERTEX
  8
HATCH
 10
7043.375496
 20
1962.213363
 30
0.0
  0
VERTEX
  8
HATCH
 10
7044.213327
 20
1930.93704
 30
0.0
  0
VERTEX
  8
HATCH
 10
7043.375496
 20
1883.766192
 30
0.0
  0
VERTEX
  8
HATCH
 10
7026.618875
 20
1858.642588
 30
0.0
  0
VERTEX
  8
HATCH
 10
7005.673098
 20
1839.158977
 30
0.0
  0
VERTEX
  8
HATCH
 10
6959.592391
 20
1830.955351
 30
0.0
  0
SEQEND
  8
HATCH
  0
POLYLINE
  8
HATCH
 66
     1
 10
0.0
 20
0.0
 30
0.0
  0
VERTEX
  8
HATCH
 10
6834.755564
 20
1833.518984
 30
0.0
  0
VERTEX
  8
HATCH
 10
6809.620632
 20
1851.977142
 30
0.0
  0
VERTEX
  8
HATCH
 10
6800.404491
 20
1876.588019
 30
0.0
  0
VERTEX
  8
HATCH
 10
6797.053166
 20
1928.373407
 30
0.0
  0
VERTEX
  8
HATCH
 10
6804.593646
 20
1973.493348
 30
0.0
  0
VERTEX
  8
HATCH
 10
6819.674605
 20
2008.358757
 30
0.0
  0
VERTEX
  8
HATCH
 10
6833.917733
 20
2030.918728
 30
0.0
  0
VERTEX
  8
HATCH
 10
6884.187596
 20
2027.842368
 30
0.0
  0
VERTEX
  8
HATCH
 10
6909.322527
 20
2010.92239
 30
0.0
  0
VERTEX
  8
HATCH
 10
6916.863007
 20
1995.540592
 30
0.0
  0
VERTEX
  8
HATCH
 10
6919.3765
 20
1963.751543
 30
0.0
  0
VERTEX
  8
HATCH
 10
6920.214331
 20
1932.47522
 30
0.0
  0
VERTEX
  8
HATCH
 10
6919.3765
 20
1885.304372
 30
0.0
  0
VERTEX
  8
HATCH
 10
6902.619879
 20
1860.180768
 30
0.0
  0
VERTEX
  8
HATCH
 10
6881.674103
 20
1840.697157
 30
0.0
  0
VERTEX
  8
HATCH
 10
6835.593395
 20
1832.493531
 30
0.0
  0
SEQEND
  8
HATCH
  0
LINE
  8
JISSEN
 10
7746.086665
 20
2033.482361
 30
0.0
 11
7746.086665
 21
1833.482361
 31
0.0
  0
LINE
  8
JISSEN
 10
6796.086665
 20
2033.482361
 30
0.0
 11
6796.086665
 21
1833.482361
 31
0.0
  0
LINE
  8
JISSEN
 10
6896.086665
 20
2163.482361
 30
0.0
 11
7096.086665
 21
2163.482361
 31
0.0
  0
LINE
  8
JISSEN
 10
7646.086665
 20
2163.482361
 30
0.0
 11
7671.086665
 21
2163.482361
 31
0.0
  0
LINE
  8
JISSEN
 10
7646.086665
 20
2358.482361
 30
0.0
 11
7646.086665
 21
2163.482361
 31
0.0
  0
LINE
  8
JISSEN
 10
6896.086665
 20
2408.482361
 30
0.0
 11
6896.086665
 21
2163.482361
 31
0.0
  0
LINE
  8
JISSEN
 10
7096.086665
 20
2033.482361
 30
0.0
 11
6796.086665
 21
2033.482361
 31
0.0
  0
LINE
  8
JISSEN
 10
7446.086665
 20
2163.482361
 30
0.0
 11
7646.086665
 21
2163.482361
 31
0.0
  0
LINE
  8
JISSEN
 10
6871.086665
 20
2163.482361
 30
0.0
 11
6896.086665
 21
2163.482361
 31
0.0
  0
LINE
  8
JISSEN
 10
6821.086665
 20
2383.482361
 30
0.0
 11
6821.086665
 21
2178.482361
 31
0.0
  0
LINE
  8
JISSEN
 10
6896.086665
 20
2683.482361
 30
0.0
 11
6407.970046
 21
2683.482361
 31
0.0
  0
LINE
  8
JISSEN
 10
6896.086665
 20
2658.482361
 30
0.0
 11
6407.970046
 21
2658.482361
 31
0.0
  0
LINE
  8
JISSEN
 10
6896.086665
 20
2408.482361
 30
0.0
 11
6407.970046
 21
2408.482361
 31
0.0
  0
LINE
  8
JISSEN
 10
6896.086665
 20
2383.482361
 30
0.0
 11
6407.970046
 21
2383.482361
 31
0.0
  0
LINE
  8
JISSEN
 10
6407.970046
 20
2709.805379
 30
0.0
 11
6407.970046
 21
2559.805379
 31
0.0
  0
LINE
  8
JISSEN
 10
6407.970046
 20
2559.805379
 30
0.0
 11
6357.970046
 21
2534.805379
 31
0.0
  0
LINE
  8
JISSEN
 10
6357.970046
 20
2534.805379
 30
0.0
 11
6457.970046
 21
2509.805379
 31
0.0
  0
LINE
  8
JISSEN
 10
6457.970046
 20
2509.805379
 30
0.0
 11
6407.970046
 21
2484.805379
 31
0.0
  0
LINE
  8
JISSEN
 10
6407.970046
 20
2484.805379
 30
0.0
 11
6407.970046
 21
2309.805379
 31
0.0
  0
INSERT
  8
SUNPOU
  2
ARROWANG
 10
6758.00462
 20
2537.245408
 30
0.0
 41
-30.0
 42
30.0
 50
180.393963
 43
30.0
  0
LINE
  8
SUNPOU
 10
6758.00462
 20
2537.245408
 30
0.0
 11
6534.303729
 21
2535.707228
 31
0.0
  0
LINE
  8
JISSEN
 10
6896.086665
 20
2708.482361
 30
0.0
 11
6821.086665
 21
2708.482361
 31
0.0
  0
LINE
  8
JISSEN
 10
6896.086665
 20
2358.482361
 30
0.0
 11
6821.086665
 21
2358.482361
 31
0.0
  0
LINE
  8
JISSEN
 10
7721.086665
 20
2333.482361
 30
0.0
 11
7721.086665
 21
2178.482361
 31
0.0
  0
LINE
  8
JISSEN
 10
7646.086665
 20
2308.482361
 30
0.0
 11
7721.086665
 21
2308.482361
 31
0.0
  0
LINE
  8
JISSEN
 10
7646.086665
 20
2658.482361
 30
0.0
 11
7721.086665
 21
2658.482361
 31
0.0
  0
LINE
  8
SUNPOU
 10
8009.366457
 20
2472.889063
 30
0.0
 11
7785.665566
 21
2474.427243
 31
0.0
  0
INSERT
  8
SUNPOU
  2
ARROWANG
 10
8009.366457
 20
2472.889063
 30
0.0
 41
30.0
 42
30.0
 50
359.606037
 43
30.0
  0
LINE
  8
JISSEN
 10
8134.203284
 20
2434.805379
 30
0.0
 11
8134.203284
 21
2259.805379
 31
0.0
  0
LINE
  8
JISSEN
 10
8084.203284
 20
2459.805379
 30
0.0
 11
8134.203284
 21
2434.805379
 31
0.0
  0
LINE
  8
JISSEN
 10
8184.203284
 20
2484.805379
 30
0.0
 11
8084.203284
 21
2459.805379
 31
0.0
  0
LINE
  8
JISSEN
 10
8134.203284
 20
2509.805379
 30
0.0
 11
8184.203284
 21
2484.805379
 31
0.0
  0
LINE
  8
JISSEN
 10
8134.203284
 20
2659.805379
 30
0.0
 11
8134.203284
 21
2509.805379
 31
0.0
  0
LINE
  8
JISSEN
 10
7646.086665
 20
2333.482361
 30
0.0
 11
8134.203284
 21
2333.482361
 31
0.0
  0
LINE
  8
JISSEN
 10
7646.086665
 20
2358.482361
 30
0.0
 11
8134.203284
 21
2358.482361
 31
0.0
  0
LINE
  8
JISSEN
 10
7646.086665
 20
2608.482361
 30
0.0
 11
8134.203284
 21
2608.482361
 31
0.0
  0
LINE
  8
JISSEN
 10
7646.086665
 20
2633.482361
 30
0.0
 11
8134.203284
 21
2633.482361
 31
0.0
  0
LINE
  8
JISSEN
 10
7721.086665
 20
4073.482361
 30
0.0
 11
7721.086665
 21
4103.482361
 31
0.0
  0
LINE
  8
JISSEN
 10
7611.086665
 20
4103.482361
 30
0.0
 11
7611.086665
 21
4058.482361
 31
0.0
  0
LINE
  8
JISSEN
 10
7721.086665
 20
4103.482361
 30
0.0
 11
7311.086665
 21
4103.482361
 31
0.0
  0
LINE
  8
JISSEN
 10
7611.086665
 20
4169.418433
 30
0.0
 11
7311.086665
 21
4169.418433
 31
0.0
  0
LINE
  8
JISSEN
 10
7721.086665
 20
4103.482361
 30
0.0
 11
7721.086665
 21
4113.482361
 31
0.0
  0
LINE
  8
JISSEN
 10
7721.086665
 20
4113.482361
 30
0.0
 11
7668.568787
 21
4113.482361
 31
0.0
  0
LINE
  8
JISSEN
 10
7668.568787
 20
4113.482361
 30
0.0
 11
7621.086665
 21
4113.482361
 31
0.0
  0
LINE
  8
JISSEN
 10
7621.086665
 20
4113.482361
 30
0.0
 11
7621.086665
 21
4159.418433
 31
0.0
  0
LINE
  8
JISSEN
 10
7611.086665
 20
4169.418433
 30
0.0
 11
7611.086665
 21
4103.482361
 31
0.0
  0
LINE
  8
JISSEN
 10
7621.086665
 20
4159.418433
 30
0.0
 11
7658.568787
 21
4159.418433
 31
0.0
  0
LINE
  8
JISSEN
 10
7648.568787
 20
4169.418433
 30
0.0
 11
7611.086665
 21
4169.418433
 31
0.0
  0
LINE
  8
JISSEN
 10
7668.568787
 20
4213.482361
 30
0.0
 11
7721.086665
 21
4113.482361
 31
0.0
  0
LINE
  8
JISSEN
 10
7658.568787
 20
4159.418433
 30
0.0
 11
7668.568787
 21
4213.482361
 31
0.0
  0
LINE
  8
JISSEN
 10
7658.568787
 20
4213.482361
 30
0.0
 11
7648.568787
 21
4169.418433
 31
0.0
  0
LINE
  8
JISSEN
 10
7668.568787
 20
4213.482361
 30
0.0
 11
7311.086665
 21
4213.482361
 31
0.0
  0
LINE
  8
JISSEN
 10
7011.086665
 20
4169.418433
 30
0.0
 11
7311.086665
 21
4169.418433
 31
0.0
  0
LINE
  8
JISSEN
 10
7011.086665
 20
4169.418433
 30
0.0
 11
7011.086665
 21
4103.482361
 31
0.0
  0
LINE
  8
JISSEN
 10
6973.604543
 20
4169.418433
 30
0.0
 11
7011.086665
 21
4169.418433
 31
0.0
  0
LINE
  8
JISSEN
 10
6963.604543
 20
4213.482361
 30
0.0
 11
6973.604543
 21
4169.418433
 31
0.0
  0
LINE
  8
JISSEN
 10
6953.604543
 20
4213.482361
 30
0.0
 11
7311.086665
 21
4213.482361
 31
0.0
  0
LINE
  8
JISSEN
 10
6953.604543
 20
4213.482361
 30
0.0
 11
6901.086665
 21
4113.482361
 31
0.0
  0
LINE
  8
JISSEN
 10
6963.604543
 20
4159.418433
 30
0.0
 11
6953.604543
 21
4213.482361
 31
0.0
  0
LINE
  8
JISSEN
 10
7001.086665
 20
4159.418433
 30
0.0
 11
6963.604543
 21
4159.418433
 31
0.0
  0
LINE
  8
JISSEN
 10
7001.086665
 20
4113.482361
 30
0.0
 11
7001.086665
 21
4159.418433
 31
0.0
  0
LINE
  8
JISSEN
 10
6953.604543
 20
4113.482361
 30
0.0
 11
7001.086665
 21
4113.482361
 31
0.0
  0
LINE
  8
JISSEN
 10
6901.086665
 20
4113.482361
 30
0.0
 11
6953.604543
 21
4113.482361
 31
0.0
  0
LINE
  8
JISSEN
 10
6901.086665
 20
4103.482361
 30
0.0
 11
6901.086665
 21
4113.482361
 31
0.0
  0
LINE
  8
JISSEN
 10
6901.086665
 20
4103.482361
 30
0.0
 11
7311.086665
 21
4103.482361
 31
0.0
  0
LINE
  8
JISSEN
 10
6901.086665
 20
4073.482361
 30
0.0
 11
6901.086665
 21
4103.482361
 31
0.0
  0
LINE
  8
JISSEN
 10
7011.086665
 20
4103.482361
 30
0.0
 11
7011.086665
 21
4058.482361
 31
0.0
  0
LINE
  8
JISSEN
 10
7643.086665
 20
4073.482361
 30
0.0
 11
7721.086665
 21
4073.482361
 31
0.0
  0
LINE
  8
JISSEN
 10
6901.086665
 20
4073.482361
 30
0.0
 11
6979.086665
 21
4073.482361
 31
0.0
  0
LINE
  8
JISSEN
 10
6979.086665
 20
3973.482361
 30
0.0
 11
6901.086665
 21
3973.482361
 31
0.0
  0
LINE
  8
JISSEN
 10
7611.086665
 20
4058.482361
 30
0.0
 11
7611.086665
 21
3958.482361
 31
0.0
  0
LINE
  8
JISSEN
 10
7011.086665
 20
4058.482361
 30
0.0
 11
7011.086665
 21
3958.482361
 31
0.0
  0
LINE
  8
JISSEN
 10
7637.086665
 20
4058.482361
 30
0.0
 11
7311.086665
 21
4058.482361
 31
0.0
  0
LINE
  8
JISSEN
 10
7643.086665
 20
4073.482361
 30
0.0
 11
7637.086665
 21
4058.482361
 31
0.0
  0
LINE
  8
JISSEN
 10
6985.086665
 20
4058.482361
 30
0.0
 11
7311.086665
 21
4058.482361
 31
0.0
  0
LINE
  8
JISSEN
 10
6979.086665
 20
4073.482361
 30
0.0
 11
6985.086665
 21
4058.482361
 31
0.0
  0
LINE
  8
JISSEN
 10
7721.086665
 20
3973.482361
 30
0.0
 11
7643.086665
 21
3973.482361
 31
0.0
  0
LINE
  8
JISSEN
 10
6901.086665
 20
4073.482361
 30
0.0
 11
6901.086665
 21
3973.482361
 31
0.0
  0
LINE
  8
JISSEN
 10
7721.086665
 20
4073.482361
 30
0.0
 11
7721.086665
 21
3973.482361
 31
0.0
  0
LINE
  8
JISSEN
 10
7646.086665
 20
3363.482361
 30
0.0
 11
7646.086665
 21
3355.482361
 31
0.0
  0
LINE
  8
JISSEN
 10
7681.086665
 20
3378.482361
 30
0.0
 11
7721.086665
 21
3378.482361
 31
0.0
  0
LINE
  8
JISSEN
 10
6896.086665
 20
3355.482361
 30
0.0
 11
6896.086665
 21
3363.482361
 31
0.0
  0
LINE
  8
JISSEN
 10
6861.086665
 20
3378.482361
 30
0.0
 11
6821.086665
 21
3378.482361
 31
0.0
  0
LINE
  8
ITTEN
 10
7681.086665
 20
2913.482361
 30
0.0
 11
7496.086665
 21
2913.482361
 31
0.0
  0
LINE
  8
JISSEN
 10
7556.086665
 20
2923.482361
 30
0.0
 11
7646.086665
 21
2923.482361
 31
0.0
  0
LINE
  8
JISSEN
 10
7556.086665
 20
2903.482361
 30
0.0
 11
7646.086665
 21
2903.482361
 31
0.0
  0
ARC
  8
JISSEN
 10
7556.086665
 20
2913.482361
 30
0.0
 40
10.0
 50
90.0
 51
270.0
  0
LINE
  8
JISSEN
 10
7681.086665
 20
3078.482361
 30
0.0
 11
7721.086665
 21
3078.482361
 31
0.0
  0
LINE
  8
JISSEN
 10
6861.086665
 20
3078.482361
 30
0.0
 11
6821.086665
 21
3078.482361
 31
0.0
  0
LINE
  8
JISSEN
 10
6985.086665
 20
3958.482361
 30
0.0
 11
7311.086665
 21
3958.482361
 31
0.0
  0
LINE
  8
JISSEN
 10
6979.086665
 20
3973.482361
 30
0.0
 11
6985.086665
 21
3958.482361
 31
0.0
  0
LINE
  8
JISSEN
 10
7637.086665
 20
3958.482361
 30
0.0
 11
7311.086665
 21
3958.482361
 31
0.0
  0
LINE
  8
JISSEN
 10
7643.086665
 20
3973.482361
 30
0.0
 11
7637.086665
 21
3958.482361
 31
0.0
  0
LINE
  8
JISSEN
 10
7011.086665
 20
3958.482361
 30
0.0
 11
7011.086665
 21
3938.482361
 31
0.0
  0
LINE
  8
JISSEN
 10
7611.086665
 20
3958.482361
 30
0.0
 11
7611.086665
 21
3938.482361
 31
0.0
  0
LINE
  8
JISSEN
 10
7721.086665
 20
3973.482361
 30
0.0
 11
7721.086665
 21
3378.482361
 31
0.0
  0
LINE
  8
JISSEN
 10
7646.086665
 20
3363.482361
 30
0.0
 11
7611.086665
 21
3938.482361
 31
0.0
  0
LINE
  8
JISSEN
 10
6821.086665
 20
3378.482361
 30
0.0
 11
6821.086665
 21
3438.482361
 31
0.0
  0
LINE
  8
JISSEN
 10
7546.95623
 20
3523.482361
 30
0.0
 11
7636.95623
 21
3523.482361
 31
0.0
  0
LINE
  8
JISSEN
 10
7546.95623
 20
3503.482361
 30
0.0
 11
7636.95623
 21
3503.482361
 31
0.0
  0
ARC
  8
JISSEN
 10
7546.95623
 20
3513.482361
 30
0.0
 40
10.0
 50
90.0
 51
270.0
  0
LINE
  8
ITTEN
 10
7671.95623
 20
3513.482361
 30
0.0
 11
7486.95623
 21
3513.482361
 31
0.0
  0
LINE
  8
ITTEN
 10
7653.695361
 20
3813.482361
 30
0.0
 11
7468.695361
 21
3813.482361
 31
0.0
  0
LINE
  8
JISSEN
 10
7528.695361
 20
3823.482361
 30
0.0
 11
7618.695361
 21
3823.482361
 31
0.0
  0
LINE
  8
JISSEN
 10
7528.695361
 20
3803.482361
 30
0.0
 11
7618.695361
 21
3803.482361
 31
0.0
  0
ARC
  8
JISSEN
 10
7528.695361
 20
3813.482361
 30
0.0
 40
10.0
 50
90.0
 51
270.0
  0
LINE
  8
JISSEN
 10
7721.086665
 20
3078.482361
 30
0.0
 11
7721.086665
 21
2633.482361
 31
0.0
  0
LINE
  8
JISSEN
 10
6821.086665
 20
3078.482361
 30
0.0
 11
6821.086665
 21
2683.482361
 31
0.0
  0
LINE
  8
JISSEN
 10
6861.086665
 20
3078.482361
 30
0.0
 11
6868.086665
 21
3055.482361
 31
0.0
  0
LINE
  8
JISSEN
 10
6868.086665
 20
3055.482361
 30
0.0
 11
7196.086665
 21
3055.482361
 31
0.0
  0
LINE
  8
JISSEN
 10
7681.086665
 20
3078.482361
 30
0.0
 11
7674.086665
 21
3055.482361
 31
0.0
  0
LINE
  8
JISSEN
 10
7674.086665
 20
3055.482361
 30
0.0
 11
7196.086665
 21
3055.482361
 31
0.0
  0
LINE
  8
JISSEN
 10
6796.086665
 20
2178.482361
 30
0.0
 11
6862.086665
 21
2178.482361
 31
0.0
  0
LINE
  8
JISSEN
 10
6862.086665
 20
2178.482361
 30
0.0
 11
6871.086665
 21
2163.482361
 31
0.0
  0
LINE
  8
JISSEN
 10
7746.086665
 20
2178.482361
 30
0.0
 11
7680.086665
 21
2178.482361
 31
0.0
  0
LINE
  8
JISSEN
 10
7680.086665
 20
2178.482361
 30
0.0
 11
7671.086665
 21
2163.482361
 31
0.0
  0
LINE
  8
JISSEN
 10
7646.086665
 20
3055.482361
 30
0.0
 11
7646.086665
 21
2358.482361
 31
0.0
  0
LINE
  8
JISSEN
 10
7446.086665
 20
2163.482361
 30
0.0
 11
7446.086665
 21
2033.482361
 31
0.0
  0
LINE
  8
JISSEN
 10
7096.086665
 20
2163.482361
 30
0.0
 11
7096.086665
 21
2033.482361
 31
0.0
  0
LINE
  8
JISSEN
 10
7746.086665
 20
2033.482361
 30
0.0
 11
7446.086665
 21
2033.482361
 31
0.0
  0
LINE
  8
JISSEN
 10
7746.086665
 20
2178.482361
 30
0.0
 11
7746.086665
 21
2033.482361
 31
0.0
  0
LINE
  8
JISSEN
 10
6796.086665
 20
2178.482361
 30
0.0
 11
6796.086665
 21
2178.482361
 31
0.0
  0
LINE
  8
JISSEN
 10
6796.086665
 20
2033.482361
 30
0.0
 11
6796.086665
 21
2178.482361
 31
0.0
  0
ARC
  8
JISSEN
 10
7556.086665
 20
3213.482361
 30
0.0
 40
10.0
 50
90.0
 51
270.0
  0
LINE
  8
JISSEN
 10
7556.086665
 20
3203.482361
 30
0.0
 11
7646.086665
 21
3203.482361
 31
0.0
  0
LINE
  8
JISSEN
 10
7556.086665
 20
3223.482361
 30
0.0
 11
7646.086665
 21
3223.482361
 31
0.0
  0
LINE
  8
ITTEN
 10
7681.086665
 20
3213.482361
 30
0.0
 11
7496.086665
 21
3213.482361
 31
0.0
  0
LINE
  8
JISSEN
 10
7721.086665
 20
3378.482361
 30
0.0
 11
7721.086665
 21
3078.482361
 31
0.0
  0
LINE
  8
JISSEN
 10
6821.086665
 20
3378.482361
 30
0.0
 11
6821.086665
 21
3078.482361
 31
0.0
  0
LINE
  8
JISSEN
 10
6896.086665
 20
3355.482361
 30
0.0
 11
6896.086665
 21
3055.482361
 31
0.0
  0
LINE
  8
JISSEN
 10
6861.086665
 20
3378.482361
 30
0.0
 11
6868.086665
 21
3355.482361
 31
0.0
  0
LINE
  8
JISSEN
 10
6868.086665
 20
3355.482361
 30
0.0
 11
7196.086665
 21
3355.482361
 31
0.0
  0
LINE
  8
JISSEN
 10
7681.086665
 20
3378.482361
 30
0.0
 11
7674.086665
 21
3355.482361
 31
0.0
  0
LINE
  8
JISSEN
 10
7674.086665
 20
3355.482361
 30
0.0
 11
7196.086665
 21
3355.482361
 31
0.0
  0
LINE
  8
JISSEN
 10
7646.086665
 20
3355.482361
 30
0.0
 11
7646.086665
 21
3055.482361
 31
0.0
  0
ARC
  8
JISSEN
 10
2435.430838
 20
3213.482361
 30
0.0
 40
10.0
 50
270.0
 51
90.0
  0
LINE
  8
JISSEN
 10
2435.430838
 20
3203.482361
 30
0.0
 11
2295.430838
 21
3203.482361
 31
0.0
  0
LINE
  8
JISSEN
 10
2435.430838
 20
3223.482361
 30
0.0
 11
2295.430838
 21
3223.482361
 31
0.0
  0
LINE
  8
JISSEN
 10
2155.430838
 20
3203.482361
 30
0.0
 11
2295.430838
 21
3203.482361
 31
0.0
  0
LINE
  8
JISSEN
 10
2155.430838
 20
3223.482361
 30
0.0
 11
2295.430838
 21
3223.482361
 31
0.0
  0
ARC
  8
JISSEN
 10
2155.430838
 20
3213.482361
 30
0.0
 40
10.0
 50
90.0
 51
270.0
  0
LINE
  8
ITTEN
 10
2095.430838
 20
3213.482361
 30
0.0
 11
2495.430838
 21
3213.482361
 31
0.0
  0
LINE
  8
ITTEN
 10
4745.430838
 20
3888.637095
 30
0.0
 11
4745.430838
 21
2688.637095
 31
0.0
  0
LINE
  8
ITTEN
 10
5345.430838
 20
3288.637095
 30
0.0
 11
4145.430838
 21
3288.637095
 31
0.0
  0
TEXT
  8
TEXT
 10
8473.360104
 20
2585.546818
 30
0.0
 40
60.0
  1
（Ｍ０ＰＢ）
  7
K
  0
TEXT
  8
TEXT
 10
8470.846611
 20
2514.27782
 30
0.0
 40
60.0
  1
（Ｍ０ＰＦ）
  7
K
  0
TEXT
  8
SAISEN
 10
9274.909437
 20
452.554477
 30
0.0
 40
125.0
  1
1/25
  7
K
  0
TEXT
  8
TEXT
 10
4648.242435
 20
5262.913784
 30
0.0
 40
150.0
  1
構造標準図
  7
K
  0
POLYLINE
  8
WAKU
 66
     1
 10
0.0
 20
0.0
 30
0.0
 70
     1
  0
VERTEX
  8
WAKU
 10
0.0
 20
0.0
 30
0.0
  0
VERTEX
  8
WAKU
 10
9875.0
 20
0.0
 30
0.0
  0
VERTEX
  8
WAKU
 10
9875.0
 20
6825.0
 30
0.0
  0
VERTEX
  8
WAKU
 10
0.0
 20
6825.0
 30
0.0
  0
SEQEND
  8
WAKU
  0
ENDSEC
  0
EOF
