  0
SECTION
  2
HEADER
  9
$ACADVER
  1
AC1009
  9
$INSBASE
 10
0.0
 20
0.0
 30
0.0
  9
$EXTMIN
 10
0.0
 20
0.0
 30
0.0
  9
$EXTMAX
 10
20000.0
 20
14000.0
 30
0.0
  9
$LIMMIN
 10
0.0
 20
0.0
  9
$LIMMAX
 10
9875.0
 20
6825.0
  9
$ORTHOMODE
 70
     0
  9
$REGENMODE
 70
     1
  9
$FILLMODE
 70
     1
  9
$QTEXTMODE
 70
     0
  9
$MIRRTEXT
 70
     0
  9
$DRAGMODE
 70
     2
  9
$LTSCALE
 40
125.0
  9
$OSMODE
 70
    33
  9
$ATTMODE
 70
     1
  9
$TEXTSIZE
 40
150.0
  9
$TRACEWID
 40
0.05
  9
$TEXTSTYLE
  7
K
  9
$CLAYER
  8
TEXT
  9
$CELTYPE
  6
BYLAYER
  9
$CECOLOR
 62
   256
  9
$DIMSCALE
 40
25.0
  9
$DIMASZ
 40
1.5
  9
$DIMEXO
 40
1.0
  9
$DIMDLI
 40
6.0
  9
$DIMRND
 40
0.0
  9
$DIMDLE
 40
0.0
  9
$DIMEXE
 40
1.0
  9
$DIMTP
 40
495.0
  9
$DIMTM
 40
0.0
  9
$DIMTXT
 40
3.0
  9
$DIMCEN
 40
0.0
  9
$DIMTSZ
 40
0.0
  9
$DIMTOL
 70
     0
  9
$DIMLIM
 70
     0
  9
$DIMTIH
 70
     0
  9
$DIMTOH
 70
     0
  9
$DIMSE1
 70
     0
  9
$DIMSE2
 70
     0
  9
$DIMTAD
 70
     1
  9
$DIMZIN
 70
     8
  9
$DIMBLK
  1
ARROW
  9
$DIMASO
 70
     0
  9
$DIMSHO
 70
     0
  9
$DIMPOST
  1

  9
$DIMAPOST
  1

  9
$DIMALT
 70
     0
  9
$DIMALTD
 70
     2
  9
$DIMALTF
 40
25.4
  9
$DIMLFAC
 40
1.0
  9
$DIMTOFL
 70
     1
  9
$DIMTVP
 40
0.0
  9
$DIMTIX
 70
     1
  9
$DIMSOXD
 70
     0
  9
$DIMSAH
 70
     0
  9
$DIMBLK1
  1

  9
$DIMBLK2
  1

  9
$DIMSTYLE
  2
*UNNAMED
  9
$DIMCLRD
 70
     0
  9
$DIMCLRE
 70
     0
  9
$DIMCLRT
 70
     0
  9
$DIMTFAC
 40
1.0
  9
$DIMGAP
 40
0.09
  9
$LUNITS
 70
     2
  9
$LUPREC
 70
     2
  9
$AXISMODE
 70
     1
  9
$AXISUNIT
 10
100.0
 20
100.0
  9
$SKETCHINC
 40
0.1
  9
$FILLETRAD
 40
10.0
  9
$AUNITS
 70
     0
  9
$AUPREC
 70
     2
  9
$MENU
  1
d:stdgx5
  9
$ELEVATION
 40
0.0
  9
$PELEVATION
 40
0.0
  9
$THICKNESS
 40
0.0
  9
$LIMCHECK
 70
     0
  9
$BLIPMODE
 70
     1
  9
$CHAMFERA
 40
0.0
  9
$CHAMFERB
 40
0.0
  9
$SKPOLY
 70
     0
  9
$TDCREATE
 40
2449293.366585648
  9
$TDUPDATE
 40
2450245.661956018
  9
$TDINDWG
 40
0.2000231481
  9
$TDUSRTIMER
 40
0.2000231481
  9
$USRTIMER
 70
     1
  9
$ANGBASE
 50
0.0
  9
$ANGDIR
 70
     0
  9
$PDMODE
 70
     0
  9
$PDSIZE
 40
0.0
  9
$PLINEWID
 40
0.0
  9
$COORDS
 70
     2
  9
$SPLFRAME
 70
     0
  9
$SPLINETYPE
 70
     6
  9
$SPLINESEGS
 70
     8
  9
$ATTDIA
 70
     0
  9
$ATTREQ
 70
     1
  9
$HANDLING
 70
     0
  9
$HANDSEED
  5
0
  9
$SURFTAB1
 70
     6
  9
$SURFTAB2
 70
     6
  9
$SURFTYPE
 70
     6
  9
$SURFU
 70
     6
  9
$SURFV
 70
     6
  9
$UCSNAME
  2

  9
$UCSORG
 10
0.0
 20
0.0
 30
0.0
  9
$UCSXDIR
 10
1.0
 20
0.0
 30
0.0
  9
$UCSYDIR
 10
0.0
 20
1.0
 30
0.0
  9
$PUCSNAME
  2

  9
$PUCSORG
 10
0.0
 20
0.0
 30
0.0
  9
$PUCSXDIR
 10
1.0
 20
0.0
 30
0.0
  9
$PUCSYDIR
 10
0.0
 20
1.0
 30
0.0
  9
$USERI1
 70
     3
  9
$USERI2
 70
    33
  9
$USERI3
 70
     0
  9
$USERI4
 70
     1
  9
$USERI5
 70
     0
  9
$USERR1
 40
25.0
  9
$USERR2
 40
3.0
  9
$USERR3
 40
3.0
  9
$USERR4
 40
1.5
  9
$USERR5
 40
10.0
  9
$WORLDVIEW
 70
     1
  9
$SHADEDGE
 70
     3
  9
$SHADEDIF
 70
    70
  9
$TILEMODE
 70
     1
  9
$MAXACTVP
 70
    16
  9
$PINSBASE
 10
0.0
 20
0.0
 30
0.0
  9
$PLIMCHECK
 70
     0
  9
$PEXTMIN
 10
1.000000E+20
 20
1.000000E+20
 30
1.000000E+20
  9
$PEXTMAX
 10
-1.000000E+20
 20
-1.000000E+20
 30
-1.000000E+20
  9
$PLIMMIN
 10
0.0
 20
0.0
  9
$PLIMMAX
 10
12.0
 20
9.0
  9
$UNITMODE
 70
     0
  9
$VISRETAIN
 70
     0
  0
ENDSEC
  0
SECTION
  2
TABLES
  0
TABLE
  2
VPORT
 70
    10
  0
VPORT
  2
*ACTIVE
 70
     0
 10
0.0
 20
0.0
 11
1.0
 21
1.0
 12
5576.263114
 22
3412.5
 13
0.0
 23
0.0
 14
1.0
 24
1.0
 15
10.0
 25
10.0
 16
0.0
 26
0.0
 36
1.0
 17
0.0
 27
0.0
 37
0.0
 40
6825.0
 41
1.63407
 42
50.0
 43
0.0
 44
0.0
 50
0.0
 51
0.0
 71
     0
 72
   500
 73
     1
 74
     0
 75
     0
 76
     0
 77
     0
 78
     0
  0
VPORT
  2
2
 70
     0
 10
0.5
 20
0.0
 11
1.0
 21
1.0
 12
0.924031
 22
1.052651
 13
0.0
 23
0.0
 14
1.0
 24
1.0
 15
10.0
 25
10.0
 16
0.0
 26
0.0
 36
1.0
 17
0.0
 27
0.0
 37
0.0
 40
2.105302
 41
0.877814
 42
50.0
 43
0.0
 44
0.0
 50
0.0
 51
0.0
 71
     0
 72
   500
 73
     1
 74
     1
 75
     0
 76
     0
 77
     0
 78
     0
  0
VPORT
  2
2
 70
     0
 10
0.0
 20
0.0
 11
0.5
 21
1.0
 12
0.924031
 22
1.052651
 13
0.0
 23
0.0
 14
1.0
 24
1.0
 15
10.0
 25
10.0
 16
0.0
 26
0.0
 36
1.0
 17
0.0
 27
0.0
 37
0.0
 40
2.105302
 41
0.877814
 42
50.0
 43
0.0
 44
0.0
 50
0.0
 51
0.0
 71
     0
 72
   500
 73
     1
 74
     1
 75
     0
 76
     0
 77
     0
 78
     0
  0
VPORT
  2
3
 70
     0
 10
0.0
 20
0.5
 11
1.0
 21
1.0
 12
2.83217
 22
1.052651
 13
0.0
 23
0.0
 14
1.0
 24
1.0
 15
10.0
 25
10.0
 16
0.0
 26
0.0
 36
1.0
 17
0.0
 27
0.0
 37
0.0
 40
2.105302
 41
3.571429
 42
50.0
 43
0.0
 44
0.0
 50
0.0
 51
0.0
 71
     0
 72
   500
 73
     1
 74
     1
 75
     0
 76
     0
 77
     0
 78
     0
  0
VPORT
  2
3
 70
     0
 10
0.0
 20
0.0
 11
1.0
 21
0.5
 12
2.856742
 22
1.052651
 13
0.0
 23
0.0
 14
1.0
 24
1.0
 15
10.0
 25
10.0
 16
0.0
 26
0.0
 36
1.0
 17
0.0
 27
0.0
 37
0.0
 40
2.105302
 41
3.594771
 42
50.0
 43
0.0
 44
0.0
 50
0.0
 51
0.0
 71
     0
 72
   500
 73
     1
 74
     1
 75
     0
 76
     0
 77
     0
 78
     0
  0
VPORT
  2
4
 70
     0
 10
0.5
 20
0.0
 11
1.0
 21
0.5
 12
2.886858
 22
1.052651
 13
0.0
 23
0.0
 14
1.0
 24
1.0
 15
10.0
 25
10.0
 16
0.0
 26
0.0
 36
1.0
 17
0.0
 27
0.0
 37
0.0
 40
4.275207
 41
1.784314
 42
50.0
 43
0.0
 44
0.0
 50
0.0
 51
0.0
 71
     0
 72
   500
 73
     1
 74
     1
 75
     0
 76
     0
 77
     0
 78
     0
  0
VPORT
  2
4
 70
     0
 10
0.5
 20
0.5
 11
1.0
 21
1.0
 12
2.86209
 22
1.052651
 13
0.0
 23
0.0
 14
1.0
 24
1.0
 15
10.0
 25
10.0
 16
0.0
 26
0.0
 36
1.0
 17
0.0
 27
0.0
 37
0.0
 40
4.275207
 41
1.772727
 42
50.0
 43
0.0
 44
0.0
 50
0.0
 51
0.0
 71
     0
 72
   500
 73
     1
 74
     1
 75
     0
 76
     0
 77
     0
 78
     0
  0
VPORT
  2
4
 70
     0
 10
0.0
 20
0.5
 11
0.5
 21
1.0
 12
2.86209
 22
1.052651
 13
0.0
 23
0.0
 14
1.0
 24
1.0
 15
10.0
 25
10.0
 16
0.0
 26
0.0
 36
1.0
 17
0.0
 27
0.0
 37
0.0
 40
4.275207
 41
1.772727
 42
50.0
 43
0.0
 44
0.0
 50
0.0
 51
0.0
 71
     0
 72
   500
 73
     1
 74
     1
 75
     0
 76
     0
 77
     0
 78
     0
  0
VPORT
  2
4
 70
     0
 10
0.0
 20
0.0
 11
0.5
 21
0.5
 12
2.886858
 22
1.052651
 13
0.0
 23
0.0
 14
1.0
 24
1.0
 15
10.0
 25
10.0
 16
0.0
 26
0.0
 36
1.0
 17
0.0
 27
0.0
 37
0.0
 40
4.275207
 41
1.784314
 42
50.0
 43
0.0
 44
0.0
 50
0.0
 51
0.0
 71
     0
 72
   500
 73
     1
 74
     1
 75
     0
 76
     0
 77
     0
 78
     0
  0
ENDTAB
  0
TABLE
  2
LTYPE
 70
     5
  0
LTYPE
  2
CONTINUOUS
 70
    64
  3
実線
 72
    65
 73
     0
 40
0.0
  0
LTYPE
  2
DASHED
 70
    64
  3
__ __ __ __ __ __ __ __ __ __ __ __ __ __ __
 72
    65
 73
     2
 40
0.75
 49
0.5
 49
-0.25
  0
LTYPE
  2
CENTER
 70
    64
  3
____ _ ____ _ ____ _ ____ _ ____ _ ____ _ ____
 72
    65
 73
     4
 40
2.0
 49
1.25
 49
-0.25
 49
0.25
 49
-0.25
  0
LTYPE
  2
PHANTOM
 70
    64
  3
_____ _ _ _____ _ _ _____ _ _ _____ _ _ ____
 72
    65
 73
     6
 40
2.5
 49
1.25
 49
-0.25
 49
0.25
 49
-0.25
 49
0.25
 49
-0.25
  0
LTYPE
  2
HIDDEN
 70
    64
  3
_ _ _ _ _ _ _ _ _ _ _ _ _ _ _ _ _ _ _ _ _ _ _
 72
    65
 73
     2
 40
0.375
 49
0.25
 49
-0.125
  0
ENDTAB
  0
TABLE
  2
LAYER
 70
    14
  0
LAYER
  2
0
 70
    64
 62
     7
  6
CONTINUOUS
  0
LAYER
  2
HASEN
 70
    64
 62
     2
  6
DASHED
  0
LAYER
  2
ITTEN
 70
    64
 62
     1
  6
CENTER
  0
LAYER
  2
HATCH
 70
    64
 62
     4
  6
CONTINUOUS
  0
LAYER
  2
SUNPOU
 70
    64
 62
     3
  6
CONTINUOUS
  0
LAYER
  2
TEXT
 70
    64
 62
     3
  6
CONTINUOUS
  0
LAYER
  2
SAISEN
 70
    64
 62
     4
  6
CONTINUOUS
  0
LAYER
  2
JISSEN
 70
    64
 62
     7
  6
CONTINUOUS
  0
LAYER
  2
WAKU
 70
    64
 62
    -5
  6
CONTINUOUS
  0
ENDTAB
  0
TABLE
  2
STYLE
 70
     2
  0
STYLE
  2
STANDARD
 70
     0
 40
0.0
 41
1.0
 50
0.0
 71
     0
 42
0.2
  3
ROMANS
  4
EXTFONT
  0
STYLE
  2
K
 70
    64
 40
0.0
 41
1.0
 50
0.0
 71
     0
 42
150.0
  3
ROMANS
  4
EXTFONT
  0
ENDTAB
  0
TABLE
  2
VIEW
 70
     0
  0
ENDTAB
  0
TABLE
  2
UCS
 70
     0
  0
ENDTAB
  0
TABLE
  2
APPID
 70
     1
  0
APPID
  2
ACAD
 70
    64
  0
ENDTAB
  0
TABLE
  2
DIMSTYLE
 70
     0
  0
ENDTAB
  0
ENDSEC
  0
SECTION
  2
BLOCKS
  0
BLOCK
  8
SUNPOU
  2
ARROWANG
 70
    64
 10
0.0
 20
0.0
 30
0.0
  3
ARROWANG
  0
LINE
  8
SUNPOU
 10
0.0
 20
0.0
 30
0.0
 11
-1.5
 21
0.401924
 31
0.0
  0
LINE
  8
SUNPOU
 10
0.0
 20
0.0
 30
0.0
 11
-1.5
 21
-0.401924
 31
0.0
  0
ENDBLK
  8
SUNPOU
  0
ENDSEC
  0
SECTION
  2
ENTITIES
  0
TEXT
  8
JISSEN
 10
2633.961293
 20
6167.478484
 30
0.0
 40
250.0
  1
組立マンホール構造図（内径７５０ｍｍ)
  7
K
  0
TEXT
  8
TEXT
 10
4796.163858
 20
4335.33785
 30
0.0
 40
100.0
  1
Ｍ０ＰＢ
  7
K
  0
TEXT
  8
TEXT
 10
3059.001187
 20
4323.054386
 30
0.0
 40
100.0
  1
Ｍ０Ｐ
  7
K
  0
TEXT
  8
SUNPOU
 10
5105.566393
 20
4018.384702
 30
0.0
 40
60.0
  1
30
 50
90.0
  7
K
 72
     1
 11
5105.566393
 21
4075.527559
 31
0.0
  0
LINE
  8
SUNPOU
 10
5150.566393
 20
3979.527559
 30
0.0
 11
5150.566394
 21
3919.527559
 31
0.0
  0
LINE
  8
SUNPOU
 10
5150.566393
 20
4009.527559
 30
0.0
 11
5150.566393
 21
4141.527559
 31
0.0
  0
INSERT
  8
SUNPOU
  2
ARROWANG
 10
5150.566393
 20
4009.527559
 30
0.0
 41
30.0
 42
30.0
 50
270.0
 43
30.0
  0
INSERT
  8
SUNPOU
  2
ARROWANG
 10
5150.566393
 20
3979.527559
 30
0.0
 41
30.0
 42
30.0
 50
90.0
 43
30.0
  0
LINE
  8
SUNPOU
 10
5150.566393
 20
3979.527559
 30
0.0
 11
5150.566393
 21
4009.527559
 31
0.0
  0
LINE
  8
SUNPOU
 10
5056.567397
 20
4009.527559
 30
0.0
 11
5180.566393
 21
4009.527559
 31
0.0
  0
LINE
  8
SUNPOU
 10
5056.567397
 20
3979.527559
 30
0.0
 11
5180.566393
 21
3979.527559
 31
0.0
  0
LINE
  8
HASEN
 10
5026.567397
 20
4009.527559
 30
0.0
 11
5201.567397
 21
4009.527559
 31
0.0
  0
LINE
  8
JISSEN
 10
4851.567397
 20
4009.527559
 30
0.0
 11
5026.567397
 21
4009.527559
 31
0.0
  0
LINE
  8
ITTEN
 10
5026.567397
 20
4174.527559
 30
0.0
 11
5026.567397
 21
3929.527559
 31
0.0
  0
LINE
  8
JISSEN
 10
4551.567397
 20
3979.527559
 30
0.0
 11
4551.567397
 21
4124.527559
 31
0.0
  0
LINE
  8
JISSEN
 10
4551.567397
 20
4124.527559
 30
0.0
 11
4551.567397
 21
4124.527559
 31
0.0
  0
LINE
  8
JISSEN
 10
4551.567397
 20
4124.527559
 30
0.0
 11
5026.567397
 21
4124.527559
 31
0.0
  0
LINE
  8
JISSEN
 10
5501.567397
 20
4124.527559
 30
0.0
 11
5501.567397
 21
3979.527559
 31
0.0
  0
LINE
  8
JISSEN
 10
5026.567397
 20
3979.527559
 30
0.0
 11
4551.567397
 21
3979.527559
 31
0.0
  0
LINE
  8
JISSEN
 10
4616.567397
 20
4124.527559
 30
0.0
 11
4621.567397
 21
4109.527559
 31
0.0
  0
LINE
  8
JISSEN
 10
4621.567397
 20
4109.527559
 30
0.0
 11
5026.567397
 21
4109.527559
 31
0.0
  0
LINE
  8
JISSEN
 10
4851.567397
 20
4109.527559
 30
0.0
 11
4851.567397
 21
4009.527559
 31
0.0
  0
LINE
  8
JISSEN
 10
5436.567397
 20
4124.527559
 30
0.0
 11
5431.567397
 21
4109.527559
 31
0.0
  0
LINE
  8
HASEN
 10
5431.567397
 20
4109.527559
 30
0.0
 11
5026.567397
 21
4109.527559
 31
0.0
  0
LINE
  8
HASEN
 10
5201.567397
 20
4109.527559
 30
0.0
 11
5201.567397
 21
4009.527559
 31
0.0
  0
LINE
  8
ITTEN
 10
5401.567397
 20
4044.527559
 30
0.0
 11
5551.567397
 21
4044.527559
 31
0.0
  0
LINE
  8
HASEN
 10
5501.567397
 20
4054.527559
 30
0.0
 11
5451.567397
 21
4054.527559
 31
0.0
  0
LINE
  8
HASEN
 10
5451.567397
 20
4054.527559
 30
0.0
 11
5451.567397
 21
4034.527559
 31
0.0
  0
LINE
  8
HASEN
 10
5451.567397
 20
4034.527559
 30
0.0
 11
5501.567397
 21
4034.527559
 31
0.0
  0
LINE
  8
JISSEN
 10
4601.567397
 20
4034.527559
 30
0.0
 11
4551.567397
 21
4034.527559
 31
0.0
  0
LINE
  8
JISSEN
 10
4601.567397
 20
4054.527559
 30
0.0
 11
4601.567397
 21
4034.527559
 31
0.0
  0
LINE
  8
JISSEN
 10
4551.567397
 20
4054.527559
 30
0.0
 11
4601.567397
 21
4054.527559
 31
0.0
  0
LINE
  8
ITTEN
 10
4651.567397
 20
4044.527559
 30
0.0
 11
4501.567397
 21
4044.527559
 31
0.0
  0
LINE
  8
SUNPOU
 10
5501.567397
 20
4044.527559
 30
0.0
 11
5649.98292
 21
4044.527559
 31
0.0
  0
LINE
  8
SUNPOU
 10
5501.567397
 20
4124.527559
 30
0.0
 11
5649.98292
 21
4124.527559
 31
0.0
  0
LINE
  8
SUNPOU
 10
5619.98292
 20
4044.527559
 30
0.0
 11
5619.98292
 21
4124.527559
 31
0.0
  0
INSERT
  8
SUNPOU
  2
ARROWANG
 10
5619.98292
 20
4044.527559
 30
0.0
 41
30.0
 42
30.0
 50
90.0
 43
30.0
  0
INSERT
  8
SUNPOU
  2
ARROWANG
 10
5619.98292
 20
4124.527559
 30
0.0
 41
30.0
 42
30.0
 50
270.0
 43
30.0
  0
TEXT
  8
SUNPOU
 10
5574.98292
 20
4028.644091
 30
0.0
 40
60.0
  1
80
 50
90.0
  7
K
 72
     1
 11
5574.98292
 21
4085.786949
 31
0.0
  0
LINE
  8
SUNPOU
 10
5619.98292
 20
4124.527559
 30
0.0
 11
5619.98292
 21
4184.527559
 31
0.0
  0
LINE
  8
SUNPOU
 10
5619.98292
 20
4044.527559
 30
0.0
 11
5619.98292
 21
3984.527559
 31
0.0
  0
LINE
  8
SUNPOU
 10
5431.567397
 20
4109.527559
 30
0.0
 11
5782.30621
 21
4109.527559
 31
0.0
  0
LINE
  8
SUNPOU
 10
5649.98292
 20
4124.527559
 30
0.0
 11
5782.30621
 21
4124.527559
 31
0.0
  0
LINE
  8
SUNPOU
 10
5752.30621
 20
4109.527559
 30
0.0
 11
5752.30621
 21
4124.527559
 31
0.0
  0
INSERT
  8
SUNPOU
  2
ARROWANG
 10
5752.30621
 20
4109.527559
 30
0.0
 41
30.0
 42
30.0
 50
90.0
 43
30.0
  0
INSERT
  8
SUNPOU
  2
ARROWANG
 10
5752.30621
 20
4124.527559
 30
0.0
 41
30.0
 42
30.0
 50
270.0
 43
30.0
  0
LINE
  8
SUNPOU
 10
5752.30621
 20
4124.527559
 30
0.0
 11
5752.30621
 21
4259.700947
 31
0.0
  0
LINE
  8
SUNPOU
 10
5752.30621
 20
4109.527559
 30
0.0
 11
5752.306211
 21
4049.527559
 31
0.0
  0
TEXT
  8
SUNPOU
 10
5707.30621
 20
4138.272375
 30
0.0
 40
60.0
  1
15
 50
90.0
  7
K
 72
     1
 11
5707.30621
 21
4199.700947
 31
0.0
  0
LINE
  8
SUNPOU
 10
5501.567397
 20
3979.527559
 30
0.0
 11
5935.600792
 21
3979.527559
 31
0.0
  0
LINE
  8
SUNPOU
 10
5782.30621
 20
4109.527559
 30
0.0
 11
5935.600792
 21
4109.527559
 31
0.0
  0
LINE
  8
SUNPOU
 10
5905.600792
 20
3979.527559
 30
0.0
 11
5905.600792
 21
4109.527559
 31
0.0
  0
INSERT
  8
SUNPOU
  2
ARROWANG
 10
5905.600792
 20
3979.527559
 30
0.0
 41
30.0
 42
30.0
 50
270.0
 43
30.0
  0
INSERT
  8
SUNPOU
  2
ARROWANG
 10
5905.600792
 20
4109.527559
 30
0.0
 41
30.0
 42
30.0
 50
90.0
 43
30.0
  0
TEXT
  8
SUNPOU
 10
5868.952192
 20
3915.490641
 30
0.0
 40
60.0
  1
130
 50
90.0
  7
K
 72
     1
 11
5868.952192
 21
4005.490641
 31
0.0
  0
LINE
  8
JISSEN
 10
5026.567397
 20
3979.527559
 30
0.0
 11
5501.567397
 21
3979.527559
 31
0.0
  0
LINE
  8
JISSEN
 10
5026.567397
 20
4124.527559
 30
0.0
 11
5501.567397
 21
4124.527559
 31
0.0
  0
LINE
  8
SUNPOU
 10
4551.567397
 20
3949.527559
 30
0.0
 11
4551.567397
 21
3675.731551
 31
0.0
  0
LINE
  8
SUNPOU
 10
5501.567397
 20
3949.527559
 30
0.0
 11
5501.567397
 21
3675.731551
 31
0.0
  0
LINE
  8
SUNPOU
 10
4551.567397
 20
3705.731551
 30
0.0
 11
5501.567397
 21
3705.731551
 31
0.0
  0
INSERT
  8
SUNPOU
  2
ARROWANG
 10
4551.567397
 20
3705.731551
 30
0.0
 41
30.0
 42
30.0
 50
180.0
 43
30.0
  0
INSERT
  8
SUNPOU
  2
ARROWANG
 10
5501.567397
 20
3705.731551
 30
0.0
 41
30.0
 42
30.0
 43
30.0
  0
TEXT
  8
SUNPOU
 10
4940.853126
 20
3750.731551
 30
0.0
 40
60.0
  1
950
  7
K
 72
     1
 11
5026.567412
 21
3750.731551
 31
0.0
  0
LINE
  8
SUNPOU
 10
4551.567397
 20
3949.527559
 30
0.0
 11
4551.567397
 21
3810.065922
 31
0.0
  0
LINE
  8
SUNPOU
 10
4851.567397
 20
3949.527559
 30
0.0
 11
4851.567397
 21
3810.065922
 31
0.0
  0
LINE
  8
SUNPOU
 10
4551.567397
 20
3840.065922
 30
0.0
 11
4851.567397
 21
3840.065922
 31
0.0
  0
INSERT
  8
SUNPOU
  2
ARROWANG
 10
4551.567397
 20
3840.065922
 30
0.0
 41
30.0
 42
30.0
 50
180.0
 43
30.0
  0
INSERT
  8
SUNPOU
  2
ARROWANG
 10
4851.567397
 20
3840.065922
 30
0.0
 41
30.0
 42
30.0
 43
30.0
  0
TEXT
  8
SUNPOU
 10
4615.853126
 20
3885.065922
 30
0.0
 40
60.0
  1
300
  7
K
 72
     1
 11
4701.567412
 21
3885.065922
 31
0.0
  0
LINE
  8
SUNPOU
 10
4851.567397
 20
3840.065922
 30
0.0
 11
5201.567397
 21
3840.065922
 31
0.0
  0
LINE
  8
SUNPOU
 10
5201.567397
 20
3949.527559
 30
0.0
 11
5201.567397
 21
3810.065922
 31
0.0
  0
INSERT
  8
SUNPOU
  2
ARROWANG
 10
4851.567397
 20
3840.065922
 30
0.0
 41
30.0
 42
30.0
 50
180.0
 43
30.0
  0
INSERT
  8
SUNPOU
  2
ARROWANG
 10
5201.567397
 20
3840.065922
 30
0.0
 41
30.0
 42
30.0
 43
30.0
  0
TEXT
  8
SUNPOU
 10
4940.853111
 20
3885.065922
 30
0.0
 40
60.0
  1
350
  7
K
 72
     1
 11
5026.567397
 21
3885.065922
 31
0.0
  0
LINE
  8
SUNPOU
 10
5201.567397
 20
3840.065922
 30
0.0
 11
5501.567397
 21
3840.065922
 31
0.0
  0
LINE
  8
SUNPOU
 10
5501.567397
 20
3949.527559
 30
0.0
 11
5501.567397
 21
3810.065922
 31
0.0
  0
INSERT
  8
SUNPOU
  2
ARROWANG
 10
5201.567397
 20
3840.065922
 30
0.0
 41
30.0
 42
30.0
 50
180.0
 43
30.0
  0
INSERT
  8
SUNPOU
  2
ARROWANG
 10
5501.567397
 20
3840.065922
 30
0.0
 41
30.0
 42
30.0
 43
30.0
  0
TEXT
  8
SUNPOU
 10
5265.853111
 20
3885.065922
 30
0.0
 40
60.0
  1
300
  7
K
 72
     1
 11
5351.567397
 21
3885.065922
 31
0.0
  0
CIRCLE
  8
JISSEN
 10
5026.567397
 20
2754.110969
 30
0.0
 40
175.0
  0
CIRCLE
  8
JISSEN
 10
5026.567397
 20
2754.110969
 30
0.0
 40
475.0
  0
CIRCLE
  8
JISSEN
 10
5026.567397
 20
2754.110969
 30
0.0
 40
410.0
  0
CIRCLE
  8
JISSEN
 10
5026.567397
 20
2754.110969
 30
0.0
 40
410.0
  0
CIRCLE
  8
JISSEN
 10
5026.567397
 20
2754.110969
 30
0.0
 40
405.0
  0
LINE
  8
ITTEN
 10
5026.567397
 20
3279.110969
 30
0.0
 11
5026.567397
 21
2229.110969
 31
0.0
  0
LINE
  8
ITTEN
 10
5551.567397
 20
2754.110969
 30
0.0
 11
4501.567397
 21
2754.110969
 31
0.0
  0
LINE
  8
ITTEN
 10
3751.567397
 20
2754.110969
 30
0.0
 11
2701.567397
 21
2754.110969
 31
0.0
  0
LINE
  8
ITTEN
 10
3226.567397
 20
3279.110969
 30
0.0
 11
3226.567397
 21
2229.110969
 31
0.0
  0
CIRCLE
  8
JISSEN
 10
3226.567397
 20
2754.110969
 30
0.0
 40
405.0
  0
CIRCLE
  8
JISSEN
 10
3226.567397
 20
2754.110969
 30
0.0
 40
410.0
  0
CIRCLE
  8
JISSEN
 10
3226.567397
 20
2754.110969
 30
0.0
 40
410.0
  0
CIRCLE
  8
JISSEN
 10
3226.567397
 20
2754.110969
 30
0.0
 40
475.0
  0
CIRCLE
  8
JISSEN
 10
3226.567397
 20
2754.110969
 30
0.0
 40
175.0
  0
TEXT
  8
SUNPOU
 10
3465.853111
 20
3885.065922
 30
0.0
 40
60.0
  1
300
  7
K
 72
     1
 11
3551.567397
 21
3885.065922
 31
0.0
  0
INSERT
  8
SUNPOU
  2
ARROWANG
 10
3701.567397
 20
3840.065922
 30
0.0
 41
30.0
 42
30.0
 43
30.0
  0
INSERT
  8
SUNPOU
  2
ARROWANG
 10
3401.567397
 20
3840.065922
 30
0.0
 41
30.0
 42
30.0
 50
180.0
 43
30.0
  0
LINE
  8
SUNPOU
 10
3701.567397
 20
3949.527559
 30
0.0
 11
3701.567397
 21
3810.065922
 31
0.0
  0
LINE
  8
SUNPOU
 10
3401.567397
 20
3840.065922
 30
0.0
 11
3701.567397
 21
3840.065922
 31
0.0
  0
TEXT
  8
SUNPOU
 10
3140.853111
 20
3885.065922
 30
0.0
 40
60.0
  1
350
  7
K
 72
     1
 11
3226.567397
 21
3885.065922
 31
0.0
  0
INSERT
  8
SUNPOU
  2
ARROWANG
 10
3401.567397
 20
3840.065922
 30
0.0
 41
30.0
 42
30.0
 43
30.0
  0
INSERT
  8
SUNPOU
  2
ARROWANG
 10
3051.567397
 20
3840.065922
 30
0.0
 41
30.0
 42
30.0
 50
180.0
 43
30.0
  0
LINE
  8
SUNPOU
 10
3401.567397
 20
3949.527559
 30
0.0
 11
3401.567397
 21
3810.065922
 31
0.0
  0
LINE
  8
SUNPOU
 10
3051.567397
 20
3840.065922
 30
0.0
 11
3401.567397
 21
3840.065922
 31
0.0
  0
TEXT
  8
SUNPOU
 10
2815.853126
 20
3885.065922
 30
0.0
 40
60.0
  1
300
  7
K
 72
     1
 11
2901.567412
 21
3885.065922
 31
0.0
  0
INSERT
  8
SUNPOU
  2
ARROWANG
 10
3051.567397
 20
3840.065922
 30
0.0
 41
30.0
 42
30.0
 43
30.0
  0
INSERT
  8
SUNPOU
  2
ARROWANG
 10
2751.567397
 20
3840.065922
 30
0.0
 41
30.0
 42
30.0
 50
180.0
 43
30.0
  0
LINE
  8
SUNPOU
 10
2751.567397
 20
3840.065922
 30
0.0
 11
3051.567397
 21
3840.065922
 31
0.0
  0
LINE
  8
SUNPOU
 10
3051.567397
 20
3949.527559
 30
0.0
 11
3051.567397
 21
3810.065922
 31
0.0
  0
LINE
  8
SUNPOU
 10
2751.567397
 20
3949.527559
 30
0.0
 11
2751.567397
 21
3810.065922
 31
0.0
  0
TEXT
  8
SUNPOU
 10
3140.853126
 20
3750.731551
 30
0.0
 40
60.0
  1
950
  7
K
 72
     1
 11
3226.567412
 21
3750.731551
 31
0.0
  0
INSERT
  8
SUNPOU
  2
ARROWANG
 10
3701.567397
 20
3705.731551
 30
0.0
 41
30.0
 42
30.0
 43
30.0
  0
INSERT
  8
SUNPOU
  2
ARROWANG
 10
2751.567397
 20
3705.731551
 30
0.0
 41
30.0
 42
30.0
 50
180.0
 43
30.0
  0
LINE
  8
SUNPOU
 10
2751.567397
 20
3705.731551
 30
0.0
 11
3701.567397
 21
3705.731551
 31
0.0
  0
LINE
  8
SUNPOU
 10
3701.567397
 20
3949.527559
 30
0.0
 11
3701.567397
 21
3675.731551
 31
0.0
  0
LINE
  8
SUNPOU
 10
2751.567397
 20
3949.527559
 30
0.0
 11
2751.567397
 21
3675.731551
 31
0.0
  0
LINE
  8
JISSEN
 10
3226.567397
 20
4124.527559
 30
0.0
 11
3701.567397
 21
4124.527559
 31
0.0
  0
LINE
  8
JISSEN
 10
3226.567397
 20
3979.527559
 30
0.0
 11
3701.567397
 21
3979.527559
 31
0.0
  0
TEXT
  8
TEXT
 10
4775.936942
 20
4663.56411
 30
0.0
 40
120.0
  1
底　　版
  7
K
  0
TEXT
  8
SUNPOU
 10
4068.952192
 20
3915.490641
 30
0.0
 40
60.0
  1
130
 50
90.0
  7
K
 72
     1
 11
4068.952192
 21
4005.490641
 31
0.0
  0
INSERT
  8
SUNPOU
  2
ARROWANG
 10
4105.600792
 20
4109.527559
 30
0.0
 41
30.0
 42
30.0
 50
90.0
 43
30.0
  0
INSERT
  8
SUNPOU
  2
ARROWANG
 10
4105.600792
 20
3979.527559
 30
0.0
 41
30.0
 42
30.0
 50
270.0
 43
30.0
  0
LINE
  8
SUNPOU
 10
4105.600792
 20
3979.527559
 30
0.0
 11
4105.600792
 21
4109.527559
 31
0.0
  0
LINE
  8
SUNPOU
 10
3982.30621
 20
4109.527559
 30
0.0
 11
4135.600792
 21
4109.527559
 31
0.0
  0
LINE
  8
SUNPOU
 10
3701.567397
 20
3979.527559
 30
0.0
 11
4135.600792
 21
3979.527559
 31
0.0
  0
TEXT
  8
SUNPOU
 10
3907.30621
 20
4138.272375
 30
0.0
 40
60.0
  1
15
 50
90.0
  7
K
 72
     1
 11
3907.30621
 21
4199.700947
 31
0.0
  0
LINE
  8
SUNPOU
 10
3952.30621
 20
4109.527559
 30
0.0
 11
3952.306211
 21
4049.527559
 31
0.0
  0
LINE
  8
SUNPOU
 10
3952.30621
 20
4124.527559
 30
0.0
 11
3952.30621
 21
4259.700947
 31
0.0
  0
INSERT
  8
SUNPOU
  2
ARROWANG
 10
3952.30621
 20
4124.527559
 30
0.0
 41
30.0
 42
30.0
 50
270.0
 43
30.0
  0
INSERT
  8
SUNPOU
  2
ARROWANG
 10
3952.30621
 20
4109.527559
 30
0.0
 41
30.0
 42
30.0
 50
90.0
 43
30.0
  0
LINE
  8
SUNPOU
 10
3952.30621
 20
4109.527559
 30
0.0
 11
3952.30621
 21
4124.527559
 31
0.0
  0
LINE
  8
SUNPOU
 10
3849.98292
 20
4124.527559
 30
0.0
 11
3982.30621
 21
4124.527559
 31
0.0
  0
LINE
  8
SUNPOU
 10
3631.567397
 20
4109.527559
 30
0.0
 11
3982.30621
 21
4109.527559
 31
0.0
  0
LINE
  8
SUNPOU
 10
3819.98292
 20
4044.527559
 30
0.0
 11
3819.98292
 21
3984.527559
 31
0.0
  0
LINE
  8
SUNPOU
 10
3819.98292
 20
4124.527559
 30
0.0
 11
3819.98292
 21
4184.527559
 31
0.0
  0
TEXT
  8
SUNPOU
 10
3774.98292
 20
4028.644091
 30
0.0
 40
60.0
  1
80
 50
90.0
  7
K
 72
     1
 11
3774.98292
 21
4085.786949
 31
0.0
  0
INSERT
  8
SUNPOU
  2
ARROWANG
 10
3819.98292
 20
4124.527559
 30
0.0
 41
30.0
 42
30.0
 50
270.0
 43
30.0
  0
INSERT
  8
SUNPOU
  2
ARROWANG
 10
3819.98292
 20
4044.527559
 30
0.0
 41
30.0
 42
30.0
 50
90.0
 43
30.0
  0
LINE
  8
SUNPOU
 10
3819.98292
 20
4044.527559
 30
0.0
 11
3819.98292
 21
4124.527559
 31
0.0
  0
LINE
  8
SUNPOU
 10
3701.567397
 20
4124.527559
 30
0.0
 11
3849.98292
 21
4124.527559
 31
0.0
  0
LINE
  8
SUNPOU
 10
3701.567397
 20
4044.527559
 30
0.0
 11
3849.98292
 21
4044.527559
 31
0.0
  0
LINE
  8
ITTEN
 10
2851.567397
 20
4044.527559
 30
0.0
 11
2701.567397
 21
4044.527559
 31
0.0
  0
LINE
  8
JISSEN
 10
2751.567397
 20
4054.527559
 30
0.0
 11
2801.567397
 21
4054.527559
 31
0.0
  0
LINE
  8
JISSEN
 10
2801.567397
 20
4054.527559
 30
0.0
 11
2801.567397
 21
4034.527559
 31
0.0
  0
LINE
  8
JISSEN
 10
2801.567397
 20
4034.527559
 30
0.0
 11
2751.567397
 21
4034.527559
 31
0.0
  0
LINE
  8
HASEN
 10
3651.567397
 20
4034.527559
 30
0.0
 11
3701.567397
 21
4034.527559
 31
0.0
  0
LINE
  8
HASEN
 10
3651.567397
 20
4054.527559
 30
0.0
 11
3651.567397
 21
4034.527559
 31
0.0
  0
LINE
  8
HASEN
 10
3701.567397
 20
4054.527559
 30
0.0
 11
3651.567397
 21
4054.527559
 31
0.0
  0
LINE
  8
ITTEN
 10
3601.567397
 20
4044.527559
 30
0.0
 11
3751.567397
 21
4044.527559
 31
0.0
  0
LINE
  8
HASEN
 10
3401.567397
 20
4109.527559
 30
0.0
 11
3401.567397
 21
3979.527559
 31
0.0
  0
LINE
  8
HASEN
 10
3631.567397
 20
4109.527559
 30
0.0
 11
3226.567397
 21
4109.527559
 31
0.0
  0
LINE
  8
JISSEN
 10
3636.567397
 20
4124.527559
 30
0.0
 11
3631.567397
 21
4109.527559
 31
0.0
  0
LINE
  8
JISSEN
 10
3051.567397
 20
4109.527559
 30
0.0
 11
3051.567397
 21
3979.527559
 31
0.0
  0
LINE
  8
JISSEN
 10
2821.567397
 20
4109.527559
 30
0.0
 11
3226.567397
 21
4109.527559
 31
0.0
  0
LINE
  8
JISSEN
 10
2816.567397
 20
4124.527559
 30
0.0
 11
2821.567397
 21
4109.527559
 31
0.0
  0
LINE
  8
JISSEN
 10
3226.567397
 20
3979.527559
 30
0.0
 11
2751.567397
 21
3979.527559
 31
0.0
  0
LINE
  8
JISSEN
 10
3701.567397
 20
4124.527559
 30
0.0
 11
3701.567397
 21
3979.527559
 31
0.0
  0
LINE
  8
JISSEN
 10
2751.567397
 20
4124.527559
 30
0.0
 11
3226.567397
 21
4124.527559
 31
0.0
  0
LINE
  8
JISSEN
 10
2751.567397
 20
4124.527559
 30
0.0
 11
2751.567397
 21
4124.527559
 31
0.0
  0
LINE
  8
JISSEN
 10
2751.567397
 20
3979.527559
 30
0.0
 11
2751.567397
 21
4124.527559
 31
0.0
  0
LINE
  8
ITTEN
 10
3226.567397
 20
4174.527559
 30
0.0
 11
3226.567397
 21
3929.527559
 31
0.0
  0
LINE
  8
ITTEN
 10
7351.567397
 20
2754.110969
 30
0.0
 11
6301.567397
 21
2754.110969
 31
0.0
  0
LINE
  8
ITTEN
 10
6826.567397
 20
3279.110969
 30
0.0
 11
6826.567397
 21
2229.110969
 31
0.0
  0
CIRCLE
  8
JISSEN
 10
6826.567397
 20
2754.110969
 30
0.0
 40
405.0
  0
CIRCLE
  8
JISSEN
 10
6826.567397
 20
2754.110969
 30
0.0
 40
410.0
  0
CIRCLE
  8
JISSEN
 10
6826.567397
 20
2754.110969
 30
0.0
 40
410.0
  0
CIRCLE
  8
JISSEN
 10
6826.567397
 20
2754.110969
 30
0.0
 40
475.0
  0
TEXT
  8
SUNPOU
 10
6740.853126
 20
3750.731551
 30
0.0
 40
60.0
  1
950
  7
K
 72
     1
 11
6826.567412
 21
3750.731551
 31
0.0
  0
INSERT
  8
SUNPOU
  2
ARROWANG
 10
7301.567397
 20
3705.731551
 30
0.0
 41
30.0
 42
30.0
 43
30.0
  0
INSERT
  8
SUNPOU
  2
ARROWANG
 10
6351.567397
 20
3705.731551
 30
0.0
 41
30.0
 42
30.0
 50
180.0
 43
30.0
  0
LINE
  8
SUNPOU
 10
6351.567397
 20
3705.731551
 30
0.0
 11
7301.567397
 21
3705.731551
 31
0.0
  0
LINE
  8
SUNPOU
 10
7301.567397
 20
3949.527559
 30
0.0
 11
7301.567397
 21
3675.731551
 31
0.0
  0
LINE
  8
SUNPOU
 10
6351.567397
 20
3949.527559
 30
0.0
 11
6351.567397
 21
3675.731551
 31
0.0
  0
LINE
  8
JISSEN
 10
6826.567397
 20
4124.527559
 30
0.0
 11
7301.567397
 21
4124.527559
 31
0.0
  0
LINE
  8
JISSEN
 10
6826.567397
 20
3979.527559
 30
0.0
 11
7301.567397
 21
3979.527559
 31
0.0
  0
TEXT
  8
SUNPOU
 10
7668.952192
 20
3915.490641
 30
0.0
 40
60.0
  1
130
 50
90.0
  7
K
 72
     1
 11
7668.952192
 21
4005.490641
 31
0.0
  0
INSERT
  8
SUNPOU
  2
ARROWANG
 10
7705.600792
 20
4109.527559
 30
0.0
 41
30.0
 42
30.0
 50
90.0
 43
30.0
  0
INSERT
  8
SUNPOU
  2
ARROWANG
 10
7705.600792
 20
3979.527559
 30
0.0
 41
30.0
 42
30.0
 50
270.0
 43
30.0
  0
LINE
  8
SUNPOU
 10
7705.600792
 20
3979.527559
 30
0.0
 11
7705.600792
 21
4109.527559
 31
0.0
  0
LINE
  8
SUNPOU
 10
7582.30621
 20
4109.527559
 30
0.0
 11
7735.600792
 21
4109.527559
 31
0.0
  0
LINE
  8
SUNPOU
 10
7301.567397
 20
3979.527559
 30
0.0
 11
7735.600792
 21
3979.527559
 31
0.0
  0
TEXT
  8
SUNPOU
 10
7507.30621
 20
4138.272375
 30
0.0
 40
60.0
  1
15
 50
90.0
  7
K
 72
     1
 11
7507.30621
 21
4199.700947
 31
0.0
  0
LINE
  8
SUNPOU
 10
7552.30621
 20
4109.527559
 30
0.0
 11
7552.306211
 21
4049.527559
 31
0.0
  0
LINE
  8
SUNPOU
 10
7552.30621
 20
4124.527559
 30
0.0
 11
7552.30621
 21
4259.700947
 31
0.0
  0
INSERT
  8
SUNPOU
  2
ARROWANG
 10
7552.30621
 20
4124.527559
 30
0.0
 41
30.0
 42
30.0
 50
270.0
 43
30.0
  0
INSERT
  8
SUNPOU
  2
ARROWANG
 10
7552.30621
 20
4109.527559
 30
0.0
 41
30.0
 42
30.0
 50
90.0
 43
30.0
  0
LINE
  8
SUNPOU
 10
7552.30621
 20
4109.527559
 30
0.0
 11
7552.30621
 21
4124.527559
 31
0.0
  0
LINE
  8
SUNPOU
 10
7449.98292
 20
4124.527559
 30
0.0
 11
7582.30621
 21
4124.527559
 31
0.0
  0
LINE
  8
SUNPOU
 10
7231.567397
 20
4109.527559
 30
0.0
 11
7582.30621
 21
4109.527559
 31
0.0
  0
LINE
  8
SUNPOU
 10
7419.98292
 20
4044.527559
 30
0.0
 11
7419.98292
 21
3984.527559
 31
0.0
  0
LINE
  8
SUNPOU
 10
7419.98292
 20
4124.527559
 30
0.0
 11
7419.98292
 21
4184.527559
 31
0.0
  0
TEXT
  8
SUNPOU
 10
7374.98292
 20
4028.644091
 30
0.0
 40
60.0
  1
80
 50
90.0
  7
K
 72
     1
 11
7374.98292
 21
4085.786949
 31
0.0
  0
INSERT
  8
SUNPOU
  2
ARROWANG
 10
7419.98292
 20
4124.527559
 30
0.0
 41
30.0
 42
30.0
 50
270.0
 43
30.0
  0
INSERT
  8
SUNPOU
  2
ARROWANG
 10
7419.98292
 20
4044.527559
 30
0.0
 41
30.0
 42
30.0
 50
90.0
 43
30.0
  0
LINE
  8
SUNPOU
 10
7419.98292
 20
4044.527559
 30
0.0
 11
7419.98292
 21
4124.527559
 31
0.0
  0
LINE
  8
SUNPOU
 10
7301.567397
 20
4124.527559
 30
0.0
 11
7449.98292
 21
4124.527559
 31
0.0
  0
LINE
  8
SUNPOU
 10
7301.567397
 20
4044.527559
 30
0.0
 11
7449.98292
 21
4044.527559
 31
0.0
  0
LINE
  8
ITTEN
 10
6451.567397
 20
4044.527559
 30
0.0
 11
6301.567397
 21
4044.527559
 31
0.0
  0
LINE
  8
JISSEN
 10
6351.567397
 20
4054.527559
 30
0.0
 11
6401.567397
 21
4054.527559
 31
0.0
  0
LINE
  8
JISSEN
 10
6401.567397
 20
4054.527559
 30
0.0
 11
6401.567397
 21
4034.527559
 31
0.0
  0
LINE
  8
JISSEN
 10
6401.567397
 20
4034.527559
 30
0.0
 11
6351.567397
 21
4034.527559
 31
0.0
  0
LINE
  8
HASEN
 10
7251.567397
 20
4034.527559
 30
0.0
 11
7301.567397
 21
4034.527559
 31
0.0
  0
LINE
  8
HASEN
 10
7251.567397
 20
4054.527559
 30
0.0
 11
7251.567397
 21
4034.527559
 31
0.0
  0
LINE
  8
HASEN
 10
7301.567397
 20
4054.527559
 30
0.0
 11
7251.567397
 21
4054.527559
 31
0.0
  0
LINE
  8
ITTEN
 10
7201.567397
 20
4044.527559
 30
0.0
 11
7351.567397
 21
4044.527559
 31
0.0
  0
LINE
  8
HASEN
 10
7231.567397
 20
4109.527559
 30
0.0
 11
6826.567397
 21
4109.527559
 31
0.0
  0
LINE
  8
JISSEN
 10
7236.567397
 20
4124.527559
 30
0.0
 11
7231.567397
 21
4109.527559
 31
0.0
  0
LINE
  8
JISSEN
 10
6421.567397
 20
4109.527559
 30
0.0
 11
6826.567397
 21
4109.527559
 31
0.0
  0
LINE
  8
JISSEN
 10
6416.567397
 20
4124.527559
 30
0.0
 11
6421.567397
 21
4109.527559
 31
0.0
  0
LINE
  8
JISSEN
 10
6826.567397
 20
3979.527559
 30
0.0
 11
6351.567397
 21
3979.527559
 31
0.0
  0
LINE
  8
JISSEN
 10
7301.567397
 20
4124.527559
 30
0.0
 11
7301.567397
 21
3979.527559
 31
0.0
  0
LINE
  8
JISSEN
 10
6351.567397
 20
4124.527559
 30
0.0
 11
6826.567397
 21
4124.527559
 31
0.0
  0
LINE
  8
JISSEN
 10
6351.567397
 20
4124.527559
 30
0.0
 11
6351.567397
 21
4124.527559
 31
0.0
  0
LINE
  8
JISSEN
 10
6351.567397
 20
3979.527559
 30
0.0
 11
6351.567397
 21
4124.527559
 31
0.0
  0
LINE
  8
ITTEN
 10
6826.567397
 20
4174.527559
 30
0.0
 11
6826.567397
 21
3929.527559
 31
0.0
  0
TEXT
  8
TEXT
 10
6596.163858
 20
4335.33785
 30
0.0
 40
100.0
  1
Ｍ０ＰＦ
  7
K
  0
TEXT
  8
SAISEN
 10
9224.639574
 20
459.219923
 30
0.0
 40
125.0
  1
1/25
  7
K
  0
POLYLINE
  8
WAKU
 66
     1
 10
0.0
 20
0.0
 30
0.0
 70
     1
  0
VERTEX
  8
WAKU
 10
0.0
 20
0.0
 30
0.0
  0
VERTEX
  8
WAKU
 10
9875.0
 20
0.0
 30
0.0
  0
VERTEX
  8
WAKU
 10
9875.0
 20
6825.0
 30
0.0
  0
VERTEX
  8
WAKU
 10
0.0
 20
6825.0
 30
0.0
  0
SEQEND
  8
WAKU
  0
ENDSEC
  0
EOF
