  0
SECTION
  2
HEADER
  9
$ACADVER
  1
AC1009
  9
$INSBASE
 10
0.0
 20
0.0
 30
0.0
  9
$EXTMIN
 10
0.0
 20
0.0
 30
0.0
  9
$EXTMAX
 10
9875.0
 20
6825.0
 30
0.0
  9
$LIMMIN
 10
0.0
 20
0.0
  9
$LIMMAX
 10
9875.0
 20
6825.0
  9
$ORTHOMODE
 70
     0
  9
$REGENMODE
 70
     1
  9
$FILLMODE
 70
     1
  9
$QTEXTMODE
 70
     0
  9
$MIRRTEXT
 70
     0
  9
$DRAGMODE
 70
     2
  9
$LTSCALE
 40
125.0
  9
$OSMODE
 70
    33
  9
$ATTMODE
 70
     1
  9
$TEXTSIZE
 40
150.0
  9
$TRACEWID
 40
0.05
  9
$TEXTSTYLE
  7
K
  9
$CLAYER
  8
TEXT
  9
$CELTYPE
  6
BYLAYER
  9
$CECOLOR
 62
   256
  9
$DIMSCALE
 40
25.0
  9
$DIMASZ
 40
1.5
  9
$DIMEXO
 40
1.0
  9
$DIMDLI
 40
6.0
  9
$DIMRND
 40
0.0
  9
$DIMDLE
 40
0.0
  9
$DIMEXE
 40
1.0
  9
$DIMTP
 40
495.0
  9
$DIMTM
 40
0.0
  9
$DIMTXT
 40
3.0
  9
$DIMCEN
 40
0.0
  9
$DIMTSZ
 40
0.0
  9
$DIMTOL
 70
     0
  9
$DIMLIM
 70
     0
  9
$DIMTIH
 70
     0
  9
$DIMTOH
 70
     0
  9
$DIMSE1
 70
     0
  9
$DIMSE2
 70
     0
  9
$DIMTAD
 70
     1
  9
$DIMZIN
 70
     8
  9
$DIMBLK
  1
ARROW
  9
$DIMASO
 70
     0
  9
$DIMSHO
 70
     0
  9
$DIMPOST
  1

  9
$DIMAPOST
  1

  9
$DIMALT
 70
     0
  9
$DIMALTD
 70
     2
  9
$DIMALTF
 40
25.4
  9
$DIMLFAC
 40
1.0
  9
$DIMTOFL
 70
     1
  9
$DIMTVP
 40
0.0
  9
$DIMTIX
 70
     1
  9
$DIMSOXD
 70
     0
  9
$DIMSAH
 70
     0
  9
$DIMBLK1
  1

  9
$DIMBLK2
  1

  9
$DIMSTYLE
  2
*UNNAMED
  9
$DIMCLRD
 70
     0
  9
$DIMCLRE
 70
     0
  9
$DIMCLRT
 70
     0
  9
$DIMTFAC
 40
1.0
  9
$DIMGAP
 40
0.09
  9
$LUNITS
 70
     2
  9
$LUPREC
 70
     2
  9
$AXISMODE
 70
     1
  9
$AXISUNIT
 10
100.0
 20
100.0
  9
$SKETCHINC
 40
0.1
  9
$FILLETRAD
 40
10.0
  9
$AUNITS
 70
     0
  9
$AUPREC
 70
     2
  9
$MENU
  1
d:stdgx5
  9
$ELEVATION
 40
0.0
  9
$PELEVATION
 40
0.0
  9
$THICKNESS
 40
0.0
  9
$LIMCHECK
 70
     0
  9
$BLIPMODE
 70
     1
  9
$CHAMFERA
 40
0.0
  9
$CHAMFERB
 40
0.0
  9
$SKPOLY
 70
     0
  9
$TDCREATE
 40
2449293.366585648
  9
$TDUPDATE
 40
2450245.664710648
  9
$TDINDWG
 40
0.2012847222
  9
$TDUSRTIMER
 40
0.2012847222
  9
$USRTIMER
 70
     1
  9
$ANGBASE
 50
0.0
  9
$ANGDIR
 70
     0
  9
$PDMODE
 70
     0
  9
$PDSIZE
 40
0.0
  9
$PLINEWID
 40
0.0
  9
$COORDS
 70
     2
  9
$SPLFRAME
 70
     0
  9
$SPLINETYPE
 70
     6
  9
$SPLINESEGS
 70
     8
  9
$ATTDIA
 70
     0
  9
$ATTREQ
 70
     1
  9
$HANDLING
 70
     0
  9
$HANDSEED
  5
0
  9
$SURFTAB1
 70
     6
  9
$SURFTAB2
 70
     6
  9
$SURFTYPE
 70
     6
  9
$SURFU
 70
     6
  9
$SURFV
 70
     6
  9
$UCSNAME
  2

  9
$UCSORG
 10
0.0
 20
0.0
 30
0.0
  9
$UCSXDIR
 10
1.0
 20
0.0
 30
0.0
  9
$UCSYDIR
 10
0.0
 20
1.0
 30
0.0
  9
$PUCSNAME
  2

  9
$PUCSORG
 10
0.0
 20
0.0
 30
0.0
  9
$PUCSXDIR
 10
1.0
 20
0.0
 30
0.0
  9
$PUCSYDIR
 10
0.0
 20
1.0
 30
0.0
  9
$USERI1
 70
     3
  9
$USERI2
 70
    33
  9
$USERI3
 70
     0
  9
$USERI4
 70
     1
  9
$USERI5
 70
     0
  9
$USERR1
 40
25.0
  9
$USERR2
 40
3.0
  9
$USERR3
 40
3.0
  9
$USERR4
 40
1.5
  9
$USERR5
 40
10.0
  9
$WORLDVIEW
 70
     1
  9
$SHADEDGE
 70
     3
  9
$SHADEDIF
 70
    70
  9
$TILEMODE
 70
     1
  9
$MAXACTVP
 70
    16
  9
$PINSBASE
 10
0.0
 20
0.0
 30
0.0
  9
$PLIMCHECK
 70
     0
  9
$PEXTMIN
 10
1.000000E+20
 20
1.000000E+20
 30
1.000000E+20
  9
$PEXTMAX
 10
-1.000000E+20
 20
-1.000000E+20
 30
-1.000000E+20
  9
$PLIMMIN
 10
0.0
 20
0.0
  9
$PLIMMAX
 10
12.0
 20
9.0
  9
$UNITMODE
 70
     0
  9
$VISRETAIN
 70
     0
  0
ENDSEC
  0
SECTION
  2
TABLES
  0
TABLE
  2
VPORT
 70
    10
  0
VPORT
  2
*ACTIVE
 70
     0
 10
0.0
 20
0.0
 11
1.0
 21
1.0
 12
5576.263114
 22
3412.5
 13
0.0
 23
0.0
 14
1.0
 24
1.0
 15
10.0
 25
10.0
 16
0.0
 26
0.0
 36
1.0
 17
0.0
 27
0.0
 37
0.0
 40
6825.0
 41
1.63407
 42
50.0
 43
0.0
 44
0.0
 50
0.0
 51
0.0
 71
     0
 72
   500
 73
     1
 74
     0
 75
     0
 76
     0
 77
     0
 78
     0
  0
VPORT
  2
2
 70
     0
 10
0.5
 20
0.0
 11
1.0
 21
1.0
 12
0.924031
 22
1.052651
 13
0.0
 23
0.0
 14
1.0
 24
1.0
 15
10.0
 25
10.0
 16
0.0
 26
0.0
 36
1.0
 17
0.0
 27
0.0
 37
0.0
 40
2.105302
 41
0.877814
 42
50.0
 43
0.0
 44
0.0
 50
0.0
 51
0.0
 71
     0
 72
   500
 73
     1
 74
     1
 75
     0
 76
     0
 77
     0
 78
     0
  0
VPORT
  2
2
 70
     0
 10
0.0
 20
0.0
 11
0.5
 21
1.0
 12
0.924031
 22
1.052651
 13
0.0
 23
0.0
 14
1.0
 24
1.0
 15
10.0
 25
10.0
 16
0.0
 26
0.0
 36
1.0
 17
0.0
 27
0.0
 37
0.0
 40
2.105302
 41
0.877814
 42
50.0
 43
0.0
 44
0.0
 50
0.0
 51
0.0
 71
     0
 72
   500
 73
     1
 74
     1
 75
     0
 76
     0
 77
     0
 78
     0
  0
VPORT
  2
3
 70
     0
 10
0.0
 20
0.5
 11
1.0
 21
1.0
 12
2.83217
 22
1.052651
 13
0.0
 23
0.0
 14
1.0
 24
1.0
 15
10.0
 25
10.0
 16
0.0
 26
0.0
 36
1.0
 17
0.0
 27
0.0
 37
0.0
 40
2.105302
 41
3.571429
 42
50.0
 43
0.0
 44
0.0
 50
0.0
 51
0.0
 71
     0
 72
   500
 73
     1
 74
     1
 75
     0
 76
     0
 77
     0
 78
     0
  0
VPORT
  2
3
 70
     0
 10
0.0
 20
0.0
 11
1.0
 21
0.5
 12
2.856742
 22
1.052651
 13
0.0
 23
0.0
 14
1.0
 24
1.0
 15
10.0
 25
10.0
 16
0.0
 26
0.0
 36
1.0
 17
0.0
 27
0.0
 37
0.0
 40
2.105302
 41
3.594771
 42
50.0
 43
0.0
 44
0.0
 50
0.0
 51
0.0
 71
     0
 72
   500
 73
     1
 74
     1
 75
     0
 76
     0
 77
     0
 78
     0
  0
VPORT
  2
4
 70
     0
 10
0.5
 20
0.0
 11
1.0
 21
0.5
 12
2.886858
 22
1.052651
 13
0.0
 23
0.0
 14
1.0
 24
1.0
 15
10.0
 25
10.0
 16
0.0
 26
0.0
 36
1.0
 17
0.0
 27
0.0
 37
0.0
 40
4.275207
 41
1.784314
 42
50.0
 43
0.0
 44
0.0
 50
0.0
 51
0.0
 71
     0
 72
   500
 73
     1
 74
     1
 75
     0
 76
     0
 77
     0
 78
     0
  0
VPORT
  2
4
 70
     0
 10
0.5
 20
0.5
 11
1.0
 21
1.0
 12
2.86209
 22
1.052651
 13
0.0
 23
0.0
 14
1.0
 24
1.0
 15
10.0
 25
10.0
 16
0.0
 26
0.0
 36
1.0
 17
0.0
 27
0.0
 37
0.0
 40
4.275207
 41
1.772727
 42
50.0
 43
0.0
 44
0.0
 50
0.0
 51
0.0
 71
     0
 72
   500
 73
     1
 74
     1
 75
     0
 76
     0
 77
     0
 78
     0
  0
VPORT
  2
4
 70
     0
 10
0.0
 20
0.5
 11
0.5
 21
1.0
 12
2.86209
 22
1.052651
 13
0.0
 23
0.0
 14
1.0
 24
1.0
 15
10.0
 25
10.0
 16
0.0
 26
0.0
 36
1.0
 17
0.0
 27
0.0
 37
0.0
 40
4.275207
 41
1.772727
 42
50.0
 43
0.0
 44
0.0
 50
0.0
 51
0.0
 71
     0
 72
   500
 73
     1
 74
     1
 75
     0
 76
     0
 77
     0
 78
     0
  0
VPORT
  2
4
 70
     0
 10
0.0
 20
0.0
 11
0.5
 21
0.5
 12
2.886858
 22
1.052651
 13
0.0
 23
0.0
 14
1.0
 24
1.0
 15
10.0
 25
10.0
 16
0.0
 26
0.0
 36
1.0
 17
0.0
 27
0.0
 37
0.0
 40
4.275207
 41
1.784314
 42
50.0
 43
0.0
 44
0.0
 50
0.0
 51
0.0
 71
     0
 72
   500
 73
     1
 74
     1
 75
     0
 76
     0
 77
     0
 78
     0
  0
ENDTAB
  0
TABLE
  2
LTYPE
 70
     5
  0
LTYPE
  2
CONTINUOUS
 70
    64
  3
実線
 72
    65
 73
     0
 40
0.0
  0
LTYPE
  2
DASHED
 70
    64
  3
__ __ __ __ __ __ __ __ __ __ __ __ __ __ __
 72
    65
 73
     2
 40
0.75
 49
0.5
 49
-0.25
  0
LTYPE
  2
CENTER
 70
    64
  3
____ _ ____ _ ____ _ ____ _ ____ _ ____ _ ____
 72
    65
 73
     4
 40
2.0
 49
1.25
 49
-0.25
 49
0.25
 49
-0.25
  0
LTYPE
  2
PHANTOM
 70
    64
  3
_____ _ _ _____ _ _ _____ _ _ _____ _ _ ____
 72
    65
 73
     6
 40
2.5
 49
1.25
 49
-0.25
 49
0.25
 49
-0.25
 49
0.25
 49
-0.25
  0
LTYPE
  2
HIDDEN
 70
    64
  3
_ _ _ _ _ _ _ _ _ _ _ _ _ _ _ _ _ _ _ _ _ _ _
 72
    65
 73
     2
 40
0.375
 49
0.25
 49
-0.125
  0
ENDTAB
  0
TABLE
  2
LAYER
 70
    14
  0
LAYER
  2
0
 70
     0
 62
     7
  6
CONTINUOUS
  0
LAYER
  2
HASEN
 70
    64
 62
     2
  6
DASHED
  0
LAYER
  2
ITTEN
 70
    64
 62
     1
  6
CENTER
  0
LAYER
  2
SUNPOU
 70
    64
 62
     3
  6
CONTINUOUS
  0
LAYER
  2
TEXT
 70
    64
 62
     3
  6
CONTINUOUS
  0
LAYER
  2
SAISEN
 70
    64
 62
     4
  6
CONTINUOUS
  0
LAYER
  2
JISSEN
 70
    64
 62
     7
  6
CONTINUOUS
  0
LAYER
  2
WAKU
 70
    64
 62
    -5
  6
CONTINUOUS
  0
ENDTAB
  0
TABLE
  2
STYLE
 70
     2
  0
STYLE
  2
STANDARD
 70
     0
 40
0.0
 41
1.0
 50
0.0
 71
     0
 42
0.2
  3
ROMANS
  4
EXTFONT
  0
STYLE
  2
K
 70
    64
 40
0.0
 41
1.0
 50
0.0
 71
     0
 42
150.0
  3
ROMANS
  4
EXTFONT
  0
ENDTAB
  0
TABLE
  2
VIEW
 70
     0
  0
ENDTAB
  0
TABLE
  2
UCS
 70
     0
  0
ENDTAB
  0
TABLE
  2
APPID
 70
     1
  0
APPID
  2
ACAD
 70
    64
  0
ENDTAB
  0
TABLE
  2
DIMSTYLE
 70
     0
  0
ENDTAB
  0
ENDSEC
  0
SECTION
  2
BLOCKS
  0
BLOCK
  8
SUNPOU
  2
ARROWANG
 70
    64
 10
0.0
 20
0.0
 30
0.0
  3
ARROWANG
  0
LINE
  8
SUNPOU
 10
0.0
 20
0.0
 30
0.0
 11
-1.5
 21
0.401924
 31
0.0
  0
LINE
  8
SUNPOU
 10
0.0
 20
0.0
 30
0.0
 11
-1.5
 21
-0.401924
 31
0.0
  0
ENDBLK
  8
SUNPOU
  0
ENDSEC
  0
SECTION
  2
ENTITIES
  0
TEXT
  8
JISSEN
 10
2261.964305
 20
5902.398828
 30
0.0
 40
250.0
  1
組立マンホール構造図（内径７５０ｍｍ)
  7
K
  0
LINE
  8
ITTEN
 10
1832.191217
 20
2864.951474
 30
0.0
 11
1832.191217
 21
1864.951474
 31
0.0
  0
CIRCLE
  8
HASEN
 10
1832.191217
 20
2364.951474
 30
0.0
 40
375.0
  0
LINE
  8
HASEN
 10
2157.392986
 20
2053.89184
 30
0.0
 11
2122.104997
 21
2089.179829
 31
0.0
  0
LINE
  8
HASEN
 10
2107.962861
 20
2075.037694
 30
0.0
 11
2122.104997
 21
2089.179829
 31
0.0
  0
LINE
  8
HASEN
 10
2107.962861
 20
2075.037694
 30
0.0
 11
2143.250851
 21
2039.749704
 31
0.0
  0
LINE
  8
ITTEN
 10
2071.825185
 20
2125.317506
 30
0.0
 11
2177.891202
 21
2019.251489
 31
0.0
  0
LINE
  8
ITTEN
 10
1584.703843
 20
2612.438848
 30
0.0
 11
1478.637826
 21
2718.504865
 31
0.0
  0
LINE
  8
HASEN
 10
1556.419572
 20
2654.865254
 30
0.0
 11
1521.131583
 21
2690.153244
 31
0.0
  0
LINE
  8
HASEN
 10
1556.419572
 20
2654.865254
 30
0.0
 11
1542.277436
 21
2640.723119
 31
0.0
  0
LINE
  8
HASEN
 10
1506.989447
 20
2676.011108
 30
0.0
 11
1542.277436
 21
2640.723119
 31
0.0
  0
CIRCLE
  8
JISSEN
 10
1832.191217
 20
2364.951474
 30
0.0
 40
450.0
  0
LINE
  8
ITTEN
 10
1788.919555
 20
4056.08219
 30
0.0
 11
1835.462879
 21
3346.296495
 31
0.0
  0
LINE
  8
ITTEN
 10
3587.859736
 20
4056.001372
 30
0.0
 11
3636.522698
 21
3496.377313
 31
0.0
  0
TEXT
  8
TEXT
 10
5103.376104
 20
4406.072148
 30
0.0
 40
100.0
  1
Ｍ０Ｔ３０
  7
K
  0
TEXT
  8
TEXT
 10
3317.082016
 20
4414.297748
 30
0.0
 40
100.0
  1
Ｍ０Ｔ４５
  7
K
  0
TEXT
  8
TEXT
 10
1503.139504
 20
4416.370628
 30
0.0
 40
100.0
  1
Ｍ０Ｔ６０
  7
K
  0
LINE
  8
SUNPOU
 10
2282.191217
 20
3381.189343
 30
0.0
 11
2282.191217
 21
3089.630104
 31
0.0
  0
LINE
  8
SUNPOU
 10
1382.191217
 20
3381.189343
 30
0.0
 11
1382.191217
 21
3089.630104
 31
0.0
  0
LINE
  8
SUNPOU
 10
1457.191217
 20
3366.189343
 30
0.0
 11
1457.191217
 21
3230.117195
 31
0.0
  0
TEXT
  8
SUNPOU
 10
1362.548374
 20
3305.117195
 30
0.0
 40
60.0
  1
75
  7
K
 72
     1
 11
1419.691231
 21
3305.117195
 31
0.0
  0
TEXT
  8
SUNPOU
 10
1746.476931
 20
3305.117195
 30
0.0
 40
60.0
  1
750
  7
K
 72
     1
 11
1832.191217
 21
3305.117195
 31
0.0
  0
LINE
  8
SUNPOU
 10
2207.191217
 20
3366.189343
 30
0.0
 11
2207.191217
 21
3230.117195
 31
0.0
  0
TEXT
  8
SUNPOU
 10
2187.54836
 20
3305.117195
 30
0.0
 40
60.0
  1
75
  7
K
 72
     1
 11
2244.691217
 21
3305.117195
 31
0.0
  0
INSERT
  8
SUNPOU
  2
ARROWANG
 10
2282.191217
 20
3260.117195
 30
0.0
 41
30.0
 42
30.0
 43
30.0
  0
INSERT
  8
SUNPOU
  2
ARROWANG
 10
2207.191217
 20
3260.117195
 30
0.0
 41
30.0
 42
30.0
 50
180.0
 43
30.0
  0
LINE
  8
SUNPOU
 10
2207.191217
 20
3260.117195
 30
0.0
 11
2282.191217
 21
3260.117195
 31
0.0
  0
INSERT
  8
SUNPOU
  2
ARROWANG
 10
2207.191217
 20
3260.117195
 30
0.0
 41
30.0
 42
30.0
 43
30.0
  0
INSERT
  8
SUNPOU
  2
ARROWANG
 10
1457.191217
 20
3260.117195
 30
0.0
 41
30.0
 42
30.0
 50
180.0
 43
30.0
  0
LINE
  8
SUNPOU
 10
1457.191217
 20
3260.117195
 30
0.0
 11
2207.191217
 21
3260.117195
 31
0.0
  0
INSERT
  8
SUNPOU
  2
ARROWANG
 10
1457.191217
 20
3260.117195
 30
0.0
 41
30.0
 42
30.0
 43
30.0
  0
INSERT
  8
SUNPOU
  2
ARROWANG
 10
1382.191217
 20
3260.117195
 30
0.0
 41
30.0
 42
30.0
 50
180.0
 43
30.0
  0
LINE
  8
SUNPOU
 10
1382.191217
 20
3260.117195
 30
0.0
 11
1457.191217
 21
3260.117195
 31
0.0
  0
TEXT
  8
SUNPOU
 10
1748.605084
 20
3164.630104
 30
0.0
 40
60.0
  1
900
  7
K
 72
     1
 11
1834.319369
 21
3164.630104
 31
0.0
  0
INSERT
  8
SUNPOU
  2
ARROWANG
 10
1382.191217
 20
3119.630104
 30
0.0
 41
30.0
 42
30.0
 50
180.0
 43
30.0
  0
INSERT
  8
SUNPOU
  2
ARROWANG
 10
2282.191217
 20
3119.630104
 30
0.0
 41
30.0
 42
30.0
 43
30.0
  0
LINE
  8
SUNPOU
 10
1382.191217
 20
3119.630104
 30
0.0
 11
2282.191217
 21
3119.630104
 31
0.0
  0
LINE
  8
JISSEN
 10
2202.191217
 20
4006.189343
 30
0.0
 11
2282.191217
 21
3471.189343
 31
0.0
  0
LINE
  8
HASEN
 10
2092.191217
 20
3971.189343
 30
0.0
 11
2207.191217
 21
3396.189343
 31
0.0
  0
LINE
  8
JISSEN
 10
2132.191217
 20
3396.189343
 30
0.0
 11
1907.191217
 21
3396.189343
 31
0.0
  0
LINE
  8
JISSEN
 10
2132.191217
 20
3411.189343
 30
0.0
 11
2241.191217
 21
3411.189343
 31
0.0
  0
LINE
  8
SUNPOU
 10
3182.191217
 20
3531.189343
 30
0.0
 11
3182.191217
 21
3239.630104
 31
0.0
  0
LINE
  8
SUNPOU
 10
4082.191217
 20
3531.189343
 30
0.0
 11
4082.191217
 21
3239.630104
 31
0.0
  0
LINE
  8
SUNPOU
 10
3182.191217
 20
3269.630104
 30
0.0
 11
4082.191217
 21
3269.630104
 31
0.0
  0
INSERT
  8
SUNPOU
  2
ARROWANG
 10
4082.191217
 20
3269.630104
 30
0.0
 41
30.0
 42
30.0
 43
30.0
  0
INSERT
  8
SUNPOU
  2
ARROWANG
 10
3182.191217
 20
3269.630104
 30
0.0
 41
30.0
 42
30.0
 50
180.0
 43
30.0
  0
TEXT
  8
SUNPOU
 10
3548.605084
 20
3314.630104
 30
0.0
 40
60.0
  1
900
  7
K
 72
     1
 11
3634.319369
 21
3314.630104
 31
0.0
  0
LINE
  8
SUNPOU
 10
3182.191217
 20
3531.189343
 30
0.0
 11
3182.191217
 21
3380.117195
 31
0.0
  0
LINE
  8
SUNPOU
 10
3257.191217
 20
3516.189343
 30
0.0
 11
3257.191217
 21
3380.117195
 31
0.0
  0
LINE
  8
SUNPOU
 10
3182.191217
 20
3410.117195
 30
0.0
 11
3257.191217
 21
3410.117195
 31
0.0
  0
INSERT
  8
SUNPOU
  2
ARROWANG
 10
3182.191217
 20
3410.117195
 30
0.0
 41
30.0
 42
30.0
 50
180.0
 43
30.0
  0
INSERT
  8
SUNPOU
  2
ARROWANG
 10
3257.191217
 20
3410.117195
 30
0.0
 41
30.0
 42
30.0
 43
30.0
  0
TEXT
  8
SUNPOU
 10
3162.548374
 20
3455.117195
 30
0.0
 40
60.0
  1
75
  7
K
 72
     1
 11
3219.691231
 21
3455.117195
 31
0.0
  0
LINE
  8
SUNPOU
 10
3257.191217
 20
3410.117195
 30
0.0
 11
4007.191217
 21
3410.117195
 31
0.0
  0
LINE
  8
SUNPOU
 10
4007.191217
 20
3516.189343
 30
0.0
 11
4007.191217
 21
3380.117195
 31
0.0
  0
INSERT
  8
SUNPOU
  2
ARROWANG
 10
3257.191217
 20
3410.117195
 30
0.0
 41
30.0
 42
30.0
 50
180.0
 43
30.0
  0
INSERT
  8
SUNPOU
  2
ARROWANG
 10
4007.191217
 20
3410.117195
 30
0.0
 41
30.0
 42
30.0
 43
30.0
  0
TEXT
  8
SUNPOU
 10
3546.476931
 20
3455.117195
 30
0.0
 40
60.0
  1
750
  7
K
 72
     1
 11
3632.191217
 21
3455.117195
 31
0.0
  0
LINE
  8
SUNPOU
 10
4007.191217
 20
3410.117195
 30
0.0
 11
4082.191217
 21
3410.117195
 31
0.0
  0
LINE
  8
SUNPOU
 10
4082.191217
 20
3531.189343
 30
0.0
 11
4082.191217
 21
3380.117195
 31
0.0
  0
INSERT
  8
SUNPOU
  2
ARROWANG
 10
4007.191217
 20
3410.117195
 30
0.0
 41
30.0
 42
30.0
 50
180.0
 43
30.0
  0
INSERT
  8
SUNPOU
  2
ARROWANG
 10
4082.191217
 20
3410.117195
 30
0.0
 41
30.0
 42
30.0
 43
30.0
  0
TEXT
  8
SUNPOU
 10
3987.54836
 20
3455.117195
 30
0.0
 40
60.0
  1
75
  7
K
 72
     1
 11
4044.691217
 21
3455.117195
 31
0.0
  0
LINE
  8
HASEN
 10
3892.191217
 20
3971.189343
 30
0.0
 11
4007.191217
 21
3546.189343
 31
0.0
  0
LINE
  8
JISSEN
 10
4082.191217
 20
3621.189343
 30
0.0
 11
4002.191217
 21
4006.189343
 31
0.0
  0
LINE
  8
JISSEN
 10
3932.191217
 20
3546.189343
 30
0.0
 11
3707.191217
 21
3546.189343
 31
0.0
  0
LINE
  8
JISSEN
 10
3932.191217
 20
3561.189343
 30
0.0
 11
4041.191217
 21
3561.189343
 31
0.0
  0
TEXT
  8
SUNPOU
 10
5787.54836
 20
3605.117195
 30
0.0
 40
60.0
  1
75
  7
K
 72
     1
 11
5844.691217
 21
3605.117195
 31
0.0
  0
INSERT
  8
SUNPOU
  2
ARROWANG
 10
5882.191217
 20
3560.117195
 30
0.0
 41
30.0
 42
30.0
 43
30.0
  0
INSERT
  8
SUNPOU
  2
ARROWANG
 10
5807.191217
 20
3560.117195
 30
0.0
 41
30.0
 42
30.0
 50
180.0
 43
30.0
  0
LINE
  8
SUNPOU
 10
5882.191217
 20
3681.189343
 30
0.0
 11
5882.191217
 21
3530.117195
 31
0.0
  0
LINE
  8
SUNPOU
 10
5807.191217
 20
3560.117195
 30
0.0
 11
5882.191217
 21
3560.117195
 31
0.0
  0
TEXT
  8
SUNPOU
 10
5346.476931
 20
3605.117195
 30
0.0
 40
60.0
  1
750
  7
K
 72
     1
 11
5432.191217
 21
3605.117195
 31
0.0
  0
INSERT
  8
SUNPOU
  2
ARROWANG
 10
5807.191217
 20
3560.117195
 30
0.0
 41
30.0
 42
30.0
 43
30.0
  0
INSERT
  8
SUNPOU
  2
ARROWANG
 10
5057.191217
 20
3560.117195
 30
0.0
 41
30.0
 42
30.0
 50
180.0
 43
30.0
  0
LINE
  8
SUNPOU
 10
5807.191217
 20
3666.189343
 30
0.0
 11
5807.191217
 21
3530.117195
 31
0.0
  0
LINE
  8
SUNPOU
 10
5057.191217
 20
3560.117195
 30
0.0
 11
5807.191217
 21
3560.117195
 31
0.0
  0
TEXT
  8
SUNPOU
 10
4962.548374
 20
3605.117195
 30
0.0
 40
60.0
  1
75
  7
K
 72
     1
 11
5019.691231
 21
3605.117195
 31
0.0
  0
INSERT
  8
SUNPOU
  2
ARROWANG
 10
5057.191217
 20
3560.117195
 30
0.0
 41
30.0
 42
30.0
 43
30.0
  0
INSERT
  8
SUNPOU
  2
ARROWANG
 10
4982.191217
 20
3560.117195
 30
0.0
 41
30.0
 42
30.0
 50
180.0
 43
30.0
  0
LINE
  8
SUNPOU
 10
4982.191217
 20
3560.117195
 30
0.0
 11
5057.191217
 21
3560.117195
 31
0.0
  0
LINE
  8
SUNPOU
 10
5057.191217
 20
3666.189343
 30
0.0
 11
5057.191217
 21
3530.117195
 31
0.0
  0
LINE
  8
SUNPOU
 10
4982.191217
 20
3681.189343
 30
0.0
 11
4982.191217
 21
3530.117195
 31
0.0
  0
TEXT
  8
SUNPOU
 10
5348.605084
 20
3464.630104
 30
0.0
 40
60.0
  1
900
  7
K
 72
     1
 11
5434.319369
 21
3464.630104
 31
0.0
  0
INSERT
  8
SUNPOU
  2
ARROWANG
 10
4982.191217
 20
3419.630104
 30
0.0
 41
30.0
 42
30.0
 50
180.0
 43
30.0
  0
INSERT
  8
SUNPOU
  2
ARROWANG
 10
5882.191217
 20
3419.630104
 30
0.0
 41
30.0
 42
30.0
 43
30.0
  0
LINE
  8
SUNPOU
 10
4982.191217
 20
3419.630104
 30
0.0
 11
5882.191217
 21
3419.630104
 31
0.0
  0
LINE
  8
SUNPOU
 10
5882.191217
 20
3681.189343
 30
0.0
 11
5882.191217
 21
3389.630104
 31
0.0
  0
LINE
  8
SUNPOU
 10
4982.191217
 20
3681.189343
 30
0.0
 11
4982.191217
 21
3389.630104
 31
0.0
  0
LINE
  8
ITTEN
 10
5385.79265
 20
4055.778236
 30
0.0
 11
5438.589784
 21
3646.600449
 31
0.0
  0
LINE
  8
HASEN
 10
5807.191217
 20
3696.189343
 30
0.0
 11
5692.191217
 21
3971.189343
 31
0.0
  0
LINE
  8
JISSEN
 10
5882.191217
 20
3771.189343
 30
0.0
 11
5802.191217
 21
4006.189343
 31
0.0
  0
LINE
  8
JISSEN
 10
5657.191217
 20
3696.189343
 30
0.0
 11
5507.191217
 21
3696.189343
 31
0.0
  0
LINE
  8
JISSEN
 10
5657.191217
 20
3711.189343
 30
0.0
 11
5841.191217
 21
3711.189343
 31
0.0
  0
TEXT
  8
TEXT
 10
7884.626262
 20
4520.966856
 30
0.0
 40
100.0
  1
Ｍ０ＴＰ
  7
K
  0
CIRCLE
  8
JISSEN
 10
8132.191217
 20
2364.951474
 30
0.0
 40
450.0
  0
TEXT
  8
SUNPOU
 10
8414.691231
 20
3750.731551
 30
0.0
 40
60.0
  1
155
  7
K
 72
     1
 11
8504.691231
 21
3750.731551
 31
0.0
  0
INSERT
  8
SUNPOU
  2
ARROWANG
 10
8582.191217
 20
3705.731551
 30
0.0
 41
30.0
 42
30.0
 43
30.0
  0
INSERT
  8
SUNPOU
  2
ARROWANG
 10
8427.191217
 20
3705.731551
 30
0.0
 41
30.0
 42
30.0
 50
180.0
 43
30.0
  0
LINE
  8
SUNPOU
 10
8427.191217
 20
3705.731551
 30
0.0
 11
8582.191217
 21
3705.731551
 31
0.0
  0
LINE
  8
SUNPOU
 10
8582.191217
 20
3831.189343
 30
0.0
 11
8582.191217
 21
3675.731551
 31
0.0
  0
LINE
  8
SUNPOU
 10
8427.191217
 20
3675.731551
 30
0.0
 11
8427.191217
 21
3675.731551
 31
0.0
  0
TEXT
  8
SUNPOU
 10
8397.191231
 20
4206.032778
 30
0.0
 40
60.0
  1
190
  7
K
 72
     1
 11
8487.191231
 21
4206.032778
 31
0.0
  0
INSERT
  8
SUNPOU
  2
ARROWANG
 10
8582.191217
 20
4161.032778
 30
0.0
 41
30.0
 42
30.0
 43
30.0
  0
INSERT
  8
SUNPOU
  2
ARROWANG
 10
8392.191217
 20
4161.032778
 30
0.0
 41
30.0
 42
30.0
 50
180.0
 43
30.0
  0
LINE
  8
SUNPOU
 10
8392.191217
 20
4161.032778
 30
0.0
 11
8582.191217
 21
4161.032778
 31
0.0
  0
LINE
  8
SUNPOU
 10
8582.191217
 20
4036.189343
 30
0.0
 11
8582.191217
 21
4191.032778
 31
0.0
  0
LINE
  8
SUNPOU
 10
8392.191217
 20
4131.032778
 30
0.0
 11
8392.191217
 21
4131.032778
 31
0.0
  0
TEXT
  8
SUNPOU
 10
8046.476946
 20
4363.952573
 30
0.0
 40
60.0
  1
900
  7
K
 72
     1
 11
8132.191231
 21
4363.952573
 31
0.0
  0
INSERT
  8
SUNPOU
  2
ARROWANG
 10
8582.191217
 20
4318.952573
 30
0.0
 41
30.0
 42
30.0
 43
30.0
  0
INSERT
  8
SUNPOU
  2
ARROWANG
 10
7682.191217
 20
4318.952573
 30
0.0
 41
30.0
 42
30.0
 50
180.0
 43
30.0
  0
LINE
  8
SUNPOU
 10
7682.191217
 20
4318.952573
 30
0.0
 11
8582.191217
 21
4318.952573
 31
0.0
  0
LINE
  8
SUNPOU
 10
8582.191217
 20
4036.189343
 30
0.0
 11
8582.191217
 21
4348.952573
 31
0.0
  0
LINE
  8
SUNPOU
 10
7682.191217
 20
4191.032778
 30
0.0
 11
7682.191217
 21
4348.952573
 31
0.0
  0
LINE
  8
JISSEN
 10
8432.191217
 20
3846.189343
 30
0.0
 11
8207.191217
 21
3846.189343
 31
0.0
  0
LINE
  8
JISSEN
 10
8432.191217
 20
3861.189343
 30
0.0
 11
8541.191217
 21
3861.189343
 31
0.0
  0
LINE
  8
JISSEN
 10
8432.191217
 20
4006.189343
 30
0.0
 11
8582.191217
 21
4006.189343
 31
0.0
  0
TEXT
  8
TEXT
 10
7876.492335
 20
4722.39689
 30
0.0
 40
120.0
  1
床版斜壁
  7
K
  0
TEXT
  8
TEXT
 10
3291.769831
 20
4741.953574
 30
0.0
 40
120.0
  1
斜　　壁
  7
K
  0
TEXT
  8
SUNPOU
 10
8005.04836
 20
3750.731551
 30
0.0
 40
60.0
  1
670
  7
K
 72
     1
 11
8092.191217
 21
3750.731551
 31
0.0
  0
INSERT
  8
SUNPOU
  2
ARROWANG
 10
8427.191217
 20
3705.731551
 30
0.0
 41
30.0
 42
30.0
 43
30.0
  0
INSERT
  8
SUNPOU
  2
ARROWANG
 10
7757.191217
 20
3705.731551
 30
0.0
 41
30.0
 42
30.0
 50
180.0
 43
30.0
  0
LINE
  8
SUNPOU
 10
8427.191217
 20
3816.189343
 30
0.0
 11
8427.191217
 21
3675.731551
 31
0.0
  0
LINE
  8
SUNPOU
 10
7757.191217
 20
3705.731551
 30
0.0
 11
8427.191217
 21
3705.731551
 31
0.0
  0
TEXT
  8
SUNPOU
 10
7662.548374
 20
3750.731551
 30
0.0
 40
60.0
  1
75
  7
K
 72
     1
 11
7719.691231
 21
3750.731551
 31
0.0
  0
INSERT
  8
SUNPOU
  2
ARROWANG
 10
7757.191217
 20
3705.731551
 30
0.0
 41
30.0
 42
30.0
 43
30.0
  0
INSERT
  8
SUNPOU
  2
ARROWANG
 10
7682.191217
 20
3705.731551
 30
0.0
 41
30.0
 42
30.0
 50
180.0
 43
30.0
  0
LINE
  8
SUNPOU
 10
7682.191217
 20
3705.731551
 30
0.0
 11
7757.191217
 21
3705.731551
 31
0.0
  0
LINE
  8
SUNPOU
 10
7757.191217
 20
3816.189343
 30
0.0
 11
7757.191217
 21
3675.731551
 31
0.0
  0
LINE
  8
SUNPOU
 10
7682.191217
 20
3831.189343
 30
0.0
 11
7682.191217
 21
3675.731551
 31
0.0
  0
TEXT
  8
SUNPOU
 10
8005.048374
 20
4206.032778
 30
0.0
 40
60.0
  1
600
  7
K
 72
     1
 11
8092.191231
 21
4206.032778
 31
0.0
  0
INSERT
  8
SUNPOU
  2
ARROWANG
 10
8392.191217
 20
4161.032778
 30
0.0
 41
30.0
 42
30.0
 43
30.0
  0
INSERT
  8
SUNPOU
  2
ARROWANG
 10
7792.191217
 20
4161.032778
 30
0.0
 41
30.0
 42
30.0
 50
180.0
 43
30.0
  0
LINE
  8
SUNPOU
 10
7792.191217
 20
4161.032778
 30
0.0
 11
8392.191217
 21
4161.032778
 31
0.0
  0
LINE
  8
SUNPOU
 10
8392.191217
 20
4021.189343
 30
0.0
 11
8392.191217
 21
4191.032778
 31
0.0
  0
LINE
  8
SUNPOU
 10
7792.191217
 20
4131.032778
 30
0.0
 11
7792.191217
 21
4131.032778
 31
0.0
  0
TEXT
  8
SUNPOU
 10
7647.191231
 20
4206.032778
 30
0.0
 40
60.0
  1
110
  7
K
 72
     1
 11
7737.191231
 21
4206.032778
 31
0.0
  0
INSERT
  8
SUNPOU
  2
ARROWANG
 10
7792.191217
 20
4161.032778
 30
0.0
 41
30.0
 42
30.0
 43
30.0
  0
INSERT
  8
SUNPOU
  2
ARROWANG
 10
7682.191217
 20
4161.032778
 30
0.0
 41
30.0
 42
30.0
 50
180.0
 43
30.0
  0
LINE
  8
SUNPOU
 10
7682.191217
 20
4161.032778
 30
0.0
 11
7792.191217
 21
4161.032778
 31
0.0
  0
LINE
  8
SUNPOU
 10
7792.191217
 20
4021.189343
 30
0.0
 11
7792.191217
 21
4191.032778
 31
0.0
  0
LINE
  8
SUNPOU
 10
7682.191217
 20
4036.189343
 30
0.0
 11
7682.191217
 21
4191.032778
 31
0.0
  0
TEXT
  8
SUNPOU
 10
7346.981603
 20
3843.689343
 30
0.0
 40
60.0
  1
145
 50
90.0
  7
K
 72
     1
 11
7346.981603
 21
3933.689343
 31
0.0
  0
INSERT
  8
SUNPOU
  2
ARROWANG
 10
7391.981603
 20
4006.189343
 30
0.0
 41
30.0
 42
30.0
 50
90.0
 43
30.0
  0
INSERT
  8
SUNPOU
  2
ARROWANG
 10
7391.981603
 20
3861.189343
 30
0.0
 41
30.0
 42
30.0
 50
270.0
 43
30.0
  0
LINE
  8
SUNPOU
 10
7391.981603
 20
3861.189343
 30
0.0
 11
7391.981603
 21
4006.189343
 31
0.0
  0
LINE
  8
SUNPOU
 10
7547.980097
 20
4006.189343
 30
0.0
 11
7361.981603
 21
4006.189343
 31
0.0
  0
LINE
  8
SUNPOU
 10
7549.655759
 20
3861.189343
 30
0.0
 11
7361.981603
 21
3861.189343
 31
0.0
  0
TEXT
  8
SUNPOU
 10
7534.655759
 20
3718.760771
 30
0.0
 40
60.0
  1
15
 50
90.0
  7
K
 72
     1
 11
7534.655759
 21
3780.189343
 31
0.0
  0
LINE
  8
SUNPOU
 10
7579.655759
 20
3861.189343
 30
0.0
 11
7579.655759
 21
3921.189343
 31
0.0
  0
LINE
  8
SUNPOU
 10
7579.655759
 20
3846.189343
 30
0.0
 11
7579.655759
 21
3714.189343
 31
0.0
  0
INSERT
  8
SUNPOU
  2
ARROWANG
 10
7579.655759
 20
3861.189343
 30
0.0
 41
30.0
 42
30.0
 50
270.0
 43
30.0
  0
INSERT
  8
SUNPOU
  2
ARROWANG
 10
7579.655759
 20
3846.189343
 30
0.0
 41
30.0
 42
30.0
 50
90.0
 43
30.0
  0
LINE
  8
SUNPOU
 10
7579.655759
 20
3846.189343
 30
0.0
 11
7579.655759
 21
3861.189343
 31
0.0
  0
LINE
  8
SUNPOU
 10
7652.191217
 20
3861.189343
 30
0.0
 11
7549.655759
 21
3861.189343
 31
0.0
  0
LINE
  8
SUNPOU
 10
7702.191217
 20
3846.189343
 30
0.0
 11
7549.655759
 21
3846.189343
 31
0.0
  0
TEXT
  8
SUNPOU
 10
7532.980097
 20
4010.760771
 30
0.0
 40
60.0
  1
15
 50
90.0
  7
K
 72
     1
 11
7532.980097
 21
4072.189343
 31
0.0
  0
LINE
  8
SUNPOU
 10
7577.980097
 20
3991.189343
 30
0.0
 11
7577.980098
 21
3931.189343
 31
0.0
  0
LINE
  8
SUNPOU
 10
7577.980097
 20
4006.189343
 30
0.0
 11
7577.980097
 21
4138.189343
 31
0.0
  0
INSERT
  8
SUNPOU
  2
ARROWANG
 10
7577.980097
 20
4006.189343
 30
0.0
 41
30.0
 42
30.0
 50
270.0
 43
30.0
  0
INSERT
  8
SUNPOU
  2
ARROWANG
 10
7577.980097
 20
3991.189343
 30
0.0
 41
30.0
 42
30.0
 50
90.0
 43
30.0
  0
LINE
  8
SUNPOU
 10
7577.980097
 20
3991.189343
 30
0.0
 11
7577.980097
 21
4006.189343
 31
0.0
  0
LINE
  8
SUNPOU
 10
7652.191217
 20
4006.189343
 30
0.0
 11
7547.980097
 21
4006.189343
 31
0.0
  0
LINE
  8
SUNPOU
 10
7736.191217
 20
3991.189343
 30
0.0
 11
7547.980097
 21
3991.189343
 31
0.0
  0
LINE
  8
HASEN
 10
8392.191217
 20
3971.189343
 30
0.0
 11
8427.191217
 21
3846.189343
 31
0.0
  0
LINE
  8
JISSEN
 10
7757.191217
 20
3846.189343
 30
0.0
 11
7792.191217
 21
3971.189343
 31
0.0
  0
LINE
  8
JISSEN
 10
7682.191217
 20
4006.189343
 30
0.0
 11
7682.191217
 21
3861.189343
 31
0.0
  0
LINE
  8
ITTEN
 10
8132.191217
 20
4056.189343
 30
0.0
 11
8132.191217
 21
3811.189343
 31
0.0
  0
LINE
  8
ITTEN
 10
8092.191217
 20
4056.189343
 30
0.0
 11
8092.191217
 21
3811.189343
 31
0.0
  0
TEXT
  8
SUNPOU
 10
8667.995785
 20
3910.046485
 30
0.0
 40
60.0
  1
40
 50
90.0
  7
K
 72
     1
 11
8667.995785
 21
3967.189343
 31
0.0
  0
LINE
  8
SUNPOU
 10
8712.995785
 20
3901.189343
 30
0.0
 11
8712.995785
 21
4033.189343
 31
0.0
  0
LINE
  8
JISSEN
 10
7682.191217
 20
3861.189343
 30
0.0
 11
7723.191217
 21
3861.189343
 31
0.0
  0
LINE
  8
JISSEN
 10
7723.191217
 20
3861.189343
 30
0.0
 11
7732.191217
 21
3846.189343
 31
0.0
  0
LINE
  8
JISSEN
 10
7732.191217
 20
3846.189343
 30
0.0
 11
8207.191217
 21
3846.189343
 31
0.0
  0
LINE
  8
JISSEN
 10
8582.191217
 20
3861.189343
 30
0.0
 11
8541.191217
 21
3861.189343
 31
0.0
  0
LINE
  8
JISSEN
 10
8541.191217
 20
3861.189343
 30
0.0
 11
8532.191217
 21
3846.189343
 31
0.0
  0
LINE
  8
JISSEN
 10
8532.191217
 20
3846.189343
 30
0.0
 11
8432.191217
 21
3846.189343
 31
0.0
  0
LINE
  8
JISSEN
 10
8132.191217
 20
3861.189343
 30
0.0
 11
8432.191217
 21
3861.189343
 31
0.0
  0
LINE
  8
JISSEN
 10
8582.191217
 20
3861.189343
 30
0.0
 11
8582.191217
 21
4006.189343
 31
0.0
  0
LINE
  8
SUNPOU
 10
8712.995785
 20
3861.189343
 30
0.0
 11
8712.995785
 21
3901.189343
 31
0.0
  0
INSERT
  8
SUNPOU
  2
ARROWANG
 10
8712.995785
 20
3861.189343
 30
0.0
 41
30.0
 42
30.0
 50
90.0
 43
30.0
  0
INSERT
  8
SUNPOU
  2
ARROWANG
 10
8712.995785
 20
3901.189343
 30
0.0
 41
30.0
 42
30.0
 50
270.0
 43
30.0
  0
LINE
  8
SUNPOU
 10
8712.995785
 20
3861.189343
 30
0.0
 11
8712.995786
 21
3801.189343
 31
0.0
  0
LINE
  8
SUNPOU
 10
8451.283859
 20
3901.189343
 30
0.0
 11
8742.995785
 21
3901.189343
 31
0.0
  0
LINE
  8
SUNPOU
 10
8612.191217
 20
3861.189343
 30
0.0
 11
8742.995785
 21
3861.189343
 31
0.0
  0
CIRCLE
  8
JISSEN
 10
8421.283859
 20
3901.189343
 30
0.0
 40
10.0
  0
CIRCLE
  8
JISSEN
 10
7843.098574
 20
3901.189343
 30
0.0
 40
10.0
  0
LINE
  8
HASEN
 10
8418.191217
 20
3991.189343
 30
0.0
 11
8092.191217
 21
3991.189343
 31
0.0
  0
LINE
  8
HASEN
 10
8424.191217
 20
4006.189343
 30
0.0
 11
8418.191217
 21
3991.189343
 31
0.0
  0
LINE
  8
JISSEN
 10
7766.191217
 20
3991.189343
 30
0.0
 11
8092.191217
 21
3991.189343
 31
0.0
  0
LINE
  8
JISSEN
 10
7760.191217
 20
4006.189343
 30
0.0
 11
7766.191217
 21
3991.189343
 31
0.0
  0
LINE
  8
JISSEN
 10
7682.191217
 20
4006.189343
 30
0.0
 11
8432.191217
 21
4006.189343
 31
0.0
  0
LINE
  8
HASEN
 10
8392.191217
 20
3991.189343
 30
0.0
 11
8392.191217
 21
3971.189343
 31
0.0
  0
LINE
  8
JISSEN
 10
7792.191217
 20
3991.189343
 30
0.0
 11
7792.191217
 21
3971.189343
 31
0.0
  0
LINE
  8
ITTEN
 10
8092.191217
 20
2824.951474
 30
0.0
 11
8092.191217
 21
1904.951474
 31
0.0
  0
LINE
  8
ITTEN
 10
7632.191217
 20
2364.951474
 30
0.0
 11
8552.191217
 21
2364.951474
 31
0.0
  0
LINE
  8
ITTEN
 10
8474.10842
 20
2144.451474
 30
0.0
 11
8368.453321
 21
2205.451474
 31
0.0
  0
CIRCLE
  8
JISSEN
 10
8421.28087
 20
2174.951474
 30
0.0
 40
11.0
  0
LINE
  8
ITTEN
 10
8451.78087
 20
2227.779024
 30
0.0
 11
8390.78087
 21
2122.123924
 31
0.0
  0
LINE
  8
ITTEN
 10
7710.274014
 20
2144.451474
 30
0.0
 11
7815.929113
 21
2205.451474
 31
0.0
  0
CIRCLE
  8
JISSEN
 10
7763.101563
 20
2174.951474
 30
0.0
 40
11.0
  0
LINE
  8
ITTEN
 10
7793.601563
 20
2122.123924
 30
0.0
 11
7732.601563
 21
2227.779024
 31
0.0
  0
POINT
  8
JISSEN
 10
8092.191217
 20
2365.951474
 30
0.0
  0
LINE
  8
ITTEN
 10
8092.191217
 20
2805.951474
 30
0.0
 11
8092.191217
 21
2683.951474
 31
0.0
  0
LINE
  8
ITTEN
 10
8031.191217
 20
2744.951474
 30
0.0
 11
8153.191217
 21
2744.951474
 31
0.0
  0
CIRCLE
  8
JISSEN
 10
8092.191217
 20
2744.951474
 30
0.0
 40
11.0
  0
CIRCLE
  8
JISSEN
 10
8092.191217
 20
2364.951474
 30
0.0
 40
326.0
  0
CIRCLE
  8
JISSEN
 10
8092.191217
 20
2364.951474
 30
0.0
 40
300.0
  0
CIRCLE
  8
JISSEN
 10
8092.191217
 20
2364.951474
 30
0.0
 40
332.0
  0
LINE
  8
ITTEN
 10
8371.825185
 20
2125.317506
 30
0.0
 11
8477.891202
 21
2019.251489
 31
0.0
  0
LINE
  8
HASEN
 10
8407.962861
 20
2075.037694
 30
0.0
 11
8443.250851
 21
2039.749704
 31
0.0
  0
LINE
  8
HASEN
 10
8407.962861
 20
2075.037694
 30
0.0
 11
8422.104997
 21
2089.179829
 31
0.0
  0
LINE
  8
HASEN
 10
8457.392986
 20
2053.89184
 30
0.0
 11
8422.104997
 21
2089.179829
 31
0.0
  0
LINE
  8
HASEN
 10
7806.989447
 20
2676.011108
 30
0.0
 11
7842.277436
 21
2640.723119
 31
0.0
  0
LINE
  8
HASEN
 10
7856.419572
 20
2654.865254
 30
0.0
 11
7842.277436
 21
2640.723119
 31
0.0
  0
LINE
  8
HASEN
 10
7856.419572
 20
2654.865254
 30
0.0
 11
7821.131583
 21
2690.153244
 31
0.0
  0
LINE
  8
ITTEN
 10
7884.703843
 20
2612.438848
 30
0.0
 11
7778.637826
 21
2718.504865
 31
0.0
  0
TEXT
  8
SUNPOU
 10
4744.189459
 20
3772.975057
 30
0.0
 40
60.0
  1
295
 50
90.0
  7
K
 72
     1
 11
4744.189459
 21
3858.689343
 31
0.0
  0
INSERT
  8
SUNPOU
  2
ARROWANG
 10
4789.189459
 20
4006.189343
 30
0.0
 41
30.0
 42
30.0
 50
90.0
 43
30.0
  0
INSERT
  8
SUNPOU
  2
ARROWANG
 10
4789.189459
 20
3711.189343
 30
0.0
 41
30.0
 42
30.0
 50
270.0
 43
30.0
  0
LINE
  8
SUNPOU
 10
4789.189459
 20
3711.189343
 30
0.0
 11
4789.189459
 21
4006.189343
 31
0.0
  0
LINE
  8
SUNPOU
 10
4952.191217
 20
4006.189343
 30
0.0
 11
4759.189459
 21
4006.189343
 31
0.0
  0
LINE
  8
SUNPOU
 10
4952.191217
 20
3711.189343
 30
0.0
 11
4759.189459
 21
3711.189343
 31
0.0
  0
CIRCLE
  8
JISSEN
 10
5143.098574
 20
3751.189343
 30
0.0
 40
10.0
  0
CIRCLE
  8
JISSEN
 10
5721.283859
 20
3751.189343
 30
0.0
 40
10.0
  0
LINE
  8
SUNPOU
 10
5912.191217
 20
3711.189343
 30
0.0
 11
6151.913821
 21
3711.189343
 31
0.0
  0
LINE
  8
SUNPOU
 10
5912.191217
 20
3771.189343
 30
0.0
 11
6151.913821
 21
3771.189343
 31
0.0
  0
LINE
  8
SUNPOU
 10
5912.191217
 20
3711.189343
 30
0.0
 11
6042.995785
 21
3711.189343
 31
0.0
  0
LINE
  8
SUNPOU
 10
5751.283859
 20
3751.189343
 30
0.0
 11
6042.995785
 21
3751.189343
 31
0.0
  0
TEXT
  8
SUNPOU
 10
5967.995785
 20
3760.046485
 30
0.0
 40
60.0
  1
40
 50
90.0
  7
K
 72
     1
 11
5967.995785
 21
3817.189343
 31
0.0
  0
TEXT
  8
SUNPOU
 10
6076.913821
 20
3586.617914
 30
0.0
 40
60.0
  1
60
 50
90.0
  7
K
 72
     1
 11
6076.913821
 21
3645.189343
 31
0.0
  0
LINE
  8
SUNPOU
 10
6121.913821
 20
3771.189343
 30
0.0
 11
6121.913821
 21
3831.189343
 31
0.0
  0
LINE
  8
SUNPOU
 10
6121.913821
 20
3711.189343
 30
0.0
 11
6121.913821
 21
3579.189343
 31
0.0
  0
INSERT
  8
SUNPOU
  2
ARROWANG
 10
6121.913821
 20
3771.189343
 30
0.0
 41
30.0
 42
30.0
 50
270.0
 43
30.0
  0
INSERT
  8
SUNPOU
  2
ARROWANG
 10
6121.913821
 20
3711.189343
 30
0.0
 41
30.0
 42
30.0
 50
90.0
 43
30.0
  0
LINE
  8
SUNPOU
 10
6121.913821
 20
3711.189343
 30
0.0
 11
6121.913821
 21
3771.189343
 31
0.0
  0
LINE
  8
SUNPOU
 10
6012.995785
 20
3711.189343
 30
0.0
 11
6012.995786
 21
3651.189343
 31
0.0
  0
LINE
  8
SUNPOU
 10
6012.995785
 20
3751.189343
 30
0.0
 11
6012.995785
 21
3883.189343
 31
0.0
  0
INSERT
  8
SUNPOU
  2
ARROWANG
 10
6012.995785
 20
3751.189343
 30
0.0
 41
30.0
 42
30.0
 50
270.0
 43
30.0
  0
INSERT
  8
SUNPOU
  2
ARROWANG
 10
6012.995785
 20
3711.189343
 30
0.0
 41
30.0
 42
30.0
 50
90.0
 43
30.0
  0
LINE
  8
SUNPOU
 10
6012.995785
 20
3711.189343
 30
0.0
 11
6012.995785
 21
3751.189343
 31
0.0
  0
TEXT
  8
SUNPOU
 10
5657.191217
 20
4174.243728
 30
0.0
 40
60.0
  1
110
  7
K
 72
     1
 11
5747.191217
 21
4174.243728
 31
0.0
  0
INSERT
  8
SUNPOU
  2
ARROWANG
 10
5802.191217
 20
4129.243728
 30
0.0
 41
30.0
 42
30.0
 43
30.0
  0
INSERT
  8
SUNPOU
  2
ARROWANG
 10
5692.191217
 20
4129.243728
 30
0.0
 41
30.0
 42
30.0
 50
180.0
 43
30.0
  0
LINE
  8
SUNPOU
 10
5802.191217
 20
4036.189343
 30
0.0
 11
5802.191217
 21
4159.243728
 31
0.0
  0
LINE
  8
SUNPOU
 10
5692.191217
 20
4129.243728
 30
0.0
 11
5802.191217
 21
4129.243728
 31
0.0
  0
TEXT
  8
SUNPOU
 10
5305.04836
 20
4174.243728
 30
0.0
 40
60.0
  1
600
  7
K
 72
     1
 11
5392.191217
 21
4174.243728
 31
0.0
  0
INSERT
  8
SUNPOU
  2
ARROWANG
 10
5692.191217
 20
4129.243728
 30
0.0
 41
30.0
 42
30.0
 43
30.0
  0
INSERT
  8
SUNPOU
  2
ARROWANG
 10
5092.191217
 20
4129.243728
 30
0.0
 41
30.0
 42
30.0
 50
180.0
 43
30.0
  0
LINE
  8
SUNPOU
 10
5692.191217
 20
4021.189343
 30
0.0
 11
5692.191217
 21
4159.243728
 31
0.0
  0
LINE
  8
SUNPOU
 10
5092.191217
 20
4129.243728
 30
0.0
 11
5692.191217
 21
4129.243728
 31
0.0
  0
TEXT
  8
SUNPOU
 10
4947.191231
 20
4174.243728
 30
0.0
 40
60.0
  1
110
  7
K
 72
     1
 11
5037.191231
 21
4174.243728
 31
0.0
  0
INSERT
  8
SUNPOU
  2
ARROWANG
 10
5092.191217
 20
4129.243728
 30
0.0
 41
30.0
 42
30.0
 43
30.0
  0
INSERT
  8
SUNPOU
  2
ARROWANG
 10
4982.191217
 20
4129.243728
 30
0.0
 41
30.0
 42
30.0
 50
180.0
 43
30.0
  0
LINE
  8
SUNPOU
 10
4982.191217
 20
4129.243728
 30
0.0
 11
5092.191217
 21
4129.243728
 31
0.0
  0
LINE
  8
SUNPOU
 10
5092.191217
 20
4021.189343
 30
0.0
 11
5092.191217
 21
4159.243728
 31
0.0
  0
LINE
  8
SUNPOU
 10
4982.191217
 20
4036.189343
 30
0.0
 11
4982.191217
 21
4159.243728
 31
0.0
  0
TEXT
  8
SUNPOU
 10
5306.476946
 20
4296.785387
 30
0.0
 40
60.0
  1
820
  7
K
 72
     1
 11
5392.191231
 21
4296.785387
 31
0.0
  0
INSERT
  8
SUNPOU
  2
ARROWANG
 10
5802.191217
 20
4251.785387
 30
0.0
 41
30.0
 42
30.0
 43
30.0
  0
INSERT
  8
SUNPOU
  2
ARROWANG
 10
4982.191217
 20
4251.785387
 30
0.0
 41
30.0
 42
30.0
 50
180.0
 43
30.0
  0
LINE
  8
SUNPOU
 10
4982.191217
 20
4251.785387
 30
0.0
 11
5802.191217
 21
4251.785387
 31
0.0
  0
LINE
  8
SUNPOU
 10
5802.191217
 20
4036.189343
 30
0.0
 11
5802.191217
 21
4281.785387
 31
0.0
  0
LINE
  8
SUNPOU
 10
4982.191217
 20
4036.189343
 30
0.0
 11
4982.191217
 21
4281.785387
 31
0.0
  0
TEXT
  8
SUNPOU
 10
3605.538775
 20
3682.975057
 30
0.0
 40
60.0
  1
445
 50
90.0
  7
K
 72
     1
 11
3605.538775
 21
3768.689343
 31
0.0
  0
INSERT
  8
SUNPOU
  2
ARROWANG
 10
3650.538775
 20
3991.189343
 30
0.0
 41
30.0
 42
30.0
 50
90.0
 43
30.0
  0
INSERT
  8
SUNPOU
  2
ARROWANG
 10
3650.538775
 20
3546.189343
 30
0.0
 41
30.0
 42
30.0
 50
270.0
 43
30.0
  0
LINE
  8
SUNPOU
 10
3650.538775
 20
3546.189343
 30
0.0
 11
3650.538775
 21
3991.189343
 31
0.0
  0
LINE
  8
SUNPOU
 10
3625.941217
 20
3991.189343
 30
0.0
 11
3680.538775
 21
3991.189343
 31
0.0
  0
LINE
  8
SUNPOU
 10
3516.323889
 20
3546.189343
 30
0.0
 11
3680.538775
 21
3546.189343
 31
0.0
  0
TEXT
  8
SUNPOU
 10
3441.323889
 20
3725.475057
 30
0.0
 40
60.0
  1
230
 50
90.0
  7
K
 72
     1
 11
3441.323889
 21
3811.189343
 31
0.0
  0
INSERT
  8
SUNPOU
  2
ARROWANG
 10
3486.323889
 20
3926.189343
 30
0.0
 41
30.0
 42
30.0
 50
90.0
 43
30.0
  0
INSERT
  8
SUNPOU
  2
ARROWANG
 10
3486.323889
 20
3696.189343
 30
0.0
 41
30.0
 42
30.0
 50
270.0
 43
30.0
  0
LINE
  8
SUNPOU
 10
3418.485334
 20
3926.189343
 30
0.0
 11
3516.323889
 21
3926.189343
 31
0.0
  0
LINE
  8
SUNPOU
 10
3486.323889
 20
3696.189343
 30
0.0
 11
3486.323889
 21
3926.189343
 31
0.0
  0
TEXT
  8
SUNPOU
 10
3441.323889
 20
3531.189343
 30
0.0
 40
60.0
  1
150
 50
90.0
  7
K
 72
     1
 11
3441.323889
 21
3621.189343
 31
0.0
  0
INSERT
  8
SUNPOU
  2
ARROWANG
 10
3486.323889
 20
3696.189343
 30
0.0
 41
30.0
 42
30.0
 50
90.0
 43
30.0
  0
INSERT
  8
SUNPOU
  2
ARROWANG
 10
3486.323889
 20
3546.189343
 30
0.0
 41
30.0
 42
30.0
 50
270.0
 43
30.0
  0
LINE
  8
SUNPOU
 10
3486.323889
 20
3546.189343
 30
0.0
 11
3486.323889
 21
3696.189343
 31
0.0
  0
LINE
  8
SUNPOU
 10
3418.485334
 20
3696.189343
 30
0.0
 11
3516.323889
 21
3696.189343
 31
0.0
  0
LINE
  8
SUNPOU
 10
3418.485334
 20
3546.189343
 30
0.0
 11
3516.323889
 21
3546.189343
 31
0.0
  0
LINE
  8
ITTEN
 10
3253.485334
 20
3926.189343
 30
0.0
 11
3438.485334
 21
3926.189343
 31
0.0
  0
ARC
  8
JISSEN
 10
3378.485334
 20
3926.189343
 30
0.0
 40
10.0
 50
270.0
 51
90.0
  0
LINE
  8
JISSEN
 10
3378.485334
 20
3916.189343
 30
0.0
 11
3288.485334
 21
3916.189343
 31
0.0
  0
LINE
  8
JISSEN
 10
3378.485334
 20
3936.189343
 30
0.0
 11
3288.485334
 21
3936.189343
 31
0.0
  0
LINE
  8
ITTEN
 10
3234.544158
 20
3696.189343
 30
0.0
 11
3419.544158
 21
3696.189343
 31
0.0
  0
ARC
  8
JISSEN
 10
3359.544158
 20
3696.189343
 30
0.0
 40
10.0
 50
270.0
 51
90.0
  0
LINE
  8
JISSEN
 10
3359.544158
 20
3686.189343
 30
0.0
 11
3269.544158
 21
3686.189343
 31
0.0
  0
LINE
  8
JISSEN
 10
3359.544158
 20
3706.189343
 30
0.0
 11
3269.544158
 21
3706.189343
 31
0.0
  0
TEXT
  8
SUNPOU
 10
2950.354892
 20
3697.975057
 30
0.0
 40
60.0
  1
445
 50
90.0
  7
K
 72
     1
 11
2950.354892
 21
3783.689343
 31
0.0
  0
INSERT
  8
SUNPOU
  2
ARROWANG
 10
2995.354892
 20
4006.189343
 30
0.0
 41
30.0
 42
30.0
 50
90.0
 43
30.0
  0
INSERT
  8
SUNPOU
  2
ARROWANG
 10
2995.354892
 20
3561.189343
 30
0.0
 41
30.0
 42
30.0
 50
270.0
 43
30.0
  0
LINE
  8
SUNPOU
 10
2995.354892
 20
3561.189343
 30
0.0
 11
2995.354892
 21
4006.189343
 31
0.0
  0
LINE
  8
SUNPOU
 10
3152.191217
 20
4006.189343
 30
0.0
 11
2965.354892
 21
4006.189343
 31
0.0
  0
LINE
  8
SUNPOU
 10
3152.191217
 20
3561.189343
 30
0.0
 11
2965.354892
 21
3561.189343
 31
0.0
  0
TEXT
  8
SUNPOU
 10
1762.272176
 20
3607.975057
 30
0.0
 40
60.0
  1
595
 50
90.0
  7
K
 72
     1
 11
1762.272176
 21
3693.689343
 31
0.0
  0
INSERT
  8
SUNPOU
  2
ARROWANG
 10
1807.272176
 20
3991.189343
 30
0.0
 41
30.0
 42
30.0
 50
90.0
 43
30.0
  0
INSERT
  8
SUNPOU
  2
ARROWANG
 10
1807.272176
 20
3396.189343
 30
0.0
 41
30.0
 42
30.0
 50
270.0
 43
30.0
  0
LINE
  8
SUNPOU
 10
1807.272176
 20
3396.189343
 30
0.0
 11
1807.272176
 21
3991.189343
 31
0.0
  0
LINE
  8
SUNPOU
 10
1614.582521
 20
3991.189343
 30
0.0
 11
1837.272176
 21
3991.189343
 31
0.0
  0
LINE
  8
SUNPOU
 10
1706.570532
 20
3396.189343
 30
0.0
 11
1837.272176
 21
3396.189343
 31
0.0
  0
TEXT
  8
SUNPOU
 10
1631.570532
 20
3610.475057
 30
0.0
 40
60.0
  1
300
 50
90.0
  7
K
 72
     1
 11
1631.570532
 21
3696.189343
 31
0.0
  0
INSERT
  8
SUNPOU
  2
ARROWANG
 10
1676.570532
 20
3846.189343
 30
0.0
 41
30.0
 42
30.0
 50
90.0
 43
30.0
  0
INSERT
  8
SUNPOU
  2
ARROWANG
 10
1676.570532
 20
3546.189343
 30
0.0
 41
30.0
 42
30.0
 50
270.0
 43
30.0
  0
LINE
  8
SUNPOU
 10
1614.582521
 20
3846.189343
 30
0.0
 11
1706.570532
 21
3846.189343
 31
0.0
  0
LINE
  8
SUNPOU
 10
1676.570532
 20
3546.189343
 30
0.0
 11
1676.570532
 21
3846.189343
 31
0.0
  0
TEXT
  8
SUNPOU
 10
1631.570532
 20
3381.189343
 30
0.0
 40
60.0
  1
150
 50
90.0
  7
K
 72
     1
 11
1631.570532
 21
3471.189343
 31
0.0
  0
INSERT
  8
SUNPOU
  2
ARROWANG
 10
1676.570532
 20
3546.189343
 30
0.0
 41
30.0
 42
30.0
 50
90.0
 43
30.0
  0
INSERT
  8
SUNPOU
  2
ARROWANG
 10
1676.570532
 20
3396.189343
 30
0.0
 41
30.0
 42
30.0
 50
270.0
 43
30.0
  0
LINE
  8
SUNPOU
 10
1676.570532
 20
3396.189343
 30
0.0
 11
1676.570532
 21
3546.189343
 31
0.0
  0
LINE
  8
SUNPOU
 10
1614.582521
 20
3546.189343
 30
0.0
 11
1706.570532
 21
3546.189343
 31
0.0
  0
LINE
  8
SUNPOU
 10
1614.582521
 20
3396.189343
 30
0.0
 11
1706.570532
 21
3396.189343
 31
0.0
  0
ARC
  8
JISSEN
 10
1574.582521
 20
3846.189343
 30
0.0
 40
10.0
 50
270.0
 51
90.0
  0
LINE
  8
JISSEN
 10
1574.582521
 20
3836.189343
 30
0.0
 11
1484.582521
 21
3836.189343
 31
0.0
  0
LINE
  8
JISSEN
 10
1574.582521
 20
3856.189343
 30
0.0
 11
1484.582521
 21
3856.189343
 31
0.0
  0
LINE
  8
ITTEN
 10
1449.582521
 20
3846.189343
 30
0.0
 11
1634.582521
 21
3846.189343
 31
0.0
  0
LINE
  8
ITTEN
 10
1431.321652
 20
3546.189343
 30
0.0
 11
1616.321652
 21
3546.189343
 31
0.0
  0
ARC
  8
JISSEN
 10
1556.321652
 20
3546.189343
 30
0.0
 40
10.0
 50
270.0
 51
90.0
  0
LINE
  8
JISSEN
 10
1556.321652
 20
3536.189343
 30
0.0
 11
1466.321652
 21
3536.189343
 31
0.0
  0
LINE
  8
JISSEN
 10
1556.321652
 20
3556.189343
 30
0.0
 11
1466.321652
 21
3556.189343
 31
0.0
  0
LINE
  8
ITTEN
 10
5041.282126
 20
3846.189343
 30
0.0
 11
5226.282126
 21
3846.189343
 31
0.0
  0
LINE
  8
JISSEN
 10
5166.282126
 20
3856.189343
 30
0.0
 11
5076.282126
 21
3856.189343
 31
0.0
  0
LINE
  8
JISSEN
 10
5166.282126
 20
3836.189343
 30
0.0
 11
5076.282126
 21
3836.189343
 31
0.0
  0
ARC
  8
JISSEN
 10
5166.282126
 20
3846.189343
 30
0.0
 40
10.0
 50
270.0
 51
90.0
  0
CIRCLE
  8
JISSEN
 10
3343.098574
 20
3601.189343
 30
0.0
 40
10.0
  0
CIRCLE
  8
JISSEN
 10
3921.283859
 20
3601.189343
 30
0.0
 40
10.0
  0
LINE
  8
SUNPOU
 10
4112.191217
 20
3561.189343
 30
0.0
 11
4242.995785
 21
3561.189343
 31
0.0
  0
LINE
  8
SUNPOU
 10
3951.283859
 20
3601.189343
 30
0.0
 11
4242.995785
 21
3601.189343
 31
0.0
  0
LINE
  8
SUNPOU
 10
4212.995785
 20
3561.189343
 30
0.0
 11
4212.995785
 21
3601.189343
 31
0.0
  0
INSERT
  8
SUNPOU
  2
ARROWANG
 10
4212.995785
 20
3561.189343
 30
0.0
 41
30.0
 42
30.0
 50
90.0
 43
30.0
  0
INSERT
  8
SUNPOU
  2
ARROWANG
 10
4212.995785
 20
3601.189343
 30
0.0
 41
30.0
 42
30.0
 50
270.0
 43
30.0
  0
LINE
  8
SUNPOU
 10
4212.995785
 20
3601.189343
 30
0.0
 11
4212.995785
 21
3733.189343
 31
0.0
  0
LINE
  8
SUNPOU
 10
4212.995785
 20
3561.189343
 30
0.0
 11
4212.995786
 21
3501.189343
 31
0.0
  0
TEXT
  8
SUNPOU
 10
4167.995785
 20
3610.046485
 30
0.0
 40
60.0
  1
40
 50
90.0
  7
K
 72
     1
 11
4167.995785
 21
3667.189343
 31
0.0
  0
LINE
  8
SUNPOU
 10
4112.191217
 20
3561.189343
 30
0.0
 11
4351.913821
 21
3561.189343
 31
0.0
  0
LINE
  8
SUNPOU
 10
4112.191217
 20
3621.189343
 30
0.0
 11
4351.913821
 21
3621.189343
 31
0.0
  0
LINE
  8
SUNPOU
 10
4321.913821
 20
3561.189343
 30
0.0
 11
4321.913821
 21
3621.189343
 31
0.0
  0
INSERT
  8
SUNPOU
  2
ARROWANG
 10
4321.913821
 20
3561.189343
 30
0.0
 41
30.0
 42
30.0
 50
90.0
 43
30.0
  0
INSERT
  8
SUNPOU
  2
ARROWANG
 10
4321.913821
 20
3621.189343
 30
0.0
 41
30.0
 42
30.0
 50
270.0
 43
30.0
  0
LINE
  8
SUNPOU
 10
4321.913821
 20
3561.189343
 30
0.0
 11
4321.913821
 21
3429.189343
 31
0.0
  0
LINE
  8
SUNPOU
 10
4321.913821
 20
3621.189343
 30
0.0
 11
4321.913821
 21
3681.189343
 31
0.0
  0
TEXT
  8
SUNPOU
 10
4276.913821
 20
3436.617914
 30
0.0
 40
60.0
  1
60
 50
90.0
  7
K
 72
     1
 11
4276.913821
 21
3495.189343
 31
0.0
  0
TEXT
  8
SUNPOU
 10
2476.913821
 20
3286.617914
 30
0.0
 40
60.0
  1
60
 50
90.0
  7
K
 72
     1
 11
2476.913821
 21
3345.189343
 31
0.0
  0
LINE
  8
SUNPOU
 10
2521.913821
 20
3471.189343
 30
0.0
 11
2521.913821
 21
3531.189343
 31
0.0
  0
LINE
  8
SUNPOU
 10
2521.913821
 20
3411.189343
 30
0.0
 11
2521.913821
 21
3279.189343
 31
0.0
  0
INSERT
  8
SUNPOU
  2
ARROWANG
 10
2521.913821
 20
3471.189343
 30
0.0
 41
30.0
 42
30.0
 50
270.0
 43
30.0
  0
INSERT
  8
SUNPOU
  2
ARROWANG
 10
2521.913821
 20
3411.189343
 30
0.0
 41
30.0
 42
30.0
 50
90.0
 43
30.0
  0
LINE
  8
SUNPOU
 10
2521.913821
 20
3411.189343
 30
0.0
 11
2521.913821
 21
3471.189343
 31
0.0
  0
LINE
  8
SUNPOU
 10
2312.191217
 20
3471.189343
 30
0.0
 11
2551.913821
 21
3471.189343
 31
0.0
  0
LINE
  8
SUNPOU
 10
2312.191217
 20
3411.189343
 30
0.0
 11
2551.913821
 21
3411.189343
 31
0.0
  0
TEXT
  8
SUNPOU
 10
2367.995785
 20
3460.046485
 30
0.0
 40
60.0
  1
40
 50
90.0
  7
K
 72
     1
 11
2367.995785
 21
3517.189343
 31
0.0
  0
LINE
  8
SUNPOU
 10
2412.995785
 20
3411.189343
 30
0.0
 11
2412.995786
 21
3351.189343
 31
0.0
  0
LINE
  8
SUNPOU
 10
2412.995785
 20
3451.189343
 30
0.0
 11
2412.995785
 21
3583.189343
 31
0.0
  0
INSERT
  8
SUNPOU
  2
ARROWANG
 10
2412.995785
 20
3451.189343
 30
0.0
 41
30.0
 42
30.0
 50
270.0
 43
30.0
  0
INSERT
  8
SUNPOU
  2
ARROWANG
 10
2412.995785
 20
3411.189343
 30
0.0
 41
30.0
 42
30.0
 50
90.0
 43
30.0
  0
LINE
  8
SUNPOU
 10
2412.995785
 20
3411.189343
 30
0.0
 11
2412.995785
 21
3451.189343
 31
0.0
  0
LINE
  8
SUNPOU
 10
2151.283859
 20
3451.189343
 30
0.0
 11
2442.995785
 21
3451.189343
 31
0.0
  0
LINE
  8
SUNPOU
 10
2312.191217
 20
3411.189343
 30
0.0
 11
2442.995785
 21
3411.189343
 31
0.0
  0
CIRCLE
  8
JISSEN
 10
2121.283859
 20
3451.189343
 30
0.0
 40
10.0
  0
CIRCLE
  8
JISSEN
 10
1543.098574
 20
3451.189343
 30
0.0
 40
10.0
  0
LINE
  8
SUNPOU
 10
3182.191217
 20
4036.189343
 30
0.0
 11
3182.191217
 21
4281.785387
 31
0.0
  0
LINE
  8
SUNPOU
 10
4002.191217
 20
4036.189343
 30
0.0
 11
4002.191217
 21
4281.785387
 31
0.0
  0
LINE
  8
SUNPOU
 10
3182.191217
 20
4251.785387
 30
0.0
 11
4002.191217
 21
4251.785387
 31
0.0
  0
INSERT
  8
SUNPOU
  2
ARROWANG
 10
3182.191217
 20
4251.785387
 30
0.0
 41
30.0
 42
30.0
 50
180.0
 43
30.0
  0
INSERT
  8
SUNPOU
  2
ARROWANG
 10
4002.191217
 20
4251.785387
 30
0.0
 41
30.0
 42
30.0
 43
30.0
  0
TEXT
  8
SUNPOU
 10
3506.476946
 20
4296.785387
 30
0.0
 40
60.0
  1
820
  7
K
 72
     1
 11
3592.191231
 21
4296.785387
 31
0.0
  0
LINE
  8
SUNPOU
 10
3182.191217
 20
4036.189343
 30
0.0
 11
3182.191217
 21
4159.243728
 31
0.0
  0
LINE
  8
SUNPOU
 10
3292.191217
 20
4021.189343
 30
0.0
 11
3292.191217
 21
4159.243728
 31
0.0
  0
LINE
  8
SUNPOU
 10
3182.191217
 20
4129.243728
 30
0.0
 11
3292.191217
 21
4129.243728
 31
0.0
  0
INSERT
  8
SUNPOU
  2
ARROWANG
 10
3182.191217
 20
4129.243728
 30
0.0
 41
30.0
 42
30.0
 50
180.0
 43
30.0
  0
INSERT
  8
SUNPOU
  2
ARROWANG
 10
3292.191217
 20
4129.243728
 30
0.0
 41
30.0
 42
30.0
 43
30.0
  0
TEXT
  8
SUNPOU
 10
3147.191231
 20
4174.243728
 30
0.0
 40
60.0
  1
110
  7
K
 72
     1
 11
3237.191231
 21
4174.243728
 31
0.0
  0
LINE
  8
SUNPOU
 10
3292.191217
 20
4129.243728
 30
0.0
 11
3892.191217
 21
4129.243728
 31
0.0
  0
LINE
  8
SUNPOU
 10
3892.191217
 20
4021.189343
 30
0.0
 11
3892.191217
 21
4159.243728
 31
0.0
  0
INSERT
  8
SUNPOU
  2
ARROWANG
 10
3292.191217
 20
4129.243728
 30
0.0
 41
30.0
 42
30.0
 50
180.0
 43
30.0
  0
INSERT
  8
SUNPOU
  2
ARROWANG
 10
3892.191217
 20
4129.243728
 30
0.0
 41
30.0
 42
30.0
 43
30.0
  0
TEXT
  8
SUNPOU
 10
3505.04836
 20
4174.243728
 30
0.0
 40
60.0
  1
600
  7
K
 72
     1
 11
3592.191217
 21
4174.243728
 31
0.0
  0
LINE
  8
SUNPOU
 10
3892.191217
 20
4129.243728
 30
0.0
 11
4002.191217
 21
4129.243728
 31
0.0
  0
LINE
  8
SUNPOU
 10
4002.191217
 20
4036.189343
 30
0.0
 11
4002.191217
 21
4159.243728
 31
0.0
  0
INSERT
  8
SUNPOU
  2
ARROWANG
 10
3892.191217
 20
4129.243728
 30
0.0
 41
30.0
 42
30.0
 50
180.0
 43
30.0
  0
INSERT
  8
SUNPOU
  2
ARROWANG
 10
4002.191217
 20
4129.243728
 30
0.0
 41
30.0
 42
30.0
 43
30.0
  0
TEXT
  8
SUNPOU
 10
3857.191217
 20
4174.243728
 30
0.0
 40
60.0
  1
110
  7
K
 72
     1
 11
3947.191217
 21
4174.243728
 31
0.0
  0
TEXT
  8
SUNPOU
 10
2057.191217
 20
4174.243728
 30
0.0
 40
60.0
  1
110
  7
K
 72
     1
 11
2147.191217
 21
4174.243728
 31
0.0
  0
INSERT
  8
SUNPOU
  2
ARROWANG
 10
2202.191217
 20
4129.243728
 30
0.0
 41
30.0
 42
30.0
 43
30.0
  0
INSERT
  8
SUNPOU
  2
ARROWANG
 10
2092.191217
 20
4129.243728
 30
0.0
 41
30.0
 42
30.0
 50
180.0
 43
30.0
  0
LINE
  8
SUNPOU
 10
2202.191217
 20
4036.189343
 30
0.0
 11
2202.191217
 21
4159.243728
 31
0.0
  0
LINE
  8
SUNPOU
 10
2092.191217
 20
4129.243728
 30
0.0
 11
2202.191217
 21
4129.243728
 31
0.0
  0
TEXT
  8
SUNPOU
 10
1705.04836
 20
4174.243728
 30
0.0
 40
60.0
  1
600
  7
K
 72
     1
 11
1792.191217
 21
4174.243728
 31
0.0
  0
INSERT
  8
SUNPOU
  2
ARROWANG
 10
2092.191217
 20
4129.243728
 30
0.0
 41
30.0
 42
30.0
 43
30.0
  0
INSERT
  8
SUNPOU
  2
ARROWANG
 10
1492.191217
 20
4129.243728
 30
0.0
 41
30.0
 42
30.0
 50
180.0
 43
30.0
  0
LINE
  8
SUNPOU
 10
2092.191217
 20
4021.189343
 30
0.0
 11
2092.191217
 21
4159.243728
 31
0.0
  0
LINE
  8
SUNPOU
 10
1492.191217
 20
4129.243728
 30
0.0
 11
2092.191217
 21
4129.243728
 31
0.0
  0
TEXT
  8
SUNPOU
 10
1347.191231
 20
4174.243728
 30
0.0
 40
60.0
  1
110
  7
K
 72
     1
 11
1437.191231
 21
4174.243728
 31
0.0
  0
INSERT
  8
SUNPOU
  2
ARROWANG
 10
1492.191217
 20
4129.243728
 30
0.0
 41
30.0
 42
30.0
 43
30.0
  0
INSERT
  8
SUNPOU
  2
ARROWANG
 10
1382.191217
 20
4129.243728
 30
0.0
 41
30.0
 42
30.0
 50
180.0
 43
30.0
  0
LINE
  8
SUNPOU
 10
1382.191217
 20
4129.243728
 30
0.0
 11
1492.191217
 21
4129.243728
 31
0.0
  0
LINE
  8
SUNPOU
 10
1492.191217
 20
4021.189343
 30
0.0
 11
1492.191217
 21
4159.243728
 31
0.0
  0
LINE
  8
SUNPOU
 10
1382.191217
 20
4036.189343
 30
0.0
 11
1382.191217
 21
4159.243728
 31
0.0
  0
TEXT
  8
SUNPOU
 10
1706.476946
 20
4296.785387
 30
0.0
 40
60.0
  1
820
  7
K
 72
     1
 11
1792.191231
 21
4296.785387
 31
0.0
  0
INSERT
  8
SUNPOU
  2
ARROWANG
 10
2202.191217
 20
4251.785387
 30
0.0
 41
30.0
 42
30.0
 43
30.0
  0
INSERT
  8
SUNPOU
  2
ARROWANG
 10
1382.191217
 20
4251.785387
 30
0.0
 41
30.0
 42
30.0
 50
180.0
 43
30.0
  0
LINE
  8
SUNPOU
 10
1382.191217
 20
4251.785387
 30
0.0
 11
2202.191217
 21
4251.785387
 31
0.0
  0
LINE
  8
SUNPOU
 10
2202.191217
 20
4036.189343
 30
0.0
 11
2202.191217
 21
4281.785387
 31
0.0
  0
LINE
  8
SUNPOU
 10
1382.191217
 20
4036.189343
 30
0.0
 11
1382.191217
 21
4281.785387
 31
0.0
  0
TEXT
  8
SUNPOU
 10
1159.033818
 20
3622.975057
 30
0.0
 40
60.0
  1
595
 50
90.0
  7
K
 72
     1
 11
1159.033818
 21
3708.689343
 31
0.0
  0
INSERT
  8
SUNPOU
  2
ARROWANG
 10
1204.033818
 20
4006.189343
 30
0.0
 41
30.0
 42
30.0
 50
90.0
 43
30.0
  0
INSERT
  8
SUNPOU
  2
ARROWANG
 10
1204.033818
 20
3411.189343
 30
0.0
 41
30.0
 42
30.0
 50
270.0
 43
30.0
  0
LINE
  8
SUNPOU
 10
1204.033818
 20
3411.189343
 30
0.0
 11
1204.033818
 21
4006.189343
 31
0.0
  0
LINE
  8
SUNPOU
 10
1352.191217
 20
4006.189343
 30
0.0
 11
1174.033818
 21
4006.189343
 31
0.0
  0
LINE
  8
SUNPOU
 10
1352.191217
 20
3411.189343
 30
0.0
 11
1174.033818
 21
3411.189343
 31
0.0
  0
LINE
  8
JISSEN
 10
5092.191217
 20
3971.189343
 30
0.0
 11
5057.191217
 21
3696.189343
 31
0.0
  0
LINE
  8
JISSEN
 10
5882.191217
 20
3711.189343
 30
0.0
 11
5882.191217
 21
3771.189343
 31
0.0
  0
LINE
  8
JISSEN
 10
4982.191217
 20
4006.189343
 30
0.0
 11
4982.191217
 21
3711.189343
 31
0.0
  0
LINE
  8
JISSEN
 10
5430.255733
 20
3711.189343
 30
0.0
 11
5657.191217
 21
3711.189343
 31
0.0
  0
LINE
  8
JISSEN
 10
5832.191217
 20
3696.189343
 30
0.0
 11
5657.191217
 21
3696.189343
 31
0.0
  0
LINE
  8
JISSEN
 10
5841.191217
 20
3711.189343
 30
0.0
 11
5832.191217
 21
3696.189343
 31
0.0
  0
LINE
  8
JISSEN
 10
5882.191217
 20
3711.189343
 30
0.0
 11
5841.191217
 21
3711.189343
 31
0.0
  0
LINE
  8
JISSEN
 10
5032.191217
 20
3696.189343
 30
0.0
 11
5507.191217
 21
3696.189343
 31
0.0
  0
LINE
  8
JISSEN
 10
5023.191217
 20
3711.189343
 30
0.0
 11
5032.191217
 21
3696.189343
 31
0.0
  0
LINE
  8
JISSEN
 10
4982.191217
 20
3711.189343
 30
0.0
 11
5023.191217
 21
3711.189343
 31
0.0
  0
LINE
  8
JISSEN
 10
5092.191217
 20
3991.189343
 30
0.0
 11
5092.191217
 21
3971.189343
 31
0.0
  0
LINE
  8
HASEN
 10
5692.191217
 20
3991.189343
 30
0.0
 11
5692.191217
 21
3971.189343
 31
0.0
  0
LINE
  8
JISSEN
 10
4982.191217
 20
4006.189343
 30
0.0
 11
5802.191217
 21
4006.189343
 31
0.0
  0
LINE
  8
JISSEN
 10
5060.191217
 20
4006.189343
 30
0.0
 11
5066.191217
 21
3991.189343
 31
0.0
  0
LINE
  8
JISSEN
 10
5066.191217
 20
3991.189343
 30
0.0
 11
5392.191217
 21
3991.189343
 31
0.0
  0
LINE
  8
HASEN
 10
5724.191217
 20
4006.189343
 30
0.0
 11
5718.191217
 21
3991.189343
 31
0.0
  0
LINE
  8
HASEN
 10
5718.191217
 20
3991.189343
 30
0.0
 11
5392.191217
 21
3991.189343
 31
0.0
  0
LINE
  8
JISSEN
 10
3292.191217
 20
3971.189343
 30
0.0
 11
3257.191217
 21
3546.189343
 31
0.0
  0
LINE
  8
HASEN
 10
3918.191217
 20
3991.189343
 30
0.0
 11
3592.191217
 21
3991.189343
 31
0.0
  0
LINE
  8
HASEN
 10
3924.191217
 20
4006.189343
 30
0.0
 11
3918.191217
 21
3991.189343
 31
0.0
  0
LINE
  8
JISSEN
 10
3266.191217
 20
3991.189343
 30
0.0
 11
3592.191217
 21
3991.189343
 31
0.0
  0
LINE
  8
JISSEN
 10
3260.191217
 20
4006.189343
 30
0.0
 11
3266.191217
 21
3991.189343
 31
0.0
  0
LINE
  8
JISSEN
 10
3182.191217
 20
4006.189343
 30
0.0
 11
4002.191217
 21
4006.189343
 31
0.0
  0
LINE
  8
HASEN
 10
3892.191217
 20
3991.189343
 30
0.0
 11
3892.191217
 21
3971.189343
 31
0.0
  0
LINE
  8
JISSEN
 10
3292.191217
 20
3991.189343
 30
0.0
 11
3292.191217
 21
3971.189343
 31
0.0
  0
LINE
  8
JISSEN
 10
3182.191217
 20
3561.189343
 30
0.0
 11
3223.191217
 21
3561.189343
 31
0.0
  0
LINE
  8
JISSEN
 10
3223.191217
 20
3561.189343
 30
0.0
 11
3232.191217
 21
3546.189343
 31
0.0
  0
LINE
  8
JISSEN
 10
3232.191217
 20
3546.189343
 30
0.0
 11
3707.191217
 21
3546.189343
 31
0.0
  0
LINE
  8
JISSEN
 10
4082.191217
 20
3561.189343
 30
0.0
 11
4041.191217
 21
3561.189343
 31
0.0
  0
LINE
  8
JISSEN
 10
4041.191217
 20
3561.189343
 30
0.0
 11
4032.191217
 21
3546.189343
 31
0.0
  0
LINE
  8
JISSEN
 10
4032.191217
 20
3546.189343
 30
0.0
 11
3932.191217
 21
3546.189343
 31
0.0
  0
LINE
  8
JISSEN
 10
3630.886869
 20
3561.189343
 30
0.0
 11
3932.191217
 21
3561.189343
 31
0.0
  0
LINE
  8
JISSEN
 10
3182.191217
 20
4006.189343
 30
0.0
 11
3182.191217
 21
3561.189343
 31
0.0
  0
LINE
  8
JISSEN
 10
4082.191217
 20
3561.189343
 30
0.0
 11
4082.191217
 21
3621.189343
 31
0.0
  0
ARC
  8
JISSEN
 10
1547.191217
 20
2504.951474
 30
0.0
 40
10.0
 50
0.0
 51
90.0
  0
ARC
  8
JISSEN
 10
1527.191217
 20
2484.951474
 30
0.0
 40
10.0
 50
0.0
 51
90.0
  0
ARC
  8
JISSEN
 10
1527.191217
 20
2244.951474
 30
0.0
 40
10.0
 50
270.0
 51
0.0
  0
ARC
  8
JISSEN
 10
1547.191217
 20
2224.951474
 30
0.0
 40
10.0
 50
270.0
 51
0.0
  0
LINE
  8
JISSEN
 10
1527.191217
 20
2494.951474
 30
0.0
 11
1521.8211
 21
2494.951474
 31
0.0
  0
LINE
  8
JISSEN
 10
1537.191217
 20
2244.951474
 30
0.0
 11
1537.191217
 21
2484.951474
 31
0.0
  0
LINE
  8
JISSEN
 10
1521.8211
 20
2234.951474
 30
0.0
 11
1527.191217
 21
2234.951474
 31
0.0
  0
LINE
  8
JISSEN
 10
1547.191217
 20
2514.951474
 30
0.0
 11
1532.383596
 21
2514.951474
 31
0.0
  0
LINE
  8
JISSEN
 10
1557.191217
 20
2504.951474
 30
0.0
 11
1557.191217
 21
2224.951474
 31
0.0
  0
LINE
  8
JISSEN
 10
1532.383596
 20
2214.951474
 30
0.0
 11
1547.191217
 21
2214.951474
 31
0.0
  0
LINE
  8
JISSEN
 10
2282.191217
 20
3411.189343
 30
0.0
 11
2282.191217
 21
3471.189343
 31
0.0
  0
LINE
  8
JISSEN
 10
1457.191217
 20
3396.189343
 30
0.0
 11
1492.191217
 21
3971.189343
 31
0.0
  0
LINE
  8
JISSEN
 10
1382.191217
 20
4006.189343
 30
0.0
 11
1382.191217
 21
3411.189343
 31
0.0
  0
LINE
  8
JISSEN
 10
1831.20761
 20
3411.189343
 30
0.0
 11
2132.191217
 21
3411.189343
 31
0.0
  0
LINE
  8
JISSEN
 10
2232.191217
 20
3396.189343
 30
0.0
 11
2132.191217
 21
3396.189343
 31
0.0
  0
LINE
  8
JISSEN
 10
2241.191217
 20
3411.189343
 30
0.0
 11
2232.191217
 21
3396.189343
 31
0.0
  0
LINE
  8
JISSEN
 10
2282.191217
 20
3411.189343
 30
0.0
 11
2241.191217
 21
3411.189343
 31
0.0
  0
LINE
  8
JISSEN
 10
1432.191217
 20
3396.189343
 30
0.0
 11
1907.191217
 21
3396.189343
 31
0.0
  0
LINE
  8
JISSEN
 10
1423.191217
 20
3411.189343
 30
0.0
 11
1432.191217
 21
3396.189343
 31
0.0
  0
LINE
  8
JISSEN
 10
1382.191217
 20
3411.189343
 30
0.0
 11
1423.191217
 21
3411.189343
 31
0.0
  0
LINE
  8
JISSEN
 10
1492.191217
 20
3991.189343
 30
0.0
 11
1492.191217
 21
3971.189343
 31
0.0
  0
LINE
  8
HASEN
 10
2092.191217
 20
3991.189343
 30
0.0
 11
2092.191217
 21
3971.189343
 31
0.0
  0
LINE
  8
JISSEN
 10
1382.191217
 20
4006.189343
 30
0.0
 11
2202.191217
 21
4006.189343
 31
0.0
  0
LINE
  8
JISSEN
 10
1460.191217
 20
4006.189343
 30
0.0
 11
1466.191217
 21
3991.189343
 31
0.0
  0
LINE
  8
JISSEN
 10
1466.191217
 20
3991.189343
 30
0.0
 11
1792.191217
 21
3991.189343
 31
0.0
  0
LINE
  8
HASEN
 10
2124.191217
 20
4006.189343
 30
0.0
 11
2118.191217
 21
3991.189343
 31
0.0
  0
LINE
  8
HASEN
 10
2118.191217
 20
3991.189343
 30
0.0
 11
1792.191217
 21
3991.189343
 31
0.0
  0
CIRCLE
  8
JISSEN
 10
1792.191217
 20
2364.951474
 30
0.0
 40
332.0
  0
CIRCLE
  8
JISSEN
 10
1792.191217
 20
2364.951474
 30
0.0
 40
300.0
  0
CIRCLE
  8
JISSEN
 10
1792.191217
 20
2364.951474
 30
0.0
 40
326.0
  0
CIRCLE
  8
JISSEN
 10
1792.191217
 20
2364.951474
 30
0.0
 40
410.0
  0
CIRCLE
  8
JISSEN
 10
1792.191217
 20
2744.951474
 30
0.0
 40
11.0
  0
LINE
  8
ITTEN
 10
1731.191217
 20
2744.951474
 30
0.0
 11
1853.191217
 21
2744.951474
 31
0.0
  0
LINE
  8
ITTEN
 10
1792.191217
 20
2805.951474
 30
0.0
 11
1792.191217
 21
2683.951474
 31
0.0
  0
POINT
  8
JISSEN
 10
1792.191217
 20
2365.951474
 30
0.0
  0
LINE
  8
ITTEN
 10
1493.601563
 20
2122.123924
 30
0.0
 11
1432.601563
 21
2227.779024
 31
0.0
  0
CIRCLE
  8
JISSEN
 10
1463.101563
 20
2174.951474
 30
0.0
 40
11.0
  0
LINE
  8
ITTEN
 10
1410.274014
 20
2144.451474
 30
0.0
 11
1515.929113
 21
2205.451474
 31
0.0
  0
LINE
  8
ITTEN
 10
2151.78087
 20
2227.779024
 30
0.0
 11
2090.78087
 21
2122.123924
 31
0.0
  0
CIRCLE
  8
JISSEN
 10
2121.28087
 20
2174.951474
 30
0.0
 40
11.0
  0
LINE
  8
ITTEN
 10
2174.10842
 20
2144.451474
 30
0.0
 11
2068.453321
 21
2205.451474
 31
0.0
  0
LINE
  8
ITTEN
 10
1332.191217
 20
2364.951474
 30
0.0
 11
2252.191217
 21
2364.951474
 31
0.0
  0
LINE
  8
ITTEN
 10
1792.191217
 20
2824.951474
 30
0.0
 11
1792.191217
 21
1904.951474
 31
0.0
  0
TEXT
  8
SAISEN
 10
9157.61309
 20
439.223585
 30
0.0
 40
125.0
  1
1/25
  7
K
  0
POLYLINE
  8
WAKU
 66
     1
 10
0.0
 20
0.0
 30
0.0
 70
     1
  0
VERTEX
  8
WAKU
 10
0.0
 20
0.0
 30
0.0
  0
VERTEX
  8
WAKU
 10
9875.0
 20
0.0
 30
0.0
  0
VERTEX
  8
WAKU
 10
9875.0
 20
6825.0
 30
0.0
  0
VERTEX
  8
WAKU
 10
0.0
 20
6825.0
 30
0.0
  0
SEQEND
  8
WAKU
  0
ENDSEC
  0
EOF
