  0
SECTION
  2
HEADER
  9
$ACADVER
  1
AC1009
  9
$INSBASE
 10
0.0
 20
0.0
 30
0.0
  9
$EXTMIN
 10
0.0
 20
0.0
 30
0.0
  9
$EXTMAX
 10
12001.683505
 20
8190.0
 30
0.0
  9
$LIMMIN
 10
0.0
 20
0.0
  9
$LIMMAX
 10
11850.0
 20
8190.0
  9
$ORTHOMODE
 70
     0
  9
$REGENMODE
 70
     1
  9
$FILLMODE
 70
     1
  9
$QTEXTMODE
 70
     0
  9
$MIRRTEXT
 70
     0
  9
$DRAGMODE
 70
     2
  9
$LTSCALE
 40
150.0
  9
$OSMODE
 70
    33
  9
$ATTMODE
 70
     1
  9
$TEXTSIZE
 40
60.0
  9
$TRACEWID
 40
0.05
  9
$TEXTSTYLE
  7
K
  9
$CLAYER
  8
SUNPOU
  9
$CELTYPE
  6
BYLAYER
  9
$CECOLOR
 62
   256
  9
$DIMSCALE
 40
30.0
  9
$DIMASZ
 40
1.5
  9
$DIMEXO
 40
1.0
  9
$DIMDLI
 40
6.0
  9
$DIMRND
 40
0.0
  9
$DIMDLE
 40
0.0
  9
$DIMEXE
 40
1.0
  9
$DIMTP
 40
495.0
  9
$DIMTM
 40
0.0
  9
$DIMTXT
 40
3.0
  9
$DIMCEN
 40
0.0
  9
$DIMTSZ
 40
0.0
  9
$DIMTOL
 70
     0
  9
$DIMLIM
 70
     0
  9
$DIMTIH
 70
     0
  9
$DIMTOH
 70
     0
  9
$DIMSE1
 70
     0
  9
$DIMSE2
 70
     0
  9
$DIMTAD
 70
     1
  9
$DIMZIN
 70
     8
  9
$DIMBLK
  1

  9
$DIMASO
 70
     0
  9
$DIMSHO
 70
     0
  9
$DIMPOST
  1

  9
$DIMAPOST
  1

  9
$DIMALT
 70
     0
  9
$DIMALTD
 70
     2
  9
$DIMALTF
 40
25.4
  9
$DIMLFAC
 40
1.0
  9
$DIMTOFL
 70
     1
  9
$DIMTVP
 40
0.0
  9
$DIMTIX
 70
     1
  9
$DIMSOXD
 70
     0
  9
$DIMSAH
 70
     0
  9
$DIMBLK1
  1

  9
$DIMBLK2
  1

  9
$DIMSTYLE
  2
*UNNAMED
  9
$DIMCLRD
 70
     0
  9
$DIMCLRE
 70
     0
  9
$DIMCLRT
 70
     0
  9
$DIMTFAC
 40
1.0
  9
$DIMGAP
 40
0.09
  9
$LUNITS
 70
     2
  9
$LUPREC
 70
     2
  9
$AXISMODE
 70
     1
  9
$AXISUNIT
 10
100.0
 20
100.0
  9
$SKETCHINC
 40
0.1
  9
$FILLETRAD
 40
0.0
  9
$AUNITS
 70
     0
  9
$AUPREC
 70
     2
  9
$MENU
  1
d:stdgx5
  9
$ELEVATION
 40
0.0
  9
$PELEVATION
 40
0.0
  9
$THICKNESS
 40
0.0
  9
$LIMCHECK
 70
     0
  9
$BLIPMODE
 70
     1
  9
$CHAMFERA
 40
0.0
  9
$CHAMFERB
 40
0.0
  9
$SKPOLY
 70
     0
  9
$TDCREATE
 40
2450248.460358796
  9
$TDUPDATE
 40
2450255.693831018
  9
$TDINDWG
 40
0.0046759259
  9
$TDUSRTIMER
 40
0.0046759259
  9
$USRTIMER
 70
     1
  9
$ANGBASE
 50
0.0
  9
$ANGDIR
 70
     0
  9
$PDMODE
 70
     0
  9
$PDSIZE
 40
0.0
  9
$PLINEWID
 40
0.0
  9
$COORDS
 70
     2
  9
$SPLFRAME
 70
     0
  9
$SPLINETYPE
 70
     6
  9
$SPLINESEGS
 70
     8
  9
$ATTDIA
 70
     0
  9
$ATTREQ
 70
     1
  9
$HANDLING
 70
     0
  9
$HANDSEED
  5
0
  9
$SURFTAB1
 70
     6
  9
$SURFTAB2
 70
     6
  9
$SURFTYPE
 70
     6
  9
$SURFU
 70
     6
  9
$SURFV
 70
     6
  9
$UCSNAME
  2

  9
$UCSORG
 10
0.0
 20
0.0
 30
0.0
  9
$UCSXDIR
 10
1.0
 20
0.0
 30
0.0
  9
$UCSYDIR
 10
0.0
 20
1.0
 30
0.0
  9
$PUCSNAME
  2

  9
$PUCSORG
 10
0.0
 20
0.0
 30
0.0
  9
$PUCSXDIR
 10
1.0
 20
0.0
 30
0.0
  9
$PUCSYDIR
 10
0.0
 20
1.0
 30
0.0
  9
$USERI1
 70
     3
  9
$USERI2
 70
    33
  9
$USERI3
 70
     0
  9
$USERI4
 70
     1
  9
$USERI5
 70
     0
  9
$USERR1
 40
30.0
  9
$USERR2
 40
3.0
  9
$USERR3
 40
3.0
  9
$USERR4
 40
1.5
  9
$USERR5
 40
10.0
  9
$WORLDVIEW
 70
     1
  9
$SHADEDGE
 70
     3
  9
$SHADEDIF
 70
    70
  9
$TILEMODE
 70
     1
  9
$MAXACTVP
 70
    16
  9
$PINSBASE
 10
0.0
 20
0.0
 30
0.0
  9
$PLIMCHECK
 70
     0
  9
$PEXTMIN
 10
1.000000E+20
 20
1.000000E+20
 30
1.000000E+20
  9
$PEXTMAX
 10
-1.000000E+20
 20
-1.000000E+20
 30
-1.000000E+20
  9
$PLIMMIN
 10
0.0
 20
0.0
  9
$PLIMMAX
 10
12.0
 20
9.0
  9
$UNITMODE
 70
     0
  9
$VISRETAIN
 70
     0
  0
ENDSEC
  0
SECTION
  2
TABLES
  0
TABLE
  2
VPORT
 70
    10
  0
VPORT
  2
*ACTIVE
 70
     0
 10
0.0
 20
0.0
 11
1.0
 21
1.0
 12
6691.515737
 22
4095.0
 13
0.0
 23
0.0
 14
1.0
 24
1.0
 15
10.0
 25
10.0
 16
0.0
 26
0.0
 36
1.0
 17
0.0
 27
0.0
 37
0.0
 40
8190.0
 41
1.63407
 42
50.0
 43
0.0
 44
0.0
 50
0.0
 51
0.0
 71
     0
 72
   500
 73
     1
 74
     0
 75
     0
 76
     0
 77
     0
 78
     0
  0
VPORT
  2
2
 70
     0
 10
0.5
 20
0.0
 11
1.0
 21
1.0
 12
0.924031
 22
1.052651
 13
0.0
 23
0.0
 14
1.0
 24
1.0
 15
10.0
 25
10.0
 16
0.0
 26
0.0
 36
1.0
 17
0.0
 27
0.0
 37
0.0
 40
2.105302
 41
0.877814
 42
50.0
 43
0.0
 44
0.0
 50
0.0
 51
0.0
 71
     0
 72
   500
 73
     1
 74
     1
 75
     0
 76
     0
 77
     0
 78
     0
  0
VPORT
  2
2
 70
     0
 10
0.0
 20
0.0
 11
0.5
 21
1.0
 12
0.924031
 22
1.052651
 13
0.0
 23
0.0
 14
1.0
 24
1.0
 15
10.0
 25
10.0
 16
0.0
 26
0.0
 36
1.0
 17
0.0
 27
0.0
 37
0.0
 40
2.105302
 41
0.877814
 42
50.0
 43
0.0
 44
0.0
 50
0.0
 51
0.0
 71
     0
 72
   500
 73
     1
 74
     1
 75
     0
 76
     0
 77
     0
 78
     0
  0
VPORT
  2
3
 70
     0
 10
0.0
 20
0.5
 11
1.0
 21
1.0
 12
2.83217
 22
1.052651
 13
0.0
 23
0.0
 14
1.0
 24
1.0
 15
10.0
 25
10.0
 16
0.0
 26
0.0
 36
1.0
 17
0.0
 27
0.0
 37
0.0
 40
2.105302
 41
3.571429
 42
50.0
 43
0.0
 44
0.0
 50
0.0
 51
0.0
 71
     0
 72
   500
 73
     1
 74
     1
 75
     0
 76
     0
 77
     0
 78
     0
  0
VPORT
  2
3
 70
     0
 10
0.0
 20
0.0
 11
1.0
 21
0.5
 12
2.856742
 22
1.052651
 13
0.0
 23
0.0
 14
1.0
 24
1.0
 15
10.0
 25
10.0
 16
0.0
 26
0.0
 36
1.0
 17
0.0
 27
0.0
 37
0.0
 40
2.105302
 41
3.594771
 42
50.0
 43
0.0
 44
0.0
 50
0.0
 51
0.0
 71
     0
 72
   500
 73
     1
 74
     1
 75
     0
 76
     0
 77
     0
 78
     0
  0
VPORT
  2
4
 70
     0
 10
0.5
 20
0.0
 11
1.0
 21
0.5
 12
2.886858
 22
1.052651
 13
0.0
 23
0.0
 14
1.0
 24
1.0
 15
10.0
 25
10.0
 16
0.0
 26
0.0
 36
1.0
 17
0.0
 27
0.0
 37
0.0
 40
4.275207
 41
1.784314
 42
50.0
 43
0.0
 44
0.0
 50
0.0
 51
0.0
 71
     0
 72
   500
 73
     1
 74
     1
 75
     0
 76
     0
 77
     0
 78
     0
  0
VPORT
  2
4
 70
     0
 10
0.5
 20
0.5
 11
1.0
 21
1.0
 12
2.86209
 22
1.052651
 13
0.0
 23
0.0
 14
1.0
 24
1.0
 15
10.0
 25
10.0
 16
0.0
 26
0.0
 36
1.0
 17
0.0
 27
0.0
 37
0.0
 40
4.275207
 41
1.772727
 42
50.0
 43
0.0
 44
0.0
 50
0.0
 51
0.0
 71
     0
 72
   500
 73
     1
 74
     1
 75
     0
 76
     0
 77
     0
 78
     0
  0
VPORT
  2
4
 70
     0
 10
0.0
 20
0.5
 11
0.5
 21
1.0
 12
2.86209
 22
1.052651
 13
0.0
 23
0.0
 14
1.0
 24
1.0
 15
10.0
 25
10.0
 16
0.0
 26
0.0
 36
1.0
 17
0.0
 27
0.0
 37
0.0
 40
4.275207
 41
1.772727
 42
50.0
 43
0.0
 44
0.0
 50
0.0
 51
0.0
 71
     0
 72
   500
 73
     1
 74
     1
 75
     0
 76
     0
 77
     0
 78
     0
  0
VPORT
  2
4
 70
     0
 10
0.0
 20
0.0
 11
0.5
 21
0.5
 12
2.886858
 22
1.052651
 13
0.0
 23
0.0
 14
1.0
 24
1.0
 15
10.0
 25
10.0
 16
0.0
 26
0.0
 36
1.0
 17
0.0
 27
0.0
 37
0.0
 40
4.275207
 41
1.784314
 42
50.0
 43
0.0
 44
0.0
 50
0.0
 51
0.0
 71
     0
 72
   500
 73
     1
 74
     1
 75
     0
 76
     0
 77
     0
 78
     0
  0
ENDTAB
  0
TABLE
  2
LTYPE
 70
     5
  0
LTYPE
  2
CONTINUOUS
 70
    64
  3
実線
 72
    65
 73
     0
 40
0.0
  0
LTYPE
  2
DASHED
 70
    64
  3
__ __ __ __ __ __ __ __ __ __ __ __ __ __ __
 72
    65
 73
     2
 40
0.75
 49
0.5
 49
-0.25
  0
LTYPE
  2
CENTER
 70
    64
  3
____ _ ____ _ ____ _ ____ _ ____ _ ____ _ ____
 72
    65
 73
     4
 40
2.0
 49
1.25
 49
-0.25
 49
0.25
 49
-0.25
  0
LTYPE
  2
PHANTOM
 70
    64
  3
_____ _ _ _____ _ _ _____ _ _ _____ _ _ ____
 72
    65
 73
     6
 40
2.5
 49
1.25
 49
-0.25
 49
0.25
 49
-0.25
 49
0.25
 49
-0.25
  0
LTYPE
  2
HIDDEN
 70
    64
  3
_ _ _ _ _ _ _ _ _ _ _ _ _ _ _ _ _ _ _ _ _ _ _
 72
    65
 73
     2
 40
0.375
 49
0.25
 49
-0.125
  0
ENDTAB
  0
TABLE
  2
LAYER
 70
    14
  0
LAYER
  2
0
 70
     0
 62
     7
  6
CONTINUOUS
  0
LAYER
  2
HASEN
 70
    64
 62
     2
  6
DASHED
  0
LAYER
  2
ITTEN
 70
    64
 62
     1
  6
CENTER
  0
LAYER
  2
SUNPOU
 70
    64
 62
     3
  6
CONTINUOUS
  0
LAYER
  2
TEXT
 70
    64
 62
     3
  6
CONTINUOUS
  0
LAYER
  2
JISSEN
 70
    64
 62
     7
  6
CONTINUOUS
  0
LAYER
  2
WAKU
 70
    64
 62
    -5
  6
CONTINUOUS
  0
ENDTAB
  0
TABLE
  2
STYLE
 70
     2
  0
STYLE
  2
STANDARD
 70
     0
 40
0.0
 41
1.0
 50
0.0
 71
     0
 42
150.0
  3
ROMANS
  4
EXTFONT
  0
STYLE
  2
K
 70
    64
 40
0.0
 41
1.0
 50
0.0
 71
     0
 42
60.0
  3
ROMANS
  4
EXTFONT
  0
ENDTAB
  0
TABLE
  2
VIEW
 70
     0
  0
ENDTAB
  0
TABLE
  2
UCS
 70
     0
  0
ENDTAB
  0
TABLE
  2
APPID
 70
     1
  0
APPID
  2
ACAD
 70
    64
  0
ENDTAB
  0
TABLE
  2
DIMSTYLE
 70
     0
  0
ENDTAB
  0
ENDSEC
  0
SECTION
  2
BLOCKS
  0
BLOCK
  8
SUNPOU
  2
ARROWANG
 70
    64
 10
0.0
 20
0.0
 30
0.0
  3
ARROWANG
  0
LINE
  8
SUNPOU
 10
0.0
 20
0.0
 30
0.0
 11
-1.5
 21
0.401924
 31
0.0
  0
LINE
  8
SUNPOU
 10
0.0
 20
0.0
 30
0.0
 11
-1.5
 21
-0.401924
 31
0.0
  0
ENDBLK
  8
SUNPOU
  0
ENDSEC
  0
SECTION
  2
ENTITIES
  0
TEXT
  8
TEXT
 10
5653.519183
 20
4682.299945
 30
0.0
 40
100.0
  1
Ｍ１ＰＢ
  7
K
  0
TEXT
  8
TEXT
 10
3227.160456
 20
4667.965574
 30
0.0
 40
100.0
  1
Ｍ１Ｐ
  7
K
  0
TEXT
  8
TEXT
 10
5555.163743
 20
5092.81791
 30
0.0
 40
120.0
  1
底　　版
  7
K
  0
TEXT
  8
JISSEN
 10
3143.961023
 20
7493.32845
 30
0.0
 40
300.0
  1
組立マンホール構造図（内径９００ｍｍ）
  7
K
  0
TEXT
  8
SUNPOU
 10
5707.966919
 20
4350.631543
 30
0.0
 40
60.0
  1
30
 50
90.0
  7
K
 72
     1
 11
5707.966919
 21
4407.7744
 31
0.0
  0
LINE
  8
SUNPOU
 10
5752.966919
 20
4311.7744
 30
0.0
 11
5752.96692
 21
4251.7744
 31
0.0
  0
LINE
  8
SUNPOU
 10
5752.966919
 20
4341.7744
 30
0.0
 11
5752.966919
 21
4473.7744
 31
0.0
  0
INSERT
  8
SUNPOU
  2
ARROWANG
 10
5752.966919
 20
4341.7744
 30
0.0
 41
30.0
 42
30.0
 50
270.0
 43
30.0
  0
INSERT
  8
SUNPOU
  2
ARROWANG
 10
5752.966919
 20
4311.7744
 30
0.0
 41
30.0
 42
30.0
 50
90.0
 43
30.0
  0
LINE
  8
SUNPOU
 10
5752.966919
 20
4311.7744
 30
0.0
 11
5752.966919
 21
4341.7744
 31
0.0
  0
LINE
  8
SUNPOU
 10
5650.263267
 20
4341.7744
 30
0.0
 11
5782.966919
 21
4341.7744
 31
0.0
  0
LINE
  8
SUNPOU
 10
5840.263267
 20
4311.7744
 30
0.0
 11
5722.966919
 21
4311.7744
 31
0.0
  0
LINE
  8
HASEN
 10
5870.263267
 20
4341.7744
 30
0.0
 11
6120.263267
 21
4341.7744
 31
0.0
  0
LINE
  8
JISSEN
 10
5620.263267
 20
4341.7744
 30
0.0
 11
5870.263267
 21
4341.7744
 31
0.0
  0
LINE
  8
ITTEN
 10
5870.263267
 20
4506.7744
 30
0.0
 11
5870.263267
 21
4261.7744
 31
0.0
  0
LINE
  8
JISSEN
 10
5320.263267
 20
4311.7744
 30
0.0
 11
5320.263267
 21
4456.7744
 31
0.0
  0
LINE
  8
JISSEN
 10
5320.263267
 20
4456.7744
 30
0.0
 11
5320.263267
 21
4456.7744
 31
0.0
  0
LINE
  8
JISSEN
 10
5320.263267
 20
4456.7744
 30
0.0
 11
6420.263267
 21
4456.7744
 31
0.0
  0
LINE
  8
JISSEN
 10
6420.263267
 20
4456.7744
 30
0.0
 11
6420.263267
 21
4311.7744
 31
0.0
  0
LINE
  8
JISSEN
 10
6420.263267
 20
4311.7744
 30
0.0
 11
5320.263267
 21
4311.7744
 31
0.0
  0
LINE
  8
JISSEN
 10
5385.263267
 20
4456.7744
 30
0.0
 11
5390.263267
 21
4441.7744
 31
0.0
  0
LINE
  8
JISSEN
 10
5390.263267
 20
4441.7744
 30
0.0
 11
5870.263267
 21
4441.7744
 31
0.0
  0
LINE
  8
JISSEN
 10
5620.263267
 20
4441.7744
 30
0.0
 11
5620.263267
 21
4341.7744
 31
0.0
  0
LINE
  8
JISSEN
 10
6355.263267
 20
4456.7744
 30
0.0
 11
6350.263267
 21
4441.7744
 31
0.0
  0
LINE
  8
HASEN
 10
6350.263267
 20
4441.7744
 30
0.0
 11
5870.263267
 21
4441.7744
 31
0.0
  0
LINE
  8
HASEN
 10
6120.263267
 20
4441.7744
 30
0.0
 11
6120.263267
 21
4341.7744
 31
0.0
  0
LINE
  8
SUNPOU
 10
5320.263267
 20
4281.7744
 30
0.0
 11
5320.263267
 21
4132.570958
 31
0.0
  0
LINE
  8
SUNPOU
 10
5620.263267
 20
4281.7744
 30
0.0
 11
5620.263267
 21
4132.570958
 31
0.0
  0
LINE
  8
SUNPOU
 10
5320.263267
 20
4162.570958
 30
0.0
 11
5620.263267
 21
4162.570958
 31
0.0
  0
INSERT
  8
SUNPOU
  2
ARROWANG
 10
5320.263267
 20
4162.570958
 30
0.0
 41
30.0
 42
30.0
 50
180.0
 43
30.0
  0
INSERT
  8
SUNPOU
  2
ARROWANG
 10
5620.263267
 20
4162.570958
 30
0.0
 41
30.0
 42
30.0
 43
30.0
  0
TEXT
  8
SUNPOU
 10
5384.548996
 20
4207.570958
 30
0.0
 40
60.0
  1
300
  7
K
 72
     1
 11
5470.263281
 21
4207.570958
 31
0.0
  0
LINE
  8
SUNPOU
 10
5620.263267
 20
4162.570958
 30
0.0
 11
6120.263267
 21
4162.570958
 31
0.0
  0
LINE
  8
SUNPOU
 10
6120.263267
 20
4281.7744
 30
0.0
 11
6120.263267
 21
4132.570958
 31
0.0
  0
INSERT
  8
SUNPOU
  2
ARROWANG
 10
5620.263267
 20
4162.570958
 30
0.0
 41
30.0
 42
30.0
 50
180.0
 43
30.0
  0
INSERT
  8
SUNPOU
  2
ARROWANG
 10
6120.263267
 20
4162.570958
 30
0.0
 41
30.0
 42
30.0
 43
30.0
  0
TEXT
  8
SUNPOU
 10
5784.548981
 20
4207.570958
 30
0.0
 40
60.0
  1
500
  7
K
 72
     1
 11
5870.263267
 21
4207.570958
 31
0.0
  0
LINE
  8
SUNPOU
 10
6120.263267
 20
4162.570958
 30
0.0
 11
6420.263267
 21
4162.570958
 31
0.0
  0
LINE
  8
SUNPOU
 10
6420.263267
 20
4281.7744
 30
0.0
 11
6420.263267
 21
4132.570958
 31
0.0
  0
INSERT
  8
SUNPOU
  2
ARROWANG
 10
6120.263267
 20
4162.570958
 30
0.0
 41
30.0
 42
30.0
 50
180.0
 43
30.0
  0
INSERT
  8
SUNPOU
  2
ARROWANG
 10
6420.263267
 20
4162.570958
 30
0.0
 41
30.0
 42
30.0
 43
30.0
  0
TEXT
  8
SUNPOU
 10
6184.548981
 20
4207.570958
 30
0.0
 40
60.0
  1
300
  7
K
 72
     1
 11
6270.263267
 21
4207.570958
 31
0.0
  0
LINE
  8
ITTEN
 10
6320.263267
 20
4376.7744
 30
0.0
 11
6470.263267
 21
4376.7744
 31
0.0
  0
LINE
  8
HASEN
 10
6420.263267
 20
4386.7744
 30
0.0
 11
6370.263267
 21
4386.7744
 31
0.0
  0
LINE
  8
HASEN
 10
6370.263267
 20
4386.7744
 30
0.0
 11
6370.263267
 21
4366.7744
 31
0.0
  0
LINE
  8
HASEN
 10
6370.263267
 20
4366.7744
 30
0.0
 11
6420.263267
 21
4366.7744
 31
0.0
  0
LINE
  8
JISSEN
 10
5370.263267
 20
4366.7744
 30
0.0
 11
5320.263267
 21
4366.7744
 31
0.0
  0
LINE
  8
JISSEN
 10
5370.263267
 20
4386.7744
 30
0.0
 11
5370.263267
 21
4366.7744
 31
0.0
  0
LINE
  8
JISSEN
 10
5320.263267
 20
4386.7744
 30
0.0
 11
5370.263267
 21
4386.7744
 31
0.0
  0
LINE
  8
ITTEN
 10
5420.263267
 20
4376.7744
 30
0.0
 11
5270.263267
 21
4376.7744
 31
0.0
  0
LINE
  8
SUNPOU
 10
6450.263267
 20
4376.7744
 30
0.0
 11
6598.678789
 21
4376.7744
 31
0.0
  0
LINE
  8
SUNPOU
 10
6450.263267
 20
4456.7744
 30
0.0
 11
6598.678789
 21
4456.7744
 31
0.0
  0
LINE
  8
SUNPOU
 10
6568.678789
 20
4376.7744
 30
0.0
 11
6568.678789
 21
4456.7744
 31
0.0
  0
INSERT
  8
SUNPOU
  2
ARROWANG
 10
6568.678789
 20
4376.7744
 30
0.0
 41
30.0
 42
30.0
 50
90.0
 43
30.0
  0
INSERT
  8
SUNPOU
  2
ARROWANG
 10
6568.678789
 20
4456.7744
 30
0.0
 41
30.0
 42
30.0
 50
270.0
 43
30.0
  0
TEXT
  8
SUNPOU
 10
6523.678789
 20
4360.890933
 30
0.0
 40
60.0
  1
80
 50
90.0
  7
K
 72
     1
 11
6523.678789
 21
4418.03379
 31
0.0
  0
LINE
  8
SUNPOU
 10
6568.678789
 20
4456.7744
 30
0.0
 11
6568.678789
 21
4516.7744
 31
0.0
  0
LINE
  8
SUNPOU
 10
6568.678789
 20
4376.7744
 30
0.0
 11
6568.678789
 21
4316.7744
 31
0.0
  0
LINE
  8
SUNPOU
 10
6380.263267
 20
4441.7744
 30
0.0
 11
6731.002079
 21
4441.7744
 31
0.0
  0
LINE
  8
SUNPOU
 10
6598.678789
 20
4456.7744
 30
0.0
 11
6731.002079
 21
4456.7744
 31
0.0
  0
LINE
  8
SUNPOU
 10
6701.002079
 20
4441.7744
 30
0.0
 11
6701.002079
 21
4456.7744
 31
0.0
  0
INSERT
  8
SUNPOU
  2
ARROWANG
 10
6701.002079
 20
4441.7744
 30
0.0
 41
30.0
 42
30.0
 50
90.0
 43
30.0
  0
INSERT
  8
SUNPOU
  2
ARROWANG
 10
6701.002079
 20
4456.7744
 30
0.0
 41
30.0
 42
30.0
 50
270.0
 43
30.0
  0
LINE
  8
SUNPOU
 10
6701.002079
 20
4456.7744
 30
0.0
 11
6701.002079
 21
4591.947788
 31
0.0
  0
LINE
  8
SUNPOU
 10
6701.002079
 20
4441.7744
 30
0.0
 11
6701.00208
 21
4381.7744
 31
0.0
  0
TEXT
  8
SUNPOU
 10
6656.002079
 20
4470.519217
 30
0.0
 40
60.0
  1
15
 50
90.0
  7
K
 72
     1
 11
6656.002079
 21
4531.947788
 31
0.0
  0
LINE
  8
SUNPOU
 10
6450.263267
 20
4311.7744
 30
0.0
 11
6884.296662
 21
4311.7744
 31
0.0
  0
LINE
  8
SUNPOU
 10
6731.002079
 20
4441.7744
 30
0.0
 11
6884.296662
 21
4441.7744
 31
0.0
  0
LINE
  8
SUNPOU
 10
6854.296662
 20
4311.7744
 30
0.0
 11
6854.296662
 21
4441.7744
 31
0.0
  0
INSERT
  8
SUNPOU
  2
ARROWANG
 10
6854.296662
 20
4311.7744
 30
0.0
 41
30.0
 42
30.0
 50
270.0
 43
30.0
  0
INSERT
  8
SUNPOU
  2
ARROWANG
 10
6854.296662
 20
4441.7744
 30
0.0
 41
30.0
 42
30.0
 50
90.0
 43
30.0
  0
TEXT
  8
SUNPOU
 10
6817.648061
 20
4247.737482
 30
0.0
 40
60.0
  1
130
 50
90.0
  7
K
 72
     1
 11
6817.648061
 21
4337.737482
 31
0.0
  0
LINE
  8
SUNPOU
 10
5320.263267
 20
4132.570958
 30
0.0
 11
5320.263267
 21
3955.167552
 31
0.0
  0
LINE
  8
SUNPOU
 10
6420.263267
 20
4132.570958
 30
0.0
 11
6420.263267
 21
3955.167552
 31
0.0
  0
LINE
  8
SUNPOU
 10
5320.263267
 20
3985.167552
 30
0.0
 11
6420.263267
 21
3985.167552
 31
0.0
  0
INSERT
  8
SUNPOU
  2
ARROWANG
 10
5320.263267
 20
3985.167552
 30
0.0
 41
30.0
 42
30.0
 50
180.0
 43
30.0
  0
INSERT
  8
SUNPOU
  2
ARROWANG
 10
6420.263267
 20
3985.167552
 30
0.0
 41
30.0
 42
30.0
 43
30.0
  0
TEXT
  8
SUNPOU
 10
5751.691853
 20
4030.167552
 30
0.0
 40
60.0
  1
1100
  7
K
 72
     1
 11
5870.263281
 21
4030.167552
 31
0.0
  0
CIRCLE
  8
JISSEN
 10
5870.263267
 20
3086.35781
 30
0.0
 40
550.0
  0
CIRCLE
  8
JISSEN
 10
5870.263267
 20
3086.35781
 30
0.0
 40
250.0
  0
CIRCLE
  8
JISSEN
 10
5870.263267
 20
3086.35781
 30
0.0
 40
485.0
  0
CIRCLE
  8
JISSEN
 10
5870.263267
 20
3086.35781
 30
0.0
 40
480.0
  0
LINE
  8
ITTEN
 10
5870.263267
 20
3686.35781
 30
0.0
 11
5870.263267
 21
2486.35781
 31
0.0
  0
LINE
  8
ITTEN
 10
6470.263267
 20
3086.35781
 30
0.0
 11
5270.263267
 21
3086.35781
 31
0.0
  0
LINE
  8
ITTEN
 10
4013.15895
 20
3086.35781
 30
0.0
 11
2813.15895
 21
3086.35781
 31
0.0
  0
LINE
  8
ITTEN
 10
3413.15895
 20
3686.35781
 30
0.0
 11
3413.15895
 21
2486.35781
 31
0.0
  0
CIRCLE
  8
JISSEN
 10
3413.15895
 20
3086.35781
 30
0.0
 40
480.0
  0
CIRCLE
  8
JISSEN
 10
3413.15895
 20
3086.35781
 30
0.0
 40
485.0
  0
CIRCLE
  8
JISSEN
 10
3413.15895
 20
3086.35781
 30
0.0
 40
250.0
  0
CIRCLE
  8
JISSEN
 10
3413.15895
 20
3086.35781
 30
0.0
 40
550.0
  0
TEXT
  8
SUNPOU
 10
3294.587536
 20
4030.167552
 30
0.0
 40
60.0
  1
1100
  7
K
 72
     1
 11
3413.158965
 21
4030.167552
 31
0.0
  0
INSERT
  8
SUNPOU
  2
ARROWANG
 10
3963.15895
 20
3985.167552
 30
0.0
 41
30.0
 42
30.0
 43
30.0
  0
INSERT
  8
SUNPOU
  2
ARROWANG
 10
2863.15895
 20
3985.167552
 30
0.0
 41
30.0
 42
30.0
 50
180.0
 43
30.0
  0
LINE
  8
SUNPOU
 10
2863.15895
 20
3985.167552
 30
0.0
 11
3963.15895
 21
3985.167552
 31
0.0
  0
LINE
  8
SUNPOU
 10
3963.15895
 20
4132.570958
 30
0.0
 11
3963.15895
 21
3955.167552
 31
0.0
  0
LINE
  8
SUNPOU
 10
2863.15895
 20
4132.570958
 30
0.0
 11
2863.15895
 21
3955.167552
 31
0.0
  0
TEXT
  8
SUNPOU
 10
4360.543745
 20
4247.737482
 30
0.0
 40
60.0
  1
130
 50
90.0
  7
K
 72
     1
 11
4360.543745
 21
4337.737482
 31
0.0
  0
INSERT
  8
SUNPOU
  2
ARROWANG
 10
4397.192345
 20
4441.7744
 30
0.0
 41
30.0
 42
30.0
 50
90.0
 43
30.0
  0
INSERT
  8
SUNPOU
  2
ARROWANG
 10
4397.192345
 20
4311.7744
 30
0.0
 41
30.0
 42
30.0
 50
270.0
 43
30.0
  0
LINE
  8
SUNPOU
 10
4397.192345
 20
4311.7744
 30
0.0
 11
4397.192345
 21
4441.7744
 31
0.0
  0
LINE
  8
SUNPOU
 10
4273.897763
 20
4441.7744
 30
0.0
 11
4427.192345
 21
4441.7744
 31
0.0
  0
LINE
  8
SUNPOU
 10
3993.15895
 20
4311.7744
 30
0.0
 11
4427.192345
 21
4311.7744
 31
0.0
  0
TEXT
  8
SUNPOU
 10
4198.897763
 20
4470.519217
 30
0.0
 40
60.0
  1
15
 50
90.0
  7
K
 72
     1
 11
4198.897763
 21
4531.947788
 31
0.0
  0
LINE
  8
SUNPOU
 10
4243.897763
 20
4441.7744
 30
0.0
 11
4243.897764
 21
4381.7744
 31
0.0
  0
LINE
  8
SUNPOU
 10
4243.897763
 20
4456.7744
 30
0.0
 11
4243.897763
 21
4591.947788
 31
0.0
  0
INSERT
  8
SUNPOU
  2
ARROWANG
 10
4243.897763
 20
4456.7744
 30
0.0
 41
30.0
 42
30.0
 50
270.0
 43
30.0
  0
INSERT
  8
SUNPOU
  2
ARROWANG
 10
4243.897763
 20
4441.7744
 30
0.0
 41
30.0
 42
30.0
 50
90.0
 43
30.0
  0
LINE
  8
SUNPOU
 10
4243.897763
 20
4441.7744
 30
0.0
 11
4243.897763
 21
4456.7744
 31
0.0
  0
LINE
  8
SUNPOU
 10
4141.574473
 20
4456.7744
 30
0.0
 11
4273.897763
 21
4456.7744
 31
0.0
  0
LINE
  8
SUNPOU
 10
3923.15895
 20
4441.7744
 30
0.0
 11
4273.897763
 21
4441.7744
 31
0.0
  0
LINE
  8
SUNPOU
 10
4111.574473
 20
4376.7744
 30
0.0
 11
4111.574473
 21
4316.7744
 31
0.0
  0
LINE
  8
SUNPOU
 10
4111.574473
 20
4456.7744
 30
0.0
 11
4111.574473
 21
4516.7744
 31
0.0
  0
TEXT
  8
SUNPOU
 10
4066.574473
 20
4360.890933
 30
0.0
 40
60.0
  1
80
 50
90.0
  7
K
 72
     1
 11
4066.574473
 21
4418.03379
 31
0.0
  0
INSERT
  8
SUNPOU
  2
ARROWANG
 10
4111.574473
 20
4456.7744
 30
0.0
 41
30.0
 42
30.0
 50
270.0
 43
30.0
  0
INSERT
  8
SUNPOU
  2
ARROWANG
 10
4111.574473
 20
4376.7744
 30
0.0
 41
30.0
 42
30.0
 50
90.0
 43
30.0
  0
LINE
  8
SUNPOU
 10
4111.574473
 20
4376.7744
 30
0.0
 11
4111.574473
 21
4456.7744
 31
0.0
  0
LINE
  8
SUNPOU
 10
3993.15895
 20
4456.7744
 30
0.0
 11
4141.574473
 21
4456.7744
 31
0.0
  0
LINE
  8
SUNPOU
 10
3993.15895
 20
4376.7744
 30
0.0
 11
4141.574473
 21
4376.7744
 31
0.0
  0
LINE
  8
ITTEN
 10
2963.15895
 20
4376.7744
 30
0.0
 11
2813.15895
 21
4376.7744
 31
0.0
  0
LINE
  8
JISSEN
 10
2863.15895
 20
4386.7744
 30
0.0
 11
2913.15895
 21
4386.7744
 31
0.0
  0
LINE
  8
JISSEN
 10
2913.15895
 20
4386.7744
 30
0.0
 11
2913.15895
 21
4366.7744
 31
0.0
  0
LINE
  8
JISSEN
 10
2913.15895
 20
4366.7744
 30
0.0
 11
2863.15895
 21
4366.7744
 31
0.0
  0
LINE
  8
HASEN
 10
3913.15895
 20
4366.7744
 30
0.0
 11
3963.15895
 21
4366.7744
 31
0.0
  0
LINE
  8
HASEN
 10
3913.15895
 20
4386.7744
 30
0.0
 11
3913.15895
 21
4366.7744
 31
0.0
  0
LINE
  8
HASEN
 10
3963.15895
 20
4386.7744
 30
0.0
 11
3913.15895
 21
4386.7744
 31
0.0
  0
LINE
  8
ITTEN
 10
3863.15895
 20
4376.7744
 30
0.0
 11
4013.15895
 21
4376.7744
 31
0.0
  0
TEXT
  8
SUNPOU
 10
3727.444664
 20
4207.570958
 30
0.0
 40
60.0
  1
300
  7
K
 72
     1
 11
3813.15895
 21
4207.570958
 31
0.0
  0
INSERT
  8
SUNPOU
  2
ARROWANG
 10
3963.15895
 20
4162.570958
 30
0.0
 41
30.0
 42
30.0
 43
30.0
  0
INSERT
  8
SUNPOU
  2
ARROWANG
 10
3663.15895
 20
4162.570958
 30
0.0
 41
30.0
 42
30.0
 50
180.0
 43
30.0
  0
LINE
  8
SUNPOU
 10
3963.15895
 20
4281.7744
 30
0.0
 11
3963.15895
 21
4132.570958
 31
0.0
  0
LINE
  8
SUNPOU
 10
3663.15895
 20
4162.570958
 30
0.0
 11
3963.15895
 21
4162.570958
 31
0.0
  0
TEXT
  8
SUNPOU
 10
3327.444664
 20
4207.570958
 30
0.0
 40
60.0
  1
500
  7
K
 72
     1
 11
3413.15895
 21
4207.570958
 31
0.0
  0
INSERT
  8
SUNPOU
  2
ARROWANG
 10
3663.15895
 20
4162.570958
 30
0.0
 41
30.0
 42
30.0
 43
30.0
  0
INSERT
  8
SUNPOU
  2
ARROWANG
 10
3163.15895
 20
4162.570958
 30
0.0
 41
30.0
 42
30.0
 50
180.0
 43
30.0
  0
LINE
  8
SUNPOU
 10
3663.15895
 20
4281.7744
 30
0.0
 11
3663.15895
 21
4132.570958
 31
0.0
  0
LINE
  8
SUNPOU
 10
3163.15895
 20
4162.570958
 30
0.0
 11
3663.15895
 21
4162.570958
 31
0.0
  0
TEXT
  8
SUNPOU
 10
2927.444679
 20
4207.570958
 30
0.0
 40
60.0
  1
300
  7
K
 72
     1
 11
3013.158965
 21
4207.570958
 31
0.0
  0
INSERT
  8
SUNPOU
  2
ARROWANG
 10
3163.15895
 20
4162.570958
 30
0.0
 41
30.0
 42
30.0
 43
30.0
  0
INSERT
  8
SUNPOU
  2
ARROWANG
 10
2863.15895
 20
4162.570958
 30
0.0
 41
30.0
 42
30.0
 50
180.0
 43
30.0
  0
LINE
  8
SUNPOU
 10
2863.15895
 20
4162.570958
 30
0.0
 11
3163.15895
 21
4162.570958
 31
0.0
  0
LINE
  8
SUNPOU
 10
3163.15895
 20
4281.7744
 30
0.0
 11
3163.15895
 21
4132.570958
 31
0.0
  0
LINE
  8
SUNPOU
 10
2863.15895
 20
4281.7744
 30
0.0
 11
2863.15895
 21
4132.570958
 31
0.0
  0
LINE
  8
HASEN
 10
3663.15895
 20
4441.7744
 30
0.0
 11
3663.15895
 21
4311.7744
 31
0.0
  0
LINE
  8
HASEN
 10
3893.15895
 20
4441.7744
 30
0.0
 11
3413.15895
 21
4441.7744
 31
0.0
  0
LINE
  8
JISSEN
 10
3898.15895
 20
4456.7744
 30
0.0
 11
3893.15895
 21
4441.7744
 31
0.0
  0
LINE
  8
JISSEN
 10
3163.15895
 20
4441.7744
 30
0.0
 11
3163.15895
 21
4311.7744
 31
0.0
  0
LINE
  8
JISSEN
 10
2933.15895
 20
4441.7744
 30
0.0
 11
3413.15895
 21
4441.7744
 31
0.0
  0
LINE
  8
JISSEN
 10
2928.15895
 20
4456.7744
 30
0.0
 11
2933.15895
 21
4441.7744
 31
0.0
  0
LINE
  8
JISSEN
 10
3963.15895
 20
4311.7744
 30
0.0
 11
2863.15895
 21
4311.7744
 31
0.0
  0
LINE
  8
JISSEN
 10
3963.15895
 20
4456.7744
 30
0.0
 11
3963.15895
 21
4311.7744
 31
0.0
  0
LINE
  8
JISSEN
 10
2863.15895
 20
4456.7744
 30
0.0
 11
3963.15895
 21
4456.7744
 31
0.0
  0
LINE
  8
JISSEN
 10
2863.15895
 20
4456.7744
 30
0.0
 11
2863.15895
 21
4456.7744
 31
0.0
  0
LINE
  8
JISSEN
 10
2863.15895
 20
4311.7744
 30
0.0
 11
2863.15895
 21
4456.7744
 31
0.0
  0
LINE
  8
ITTEN
 10
3413.15895
 20
4506.7744
 30
0.0
 11
3413.15895
 21
4261.7744
 31
0.0
  0
LINE
  8
ITTEN
 10
8327.367583
 20
4506.7744
 30
0.0
 11
8327.367583
 21
4261.7744
 31
0.0
  0
LINE
  8
JISSEN
 10
7777.367583
 20
4311.7744
 30
0.0
 11
7777.367583
 21
4456.7744
 31
0.0
  0
LINE
  8
JISSEN
 10
7777.367583
 20
4456.7744
 30
0.0
 11
7777.367583
 21
4456.7744
 31
0.0
  0
LINE
  8
JISSEN
 10
7777.367583
 20
4456.7744
 30
0.0
 11
8877.367583
 21
4456.7744
 31
0.0
  0
LINE
  8
JISSEN
 10
8877.367583
 20
4456.7744
 30
0.0
 11
8877.367583
 21
4311.7744
 31
0.0
  0
LINE
  8
JISSEN
 10
8877.367583
 20
4311.7744
 30
0.0
 11
7777.367583
 21
4311.7744
 31
0.0
  0
LINE
  8
JISSEN
 10
7842.367583
 20
4456.7744
 30
0.0
 11
7847.367583
 21
4441.7744
 31
0.0
  0
LINE
  8
JISSEN
 10
7847.367583
 20
4441.7744
 30
0.0
 11
8327.367583
 21
4441.7744
 31
0.0
  0
LINE
  8
JISSEN
 10
8812.367583
 20
4456.7744
 30
0.0
 11
8807.367583
 21
4441.7744
 31
0.0
  0
LINE
  8
HASEN
 10
8807.367583
 20
4441.7744
 30
0.0
 11
8327.367583
 21
4441.7744
 31
0.0
  0
LINE
  8
SUNPOU
 10
7777.367583
 20
4281.7744
 30
0.0
 11
7777.367583
 21
4132.570958
 31
0.0
  0
LINE
  8
SUNPOU
 10
8877.367583
 20
4281.7744
 30
0.0
 11
8877.367583
 21
4132.570958
 31
0.0
  0
LINE
  8
ITTEN
 10
8777.367583
 20
4376.7744
 30
0.0
 11
8927.367583
 21
4376.7744
 31
0.0
  0
LINE
  8
HASEN
 10
8877.367583
 20
4386.7744
 30
0.0
 11
8827.367583
 21
4386.7744
 31
0.0
  0
LINE
  8
HASEN
 10
8827.367583
 20
4386.7744
 30
0.0
 11
8827.367583
 21
4366.7744
 31
0.0
  0
LINE
  8
HASEN
 10
8827.367583
 20
4366.7744
 30
0.0
 11
8877.367583
 21
4366.7744
 31
0.0
  0
LINE
  8
JISSEN
 10
7827.367583
 20
4366.7744
 30
0.0
 11
7777.367583
 21
4366.7744
 31
0.0
  0
LINE
  8
JISSEN
 10
7827.367583
 20
4386.7744
 30
0.0
 11
7827.367583
 21
4366.7744
 31
0.0
  0
LINE
  8
JISSEN
 10
7777.367583
 20
4386.7744
 30
0.0
 11
7827.367583
 21
4386.7744
 31
0.0
  0
LINE
  8
ITTEN
 10
7877.367583
 20
4376.7744
 30
0.0
 11
7727.367583
 21
4376.7744
 31
0.0
  0
LINE
  8
SUNPOU
 10
8907.367583
 20
4376.7744
 30
0.0
 11
9055.783106
 21
4376.7744
 31
0.0
  0
LINE
  8
SUNPOU
 10
8907.367583
 20
4456.7744
 30
0.0
 11
9055.783106
 21
4456.7744
 31
0.0
  0
LINE
  8
SUNPOU
 10
9025.783106
 20
4376.7744
 30
0.0
 11
9025.783106
 21
4456.7744
 31
0.0
  0
INSERT
  8
SUNPOU
  2
ARROWANG
 10
9025.783106
 20
4376.7744
 30
0.0
 41
30.0
 42
30.0
 50
90.0
 43
30.0
  0
INSERT
  8
SUNPOU
  2
ARROWANG
 10
9025.783106
 20
4456.7744
 30
0.0
 41
30.0
 42
30.0
 50
270.0
 43
30.0
  0
TEXT
  8
SUNPOU
 10
8980.783106
 20
4360.890933
 30
0.0
 40
60.0
  1
80
 50
90.0
  7
K
 72
     1
 11
8980.783106
 21
4418.03379
 31
0.0
  0
LINE
  8
SUNPOU
 10
9025.783106
 20
4456.7744
 30
0.0
 11
9025.783106
 21
4516.7744
 31
0.0
  0
LINE
  8
SUNPOU
 10
9025.783106
 20
4376.7744
 30
0.0
 11
9025.783106
 21
4316.7744
 31
0.0
  0
LINE
  8
SUNPOU
 10
8837.367583
 20
4441.7744
 30
0.0
 11
9188.106396
 21
4441.7744
 31
0.0
  0
LINE
  8
SUNPOU
 10
9055.783106
 20
4456.7744
 30
0.0
 11
9188.106396
 21
4456.7744
 31
0.0
  0
LINE
  8
SUNPOU
 10
9158.106396
 20
4441.7744
 30
0.0
 11
9158.106396
 21
4456.7744
 31
0.0
  0
INSERT
  8
SUNPOU
  2
ARROWANG
 10
9158.106396
 20
4441.7744
 30
0.0
 41
30.0
 42
30.0
 50
90.0
 43
30.0
  0
INSERT
  8
SUNPOU
  2
ARROWANG
 10
9158.106396
 20
4456.7744
 30
0.0
 41
30.0
 42
30.0
 50
270.0
 43
30.0
  0
LINE
  8
SUNPOU
 10
9158.106396
 20
4456.7744
 30
0.0
 11
9158.106396
 21
4591.947788
 31
0.0
  0
LINE
  8
SUNPOU
 10
9158.106396
 20
4441.7744
 30
0.0
 11
9158.106397
 21
4381.7744
 31
0.0
  0
TEXT
  8
SUNPOU
 10
9113.106396
 20
4470.519217
 30
0.0
 40
60.0
  1
15
 50
90.0
  7
K
 72
     1
 11
9113.106396
 21
4531.947788
 31
0.0
  0
LINE
  8
SUNPOU
 10
8907.367583
 20
4311.7744
 30
0.0
 11
9341.400978
 21
4311.7744
 31
0.0
  0
LINE
  8
SUNPOU
 10
9188.106396
 20
4441.7744
 30
0.0
 11
9341.400978
 21
4441.7744
 31
0.0
  0
LINE
  8
SUNPOU
 10
9311.400978
 20
4311.7744
 30
0.0
 11
9311.400978
 21
4441.7744
 31
0.0
  0
INSERT
  8
SUNPOU
  2
ARROWANG
 10
9311.400978
 20
4311.7744
 30
0.0
 41
30.0
 42
30.0
 50
270.0
 43
30.0
  0
INSERT
  8
SUNPOU
  2
ARROWANG
 10
9311.400978
 20
4441.7744
 30
0.0
 41
30.0
 42
30.0
 50
90.0
 43
30.0
  0
TEXT
  8
SUNPOU
 10
9274.752378
 20
4247.737482
 30
0.0
 40
60.0
  1
130
 50
90.0
  7
K
 72
     1
 11
9274.752378
 21
4337.737482
 31
0.0
  0
LINE
  8
SUNPOU
 10
7777.367583
 20
4132.570958
 30
0.0
 11
7777.367583
 21
3955.167552
 31
0.0
  0
LINE
  8
SUNPOU
 10
8877.367583
 20
4132.570958
 30
0.0
 11
8877.367583
 21
3955.167552
 31
0.0
  0
LINE
  8
SUNPOU
 10
7777.367583
 20
3985.167552
 30
0.0
 11
8877.367583
 21
3985.167552
 31
0.0
  0
INSERT
  8
SUNPOU
  2
ARROWANG
 10
7777.367583
 20
3985.167552
 30
0.0
 41
30.0
 42
30.0
 50
180.0
 43
30.0
  0
INSERT
  8
SUNPOU
  2
ARROWANG
 10
8877.367583
 20
3985.167552
 30
0.0
 41
30.0
 42
30.0
 43
30.0
  0
TEXT
  8
SUNPOU
 10
8208.796169
 20
4030.167552
 30
0.0
 40
60.0
  1
1100
  7
K
 72
     1
 11
8327.367598
 21
4030.167552
 31
0.0
  0
CIRCLE
  8
JISSEN
 10
8327.367583
 20
3086.35781
 30
0.0
 40
550.0
  0
CIRCLE
  8
JISSEN
 10
8327.367583
 20
3086.35781
 30
0.0
 40
485.0
  0
CIRCLE
  8
JISSEN
 10
8327.367583
 20
3086.35781
 30
0.0
 40
480.0
  0
LINE
  8
ITTEN
 10
8327.367583
 20
3686.35781
 30
0.0
 11
8327.367583
 21
2486.35781
 31
0.0
  0
LINE
  8
ITTEN
 10
8927.367583
 20
3086.35781
 30
0.0
 11
7727.367583
 21
3086.35781
 31
0.0
  0
TEXT
  8
TEXT
 10
8141.36909
 20
4667.965574
 30
0.0
 40
100.0
  1
Ｍ１ＰＦ
  7
K
  0
POLYLINE
  8
WAKU
 66
     1
 10
0.0
 20
0.0
 30
0.0
 70
     1
  0
VERTEX
  8
WAKU
 10
0.0
 20
0.0
 30
0.0
  0
VERTEX
  8
WAKU
 10
11850.0
 20
0.0
 30
0.0
  0
VERTEX
  8
WAKU
 10
11850.0
 20
8190.0
 30
0.0
  0
VERTEX
  8
WAKU
 10
0.0
 20
8190.0
 30
0.0
  0
SEQEND
  8
WAKU
  0
TEXT
  8
TEXT
 10
11251.577066
 20
804.885297
 30
0.0
 40
120.0
  1
1/30
  7
K
  0
ENDSEC
  0
EOF
