  0
SECTION
  2
HEADER
  9
$ACADVER
  1
AC1014
  9
$ACADMAINTVER
 70
     9
  9
$DWGCODEPAGE
  3
ANSI_932
  9
$INSBASE
 10
0.0
 20
0.0
 30
0.0
  9
$EXTMIN
 10
-0.3616057107719826
 20
-0.249919896306892
 30
-0.0015258207003583
  9
$EXTMAX
 10
11850.36166089163
 20
8190.249958033964
 30
0.0000000349246037
  9
$LIMMIN
 10
0.0
 20
0.0
  9
$LIMMAX
 10
11850.0
 20
8190.0
  9
$ORTHOMODE
 70
     0
  9
$REGENMODE
 70
     1
  9
$FILLMODE
 70
     1
  9
$QTEXTMODE
 70
     0
  9
$MIRRTEXT
 70
     0
  9
$DRAGMODE
 70
     2
  9
$LTSCALE
 40
150.0
  9
$OSMODE
 70
    37
  9
$ATTMODE
 70
     1
  9
$TEXTSIZE
 40
60.0
  9
$TRACEWID
 40
0.05
  9
$TEXTSTYLE
  7
K
  9
$CLAYER
  8
SUNPOU
  9
$CELTYPE
  6
BYLAYER
  9
$CECOLOR
 62
   256
  9
$CELTSCALE
 40
1.0
  9
$DELOBJ
 70
     1
  9
$DISPSILH
 70
     0
  9
$DIMSCALE
 40
30.0
  9
$DIMASZ
 40
1.5
  9
$DIMEXO
 40
1.0
  9
$DIMDLI
 40
6.0
  9
$DIMRND
 40
0.0
  9
$DIMDLE
 40
0.0
  9
$DIMEXE
 40
1.0
  9
$DIMTP
 40
495.0
  9
$DIMTM
 40
0.0
  9
$DIMTXT
 40
3.0
  9
$DIMCEN
 40
0.0
  9
$DIMTSZ
 40
0.0
  9
$DIMTOL
 70
     0
  9
$DIMLIM
 70
     0
  9
$DIMTIH
 70
     0
  9
$DIMTOH
 70
     0
  9
$DIMSE1
 70
     0
  9
$DIMSE2
 70
     0
  9
$DIMTAD
 70
     1
  9
$DIMZIN
 70
     8
  9
$DIMBLK
  1

  9
$DIMASO
 70
     0
  9
$DIMSHO
 70
     0
  9
$DIMPOST
  1

  9
$DIMAPOST
  1

  9
$DIMALT
 70
     0
  9
$DIMALTD
 70
     2
  9
$DIMALTF
 40
25.4
  9
$DIMLFAC
 40
1.0
  9
$DIMTOFL
 70
     1
  9
$DIMTVP
 40
0.0
  9
$DIMTIX
 70
     1
  9
$DIMSOXD
 70
     0
  9
$DIMSAH
 70
     0
  9
$DIMBLK1
  1

  9
$DIMBLK2
  1

  9
$DIMSTYLE
  2
STANDARD
  9
$DIMCLRD
 70
     0
  9
$DIMCLRE
 70
     0
  9
$DIMCLRT
 70
     0
  9
$DIMTFAC
 40
1.0
  9
$DIMGAP
 40
0.09
  9
$DIMJUST
 70
     0
  9
$DIMSD1
 70
     0
  9
$DIMSD2
 70
     0
  9
$DIMTOLJ
 70
     1
  9
$DIMTZIN
 70
     0
  9
$DIMALTZ
 70
     0
  9
$DIMALTTZ
 70
     0
  9
$DIMFIT
 70
     3
  9
$DIMUPT
 70
     0
  9
$DIMUNIT
 70
     2
  9
$DIMDEC
 70
     4
  9
$DIMTDEC
 70
     4
  9
$DIMALTU
 70
     2
  9
$DIMALTTD
 70
     2
  9
$DIMTXSTY
  7
STANDARD
  9
$DIMAUNIT
 70
     0
  9
$LUNITS
 70
     2
  9
$LUPREC
 70
     2
  9
$SKETCHINC
 40
0.1
  9
$FILLETRAD
 40
0.0
  9
$AUNITS
 70
     0
  9
$AUPREC
 70
     2
  9
$MENU
  1
d:stdgx5
  9
$ELEVATION
 40
0.0
  9
$PELEVATION
 40
0.0
  9
$THICKNESS
 40
0.0
  9
$LIMCHECK
 70
     0
  9
$BLIPMODE
 70
     0
  9
$CHAMFERA
 40
0.0
  9
$CHAMFERB
 40
0.0
  9
$CHAMFERC
 40
0.0
  9
$CHAMFERD
 40
0.0
  9
$SKPOLY
 70
     0
  9
$TDCREATE
 40
2450248.459293981
  9
$TDUPDATE
 40
2453656.719076423
  9
$TDINDWG
 40
0.0055736806
  9
$TDUSRTIMER
 40
0.0055735648
  9
$USRTIMER
 70
     1
  9
$ANGBASE
 50
0.0
  9
$ANGDIR
 70
     0
  9
$PDMODE
 70
     0
  9
$PDSIZE
 40
0.0
  9
$PLINEWID
 40
0.0
  9
$COORDS
 70
     1
  9
$SPLFRAME
 70
     0
  9
$SPLINETYPE
 70
     6
  9
$SPLINESEGS
 70
     8
  9
$ATTDIA
 70
     0
  9
$ATTREQ
 70
     1
  9
$HANDLING
 70
-16383
  9
$HANDSEED
  5
338
  9
$SURFTAB1
 70
     6
  9
$SURFTAB2
 70
     6
  9
$SURFTYPE
 70
     6
  9
$SURFU
 70
     6
  9
$SURFV
 70
     6
  9
$UCSNAME
  2

  9
$UCSORG
 10
0.0
 20
0.0
 30
0.0
  9
$UCSXDIR
 10
1.0
 20
0.0
 30
0.0
  9
$UCSYDIR
 10
0.0
 20
1.0
 30
0.0
  9
$PUCSNAME
  2

  9
$PUCSORG
 10
0.0
 20
0.0
 30
0.0
  9
$PUCSXDIR
 10
1.0
 20
0.0
 30
0.0
  9
$PUCSYDIR
 10
0.0
 20
1.0
 30
0.0
  9
$USERI1
 70
     3
  9
$USERI2
 70
    33
  9
$USERI3
 70
     0
  9
$USERI4
 70
     1
  9
$USERI5
 70
     0
  9
$USERR1
 40
30.0
  9
$USERR2
 40
3.0
  9
$USERR3
 40
3.0
  9
$USERR4
 40
1.5
  9
$USERR5
 40
10.0
  9
$WORLDVIEW
 70
     1
  9
$SHADEDGE
 70
     3
  9
$SHADEDIF
 70
    70
  9
$TILEMODE
 70
     1
  9
$MAXACTVP
 70
    16
  9
$PINSBASE
 10
0.0
 20
0.0
 30
0.0
  9
$PLIMCHECK
 70
     0
  9
$PEXTMIN
 10
1.000000000000000E+20
 20
1.000000000000000E+20
 30
1.000000000000000E+20
  9
$PEXTMAX
 10
-1.000000000000000E+20
 20
-1.000000000000000E+20
 30
-1.000000000000000E+20
  9
$PLIMMIN
 10
0.0
 20
0.0
  9
$PLIMMAX
 10
12.0
 20
9.0
  9
$UNITMODE
 70
     0
  9
$VISRETAIN
 70
     0
  9
$PLINEGEN
 70
     0
  9
$PSLTSCALE
 70
     1
  9
$TREEDEPTH
 70
  3020
  9
$PICKSTYLE
 70
     1
  9
$CMLSTYLE
  2
STANDARD
  9
$CMLJUST
 70
     0
  9
$CMLSCALE
 40
1.0
  9
$PROXYGRAPHICS
 70
     1
  9
$MEASUREMENT
 70
     0
  0
ENDSEC
  0
SECTION
  2
CLASSES
  0
CLASS
  1
ACDBDICTIONARYWDFLT
  2
AcDbDictionaryWithDefault
  3
AutoCAD 2000
 90
        0
280
     0
281
     0
  0
CLASS
  1
ACDBPLACEHOLDER
  2
AcDbPlaceHolder
  3
AutoCAD 2000
 90
        0
280
     0
281
     0
  0
CLASS
  1
LAYOUT
  2
AcDbLayout
  3
AutoCAD 2000
 90
        0
280
     0
281
     0
  0
CLASS
  1
LONG_TRANSACTION
  2
AcDbLongTransaction
  3
AutoCAD 2000
 90
        0
280
     0
281
     0
  0
CLASS
  1
LWPOLYLINE
  2
AcDbPolyline
  3
AutoCAD 2000
 90
        0
280
     0
281
     1
  0
CLASS
  1
HATCH
  2
AcDbHatch
  3
AutoCAD 2000
 90
        0
280
     0
281
     1
  0
CLASS
  1
XRECORD
  2
AcDbXrecord
  3
AutoCAD 2000
 90
        0
280
     0
281
     0
  0
ENDSEC
  0
SECTION
  2
TABLES
  0
TABLE
  2
VPORT
  5
8
330
0
100
AcDbSymbolTable
 70
    10
  0
VPORT
  5
25
330
8
100
AcDbSymbolTableRecord
100
AcDbViewportTableRecord
  2
2
 70
     0
 10
0.5
 20
0.0
 11
1.0
 21
1.0
 12
0.9240309999999999
 22
1.052651
 13
0.0
 23
0.0
 14
1.0
 24
1.0
 15
10.0
 25
10.0
 16
0.0
 26
0.0
 36
1.0
 17
0.0
 27
0.0
 37
0.0
 40
2.105302
 41
0.877814
 42
50.0
 43
0.0
 44
0.0
 50
0.0
 51
0.0
 71
     0
 72
   500
 73
     1
 74
     1
 75
     0
 76
     0
 77
     0
 78
     0
  0
VPORT
  5
26
330
8
100
AcDbSymbolTableRecord
100
AcDbViewportTableRecord
  2
2
 70
     0
 10
0.0
 20
0.0
 11
0.5
 21
1.0
 12
0.9240309999999999
 22
1.052651
 13
0.0
 23
0.0
 14
1.0
 24
1.0
 15
10.0
 25
10.0
 16
0.0
 26
0.0
 36
1.0
 17
0.0
 27
0.0
 37
0.0
 40
2.105302
 41
0.877814
 42
50.0
 43
0.0
 44
0.0
 50
0.0
 51
0.0
 71
     0
 72
   500
 73
     1
 74
     1
 75
     0
 76
     0
 77
     0
 78
     0
  0
VPORT
  5
27
330
8
100
AcDbSymbolTableRecord
100
AcDbViewportTableRecord
  2
3
 70
     0
 10
0.0
 20
0.5
 11
1.0
 21
1.0
 12
2.832169999999999
 22
1.052651
 13
0.0
 23
0.0
 14
1.0
 24
1.0
 15
10.0
 25
10.0
 16
0.0
 26
0.0
 36
1.0
 17
0.0
 27
0.0
 37
0.0
 40
2.105302
 41
3.571429
 42
50.0
 43
0.0
 44
0.0
 50
0.0
 51
0.0
 71
     0
 72
   500
 73
     1
 74
     1
 75
     0
 76
     0
 77
     0
 78
     0
  0
VPORT
  5
28
330
8
100
AcDbSymbolTableRecord
100
AcDbViewportTableRecord
  2
3
 70
     0
 10
0.0
 20
0.0
 11
1.0
 21
0.5
 12
2.856741999999999
 22
1.052651
 13
0.0
 23
0.0
 14
1.0
 24
1.0
 15
10.0
 25
10.0
 16
0.0
 26
0.0
 36
1.0
 17
0.0
 27
0.0
 37
0.0
 40
2.105302
 41
3.594770999999999
 42
50.0
 43
0.0
 44
0.0
 50
0.0
 51
0.0
 71
     0
 72
   500
 73
     1
 74
     1
 75
     0
 76
     0
 77
     0
 78
     0
  0
VPORT
  5
29
330
8
100
AcDbSymbolTableRecord
100
AcDbViewportTableRecord
  2
4
 70
     0
 10
0.5
 20
0.0
 11
1.0
 21
0.5
 12
2.886858
 22
1.052651
 13
0.0
 23
0.0
 14
1.0
 24
1.0
 15
10.0
 25
10.0
 16
0.0
 26
0.0
 36
1.0
 17
0.0
 27
0.0
 37
0.0
 40
4.275206999999999
 41
1.784314
 42
50.0
 43
0.0
 44
0.0
 50
0.0
 51
0.0
 71
     0
 72
   500
 73
     1
 74
     1
 75
     0
 76
     0
 77
     0
 78
     0
  0
VPORT
  5
2A
330
8
100
AcDbSymbolTableRecord
100
AcDbViewportTableRecord
  2
4
 70
     0
 10
0.5
 20
0.5
 11
1.0
 21
1.0
 12
2.86209
 22
1.052651
 13
0.0
 23
0.0
 14
1.0
 24
1.0
 15
10.0
 25
10.0
 16
0.0
 26
0.0
 36
1.0
 17
0.0
 27
0.0
 37
0.0
 40
4.275206999999999
 41
1.772726999999999
 42
50.0
 43
0.0
 44
0.0
 50
0.0
 51
0.0
 71
     0
 72
   500
 73
     1
 74
     1
 75
     0
 76
     0
 77
     0
 78
     0
  0
VPORT
  5
2B
330
8
100
AcDbSymbolTableRecord
100
AcDbViewportTableRecord
  2
4
 70
     0
 10
0.0
 20
0.5
 11
0.5
 21
1.0
 12
2.86209
 22
1.052651
 13
0.0
 23
0.0
 14
1.0
 24
1.0
 15
10.0
 25
10.0
 16
0.0
 26
0.0
 36
1.0
 17
0.0
 27
0.0
 37
0.0
 40
4.275206999999999
 41
1.772726999999999
 42
50.0
 43
0.0
 44
0.0
 50
0.0
 51
0.0
 71
     0
 72
   500
 73
     1
 74
     1
 75
     0
 76
     0
 77
     0
 78
     0
  0
VPORT
  5
2C
330
8
100
AcDbSymbolTableRecord
100
AcDbViewportTableRecord
  2
4
 70
     0
 10
0.0
 20
0.0
 11
0.5
 21
0.5
 12
2.886858
 22
1.052651
 13
0.0
 23
0.0
 14
1.0
 24
1.0
 15
10.0
 25
10.0
 16
0.0
 26
0.0
 36
1.0
 17
0.0
 27
0.0
 37
0.0
 40
4.275206999999999
 41
1.784314
 42
50.0
 43
0.0
 44
0.0
 50
0.0
 51
0.0
 71
     0
 72
   500
 73
     1
 74
     1
 75
     0
 76
     0
 77
     0
 78
     0
  0
VPORT
  5
313
330
8
100
AcDbSymbolTableRecord
100
AcDbViewportTableRecord
  2
*ACTIVE
 70
     0
 10
0.0
 20
0.0
 11
1.0
 21
1.0
 12
5925.0
 22
4095.0
 13
0.0
 23
0.0
 14
1.0
 24
1.0
 15
10.0
 25
10.0
 16
0.0
 26
0.0
 36
1.0
 17
0.0
 27
0.0
 37
0.0
 40
8621.052631578947
 41
1.628719275549805
 42
50.0
 43
0.0
 44
0.0
 50
0.0
 51
0.0
 71
     0
 72
   500
 73
     1
 74
     0
 75
     0
 76
     0
 77
     0
 78
     0
  0
ENDTAB
  0
TABLE
  2
LTYPE
  5
5
330
0
100
AcDbSymbolTable
 70
     5
  0
LTYPE
  5
13
330
5
100
AcDbSymbolTableRecord
100
AcDbLinetypeTableRecord
  2
BYBLOCK
 70
     0
  3

 72
    65
 73
     0
 40
0.0
  0
LTYPE
  5
14
330
5
100
AcDbSymbolTableRecord
100
AcDbLinetypeTableRecord
  2
BYLAYER
 70
     0
  3

 72
    65
 73
     0
 40
0.0
  0
LTYPE
  5
15
330
5
100
AcDbSymbolTableRecord
100
AcDbLinetypeTableRecord
  2
CONTINUOUS
 70
     0
  3
実線
 72
    65
 73
     0
 40
0.0
  0
LTYPE
  5
2D
330
5
100
AcDbSymbolTableRecord
100
AcDbLinetypeTableRecord
  2
DASHED
 70
     0
  3
__ __ __ __ __ __ __ __ __ __ __ __ __ __ __
 72
    65
 73
     2
 40
0.75
 49
0.5
 74
     0
 49
-0.25
 74
     0
  0
LTYPE
  5
2E
330
5
100
AcDbSymbolTableRecord
100
AcDbLinetypeTableRecord
  2
CENTER
 70
     0
  3
____ _ ____ _ ____ _ ____ _ ____ _ ____ _ ____
 72
    65
 73
     4
 40
2.0
 49
1.25
 74
     0
 49
-0.25
 74
     0
 49
0.25
 74
     0
 49
-0.25
 74
     0
  0
LTYPE
  5
2F
330
5
100
AcDbSymbolTableRecord
100
AcDbLinetypeTableRecord
  2
PHANTOM
 70
     0
  3
_____ _ _ _____ _ _ _____ _ _ _____ _ _ ____
 72
    65
 73
     6
 40
2.5
 49
1.25
 74
     0
 49
-0.25
 74
     0
 49
0.25
 74
     0
 49
-0.25
 74
     0
 49
0.25
 74
     0
 49
-0.25
 74
     0
  0
LTYPE
  5
30
330
5
100
AcDbSymbolTableRecord
100
AcDbLinetypeTableRecord
  2
HIDDEN
 70
     0
  3
_ _ _ _ _ _ _ _ _ _ _ _ _ _ _ _ _ _ _ _ _ _ _
 72
    65
 73
     2
 40
0.375
 49
0.25
 74
     0
 49
-0.125
 74
     0
  0
ENDTAB
  0
TABLE
  2
LAYER
  5
2
330
0
100
AcDbSymbolTable
 70
     7
  0
LAYER
  5
10
330
2
100
AcDbSymbolTableRecord
100
AcDbLayerTableRecord
  2
0
 70
     0
 62
     7
  6
CONTINUOUS
  0
LAYER
  5
22
330
2
100
AcDbSymbolTableRecord
100
AcDbLayerTableRecord
  2
SUNPOU
 70
     0
 62
     3
  6
CONTINUOUS
  0
LAYER
  5
31
330
2
100
AcDbSymbolTableRecord
100
AcDbLayerTableRecord
  2
HASEN
 70
     0
 62
     2
  6
DASHED
  0
LAYER
  5
32
330
2
100
AcDbSymbolTableRecord
100
AcDbLayerTableRecord
  2
ITTEN
 70
     0
 62
     1
  6
CENTER
  0
LAYER
  5
33
330
2
100
AcDbSymbolTableRecord
100
AcDbLayerTableRecord
  2
TEXT
 70
     0
 62
     3
  6
CONTINUOUS
  0
LAYER
  5
34
330
2
100
AcDbSymbolTableRecord
100
AcDbLayerTableRecord
  2
JISSEN
 70
     0
 62
     7
  6
CONTINUOUS
  0
LAYER
  5
35
330
2
100
AcDbSymbolTableRecord
100
AcDbLayerTableRecord
  2
WAKU
 70
     0
 62
    -5
  6
CONTINUOUS
  0
ENDTAB
  0
TABLE
  2
STYLE
  5
3
330
0
100
AcDbSymbolTable
 70
     2
  0
STYLE
  5
11
330
3
100
AcDbSymbolTableRecord
100
AcDbTextStyleTableRecord
  2
STANDARD
 70
     0
 40
0.0
 41
1.0
 50
0.0
 71
     0
 42
150.0
  3
ROMANS
  4
EXTFONT
  0
STYLE
  5
23
330
3
100
AcDbSymbolTableRecord
100
AcDbTextStyleTableRecord
  2
K
 70
     0
 40
0.0
 41
1.0
 50
0.0
 71
     0
 42
60.0
  3
ROMANS
  4
EXTFONT
  0
ENDTAB
  0
TABLE
  2
VIEW
  5
6
330
0
100
AcDbSymbolTable
 70
     0
  0
ENDTAB
  0
TABLE
  2
UCS
  5
7
330
0
100
AcDbSymbolTable
 70
     0
  0
ENDTAB
  0
TABLE
  2
APPID
  5
9
330
0
100
AcDbSymbolTable
 70
     1
  0
APPID
  5
12
330
9
100
AcDbSymbolTableRecord
100
AcDbRegAppTableRecord
  2
ACAD
 70
     0
  0
ENDTAB
  0
TABLE
  2
DIMSTYLE
  5
A
330
0
100
AcDbSymbolTable
 70
     1
  0
DIMSTYLE
105
310
330
A
100
AcDbSymbolTableRecord
100
AcDbDimStyleTableRecord
  2
STANDARD
 70
     0
  3

  4

  5

  6

  7

 40
1.0
 41
0.18
 42
0.0625
 43
0.38
 44
0.18
 45
0.0
 46
0.0
 47
0.0
 48
0.0
140
0.18
141
0.09
142
0.0
143
25.4
144
1.0
145
0.0
146
1.0
147
0.09
 71
     0
 72
     0
 73
     1
 74
     1
 75
     0
 76
     0
 77
     0
 78
     0
170
     0
171
     2
172
     0
173
     0
174
     0
175
     0
176
     0
177
     0
178
     0
270
     2
271
     4
272
     4
273
     2
274
     2
340
11
275
     0
280
     0
281
     0
282
     0
283
     1
284
     0
285
     0
286
     0
287
     3
288
     0
  0
ENDTAB
  0
TABLE
  2
BLOCK_RECORD
  5
1
330
0
100
AcDbSymbolTable
 70
     1
  0
BLOCK_RECORD
  5
1E
102
{ACAD_XDICTIONARY
360
336
102
}
330
1
100
AcDbSymbolTableRecord
100
AcDbBlockTableRecord
  2
*MODEL_SPACE
  0
BLOCK_RECORD
  5
1A
102
{ACAD_XDICTIONARY
360
334
102
}
330
1
100
AcDbSymbolTableRecord
100
AcDbBlockTableRecord
  2
*PAPER_SPACE
  0
BLOCK_RECORD
  5
38
330
1
100
AcDbSymbolTableRecord
100
AcDbBlockTableRecord
  2
ARROWANG
  0
ENDTAB
  0
ENDSEC
  0
SECTION
  2
BLOCKS
  0
BLOCK
  5
1F
330
1E
100
AcDbEntity
  8
0
100
AcDbBlockBegin
  2
*MODEL_SPACE
 70
     0
 10
0.0
 20
0.0
 30
0.0
  3
*MODEL_SPACE
  1

  0
ENDBLK
  5
20
330
1E
100
AcDbEntity
  8
0
100
AcDbBlockEnd
  0
BLOCK
  5
1B
330
1A
100
AcDbEntity
 67
     1
  8
0
100
AcDbBlockBegin
  2
*PAPER_SPACE
 70
     0
 10
0.0
 20
0.0
 30
0.0
  3
*PAPER_SPACE
  1

  0
ENDBLK
  5
1C
330
1A
100
AcDbEntity
 67
     1
  8
0
100
AcDbBlockEnd
  0
BLOCK
  5
39
330
38
100
AcDbEntity
  8
SUNPOU
100
AcDbBlockBegin
  2
ARROWANG
 70
     0
 10
0.0
 20
0.0
 30
0.0
  3
ARROWANG
  1

  0
LINE
  5
3A
330
38
100
AcDbEntity
  8
SUNPOU
100
AcDbLine
 10
0.0
 20
0.0
 30
0.0
 11
-1.5
 21
0.401924
 31
0.0
  0
LINE
  5
3B
330
38
100
AcDbEntity
  8
SUNPOU
100
AcDbLine
 10
0.0
 20
0.0
 30
0.0
 11
-1.5
 21
-0.401924
 31
0.0
  0
ENDBLK
  5
3C
330
38
100
AcDbEntity
  8
SUNPOU
100
AcDbBlockEnd
  0
ENDSEC
  0
SECTION
  2
ENTITIES
  0
TEXT
  5
3D
330
1E
100
AcDbEntity
  8
TEXT
100
AcDbText
 10
2914.395315
 20
5936.647134000001
 30
0.0
 40
100.0
  1
Ｍ１Ｓ１８０
  7
K
100
AcDbText
  0
TEXT
  5
3E
330
1E
100
AcDbEntity
  8
TEXT
100
AcDbText
 10
4755.110136
 20
5922.825490000001
 30
0.0
 40
100.0
  1
Ｍ１Ｓ１５０
  7
K
100
AcDbText
  0
TEXT
  5
3F
330
1E
100
AcDbEntity
  8
TEXT
100
AcDbText
 10
6636.878679
 20
5939.767442
 30
0.0
 40
100.0
  1
Ｍ１Ｓ１２０
  7
K
100
AcDbText
  0
TEXT
  5
40
330
1E
100
AcDbEntity
  8
TEXT
100
AcDbText
 10
8497.701445999998
 20
5946.454861999999
 30
0.0
 40
100.0
  1
Ｍ１Ｓ９０
  7
K
100
AcDbText
  0
TEXT
  5
41
330
1E
100
AcDbEntity
  8
TEXT
100
AcDbText
 10
6689.685878999999
 20
3194.607215
 30
0.0
 40
100.0
  1
Ｍ１Ｓ６０
  7
K
100
AcDbText
  0
TEXT
  5
42
330
1E
100
AcDbEntity
  8
TEXT
100
AcDbText
 10
8560.577682999999
 20
3168.480132
 30
0.0
 40
100.0
  1
Ｍ１Ｓ３０
  7
K
100
AcDbText
  0
TEXT
  5
43
330
1E
100
AcDbEntity
  8
TEXT
100
AcDbText
 10
5660.97307
 20
6304.711591
 30
0.0
 40
120.0
  1
直　　壁
  7
K
100
AcDbText
  0
TEXT
  5
44
330
1E
100
AcDbEntity
  8
JISSEN
100
AcDbText
 10
3060.177917999999
 20
7577.928340000001
 30
0.0
 40
300.0
  1
組立マンホール構造図（内径９００ｍｍ）
  7
K
100
AcDbText
  0
LINE
  5
45
330
1E
100
AcDbEntity
  8
SUNPOU
100
AcDbLine
 10
8766.684122
 20
2756.269914
 30
0.0
 11
8766.684122
 21
2816.269914
 31
0.0
  0
LINE
  5
46
330
1E
100
AcDbEntity
  8
SUNPOU
100
AcDbLine
 10
8766.684122
 20
2733.269914
 30
0.0
 11
8766.684122
 21
2673.269914
 31
0.0
  0
TEXT
  5
47
330
1E
100
AcDbEntity
  8
SUNPOU
100
AcDbText
 10
8721.684122
 20
2769.611793
 30
0.0
 40
60.0
  1
23
 50
90.0
  7
K
100
AcDbText
  0
LINE
  5
48
330
1E
100
AcDbEntity
  8
SUNPOU
100
AcDbLine
 10
8766.684122
 20
2756.269914
 30
0.0
 11
8766.684122
 21
2888.269914
 31
0.0
  0
INSERT
  5
49
330
1E
100
AcDbEntity
  8
SUNPOU
100
AcDbBlockReference
  2
ARROWANG
 10
8766.684122
 20
2756.269914
 30
0.0
 41
30.0
 42
30.0
 43
30.0
 50
270.0
  0
INSERT
  5
4A
330
1E
100
AcDbEntity
  8
SUNPOU
100
AcDbBlockReference
  2
ARROWANG
 10
8766.684122
 20
2733.269914
 30
0.0
 41
30.0
 42
30.0
 43
30.0
 50
90.0
  0
LINE
  5
4B
330
1E
100
AcDbEntity
  8
SUNPOU
100
AcDbLine
 10
8826.003195000001
 20
2756.269914
 30
0.0
 11
8736.684122000001
 21
2756.269914
 31
0.0
  0
LINE
  5
4C
330
1E
100
AcDbEntity
  8
SUNPOU
100
AcDbLine
 10
8766.684122
 20
2756.269914
 30
0.0
 11
8766.684122
 21
2733.269914
 31
0.0
  0
TEXT
  5
4D
330
1E
100
AcDbEntity
  8
SUNPOU
100
AcDbText
 10
8721.684122
 20
2501.555628285714
 30
0.0
 40
60.0
  1
292
 50
90.0
  7
K
 72
     1
 11
8721.684122
 21
2587.269914
 31
0.0
100
AcDbText
  0
INSERT
  5
4E
330
1E
100
AcDbEntity
  8
SUNPOU
100
AcDbBlockReference
  2
ARROWANG
 10
8766.684122
 20
2733.269914
 30
0.0
 41
30.0
 42
30.0
 43
30.0
 50
90.0
  0
INSERT
  5
4F
330
1E
100
AcDbEntity
  8
SUNPOU
100
AcDbBlockReference
  2
ARROWANG
 10
8766.684122
 20
2441.269914
 30
0.0
 41
30.0
 42
30.0
 43
30.0
 50
270.0
  0
LINE
  5
50
330
1E
100
AcDbEntity
  8
SUNPOU
100
AcDbLine
 10
8766.684122
 20
2441.269914
 30
0.0
 11
8766.684122
 21
2733.269914
 31
0.0
  0
LINE
  5
51
330
1E
100
AcDbEntity
  8
SUNPOU
100
AcDbLine
 10
8826.003195000001
 20
2733.269914
 30
0.0
 11
8736.684122000001
 21
2733.269914
 31
0.0
  0
LINE
  5
52
330
1E
100
AcDbEntity
  8
SUNPOU
100
AcDbLine
 10
8651.410501
 20
2441.269914
 30
0.0
 11
8796.684122
 21
2441.269914
 31
0.0
  0
TEXT
  5
53
330
1E
100
AcDbEntity
  8
SUNPOU
100
AcDbText
 10
8089.959509000001
 20
2520.555628285714
 30
0.0
 40
60.0
  1
300
 50
90.0
  7
K
 72
     1
 11
8089.959509000001
 21
2606.269914
 31
0.0
100
AcDbText
  0
INSERT
  5
54
330
1E
100
AcDbEntity
  8
SUNPOU
100
AcDbBlockReference
  2
ARROWANG
 10
8134.959509000001
 20
2756.269914
 30
0.0
 41
30.0
 42
30.0
 43
30.0
 50
90.0
  0
INSERT
  5
55
330
1E
100
AcDbEntity
  8
SUNPOU
100
AcDbBlockReference
  2
ARROWANG
 10
8134.959509000001
 20
2456.269913999999
 30
0.0
 41
30.0
 42
30.0
 43
30.0
 50
270.0
  0
LINE
  5
56
330
1E
100
AcDbEntity
  8
SUNPOU
100
AcDbLine
 10
8134.959509000001
 20
2456.269913999999
 30
0.0
 11
8134.959509000001
 21
2756.269914
 31
0.0
  0
LINE
  5
57
330
1E
100
AcDbEntity
  8
SUNPOU
100
AcDbLine
 10
8301.003195000001
 20
2756.269914
 30
0.0
 11
8104.959509000002
 21
2756.269914
 31
0.0
  0
LINE
  5
58
330
1E
100
AcDbEntity
  8
SUNPOU
100
AcDbLine
 10
8301.003195000001
 20
2456.269913999999
 30
0.0
 11
8104.959509000002
 21
2456.269913999999
 31
0.0
  0
TEXT
  5
59
330
1E
100
AcDbEntity
  8
SUNPOU
100
AcDbText
 10
9490.484179
 20
2416.269914
 30
0.0
 40
60.0
  1
100
 50
90.0
  7
K
 72
     1
 11
9490.484179
 21
2506.269914
 31
0.0
100
AcDbText
  0
INSERT
  5
5A
330
1E
100
AcDbEntity
  8
SUNPOU
100
AcDbBlockReference
  2
ARROWANG
 10
9535.484179
 20
2556.269914
 30
0.0
 41
30.0
 42
30.0
 43
30.0
 50
90.0
  0
INSERT
  5
5B
330
1E
100
AcDbEntity
  8
SUNPOU
100
AcDbBlockReference
  2
ARROWANG
 10
9535.484179
 20
2456.269913999999
 30
0.0
 41
30.0
 42
30.0
 43
30.0
 50
270.0
  0
LINE
  5
5C
330
1E
100
AcDbEntity
  8
SUNPOU
100
AcDbLine
 10
9535.484179
 20
2456.269913999999
 30
0.0
 11
9535.484179
 21
2556.269914
 31
0.0
  0
LINE
  5
5D
330
1E
100
AcDbEntity
  8
SUNPOU
100
AcDbLine
 10
9257.234255
 20
2556.269914
 30
0.0
 11
9565.484179
 21
2556.269914
 31
0.0
  0
LINE
  5
5E
330
1E
100
AcDbEntity
  8
SUNPOU
100
AcDbLine
 10
9411.003195000001
 20
2456.269913999999
 30
0.0
 11
9565.484179
 21
2456.269913999999
 31
0.0
  0
CIRCLE
  5
5F
330
1E
100
AcDbEntity
  8
JISSEN
100
AcDbCircle
 10
9227.234254999999
 20
2556.269914
 30
0.0
 40
10.0
  0
TEXT
  5
60
330
1E
100
AcDbEntity
  8
SUNPOU
100
AcDbText
 10
9538.240548
 20
2616.269914
 30
0.0
 40
60.0
  1
100
 50
90.0
  7
K
 72
     1
 11
9538.240548
 21
2706.269913999999
 31
0.0
100
AcDbText
  0
INSERT
  5
61
330
1E
100
AcDbEntity
  8
SUNPOU
100
AcDbBlockReference
  2
ARROWANG
 10
9583.240548
 20
2756.269914
 30
0.0
 41
30.0
 42
30.0
 43
30.0
 50
90.0
  0
INSERT
  5
62
330
1E
100
AcDbEntity
  8
SUNPOU
100
AcDbBlockReference
  2
ARROWANG
 10
9583.240548
 20
2656.269914
 30
0.0
 41
30.0
 42
30.0
 43
30.0
 50
270.0
  0
LINE
  5
63
330
1E
100
AcDbEntity
  8
SUNPOU
100
AcDbLine
 10
9583.240548
 20
2656.269914
 30
0.0
 11
9583.240548
 21
2756.269914
 31
0.0
  0
LINE
  5
64
330
1E
100
AcDbEntity
  8
SUNPOU
100
AcDbLine
 10
9411.003195000001
 20
2756.269914
 30
0.0
 11
9613.240548
 21
2756.269914
 31
0.0
  0
LINE
  5
65
330
1E
100
AcDbEntity
  8
SUNPOU
100
AcDbLine
 10
9257.234255
 20
2656.269914
 30
0.0
 11
9613.240548
 21
2656.269914
 31
0.0
  0
CIRCLE
  5
66
330
1E
100
AcDbEntity
  8
JISSEN
100
AcDbCircle
 10
9227.234254999999
 20
2656.269914
 30
0.0
 40
10.0
  0
TEXT
  5
67
330
1E
100
AcDbEntity
  8
SUNPOU
100
AcDbText
 10
9402.301049
 20
2893.047977
 30
0.0
 40
60.0
  1
75
  7
K
100
AcDbText
  0
LINE
  5
68
330
1E
100
AcDbEntity
  8
SUNPOU
100
AcDbLine
 10
9381.003195000001
 20
2851.637063
 30
0.0
 11
9513.003195000001
 21
2851.637063
 31
0.0
  0
INSERT
  5
69
330
1E
100
AcDbEntity
  8
SUNPOU
100
AcDbBlockReference
  2
ARROWANG
 10
9306.003195
 20
2851.637063
 30
0.0
 41
30.0
 42
30.0
 43
30.0
 50
180.0
  0
INSERT
  5
6A
330
1E
100
AcDbEntity
  8
SUNPOU
100
AcDbBlockReference
  2
ARROWANG
 10
9381.003195000001
 20
2851.637063
 30
0.0
 41
30.0
 42
30.0
 43
30.0
  0
LINE
  5
6B
330
1E
100
AcDbEntity
  8
SUNPOU
100
AcDbLine
 10
9381.003195000001
 20
2786.269914
 30
0.0
 11
9381.003195000001
 21
2881.637062999999
 31
0.0
  0
LINE
  5
6C
330
1E
100
AcDbEntity
  8
SUNPOU
100
AcDbLine
 10
9306.003195
 20
2851.637063
 30
0.0
 11
9381.003195000001
 21
2851.637063
 31
0.0
  0
TEXT
  5
6D
330
1E
100
AcDbEntity
  8
SUNPOU
100
AcDbText
 10
8770.288909285715
 20
2896.637063
 30
0.0
 40
60.0
  1
900
  7
K
 72
     1
 11
8856.003195000001
 21
2896.637063
 31
0.0
100
AcDbText
  0
INSERT
  5
6E
330
1E
100
AcDbEntity
  8
SUNPOU
100
AcDbBlockReference
  2
ARROWANG
 10
9306.003195
 20
2851.637063
 30
0.0
 41
30.0
 42
30.0
 43
30.0
  0
INSERT
  5
6F
330
1E
100
AcDbEntity
  8
SUNPOU
100
AcDbBlockReference
  2
ARROWANG
 10
8406.003195000002
 20
2851.637063
 30
0.0
 41
30.0
 42
30.0
 43
30.0
 50
180.0
  0
LINE
  5
70
330
1E
100
AcDbEntity
  8
SUNPOU
100
AcDbLine
 10
9306.003195
 20
2763.269914
 30
0.0
 11
9306.003195
 21
2881.637062999999
 31
0.0
  0
LINE
  5
71
330
1E
100
AcDbEntity
  8
SUNPOU
100
AcDbLine
 10
8406.003195000002
 20
2851.637063
 30
0.0
 11
9306.003195
 21
2851.637063
 31
0.0
  0
TEXT
  5
72
330
1E
100
AcDbEntity
  8
SUNPOU
100
AcDbText
 10
8207.860337857145
 20
2896.637063
 30
0.0
 40
60.0
  1
75
  7
K
 72
     1
 11
8265.003195000002
 21
2896.637063
 31
0.0
100
AcDbText
  0
INSERT
  5
73
330
1E
100
AcDbEntity
  8
SUNPOU
100
AcDbBlockReference
  2
ARROWANG
 10
8331.003195
 20
2851.637063
 30
0.0
 41
30.0
 42
30.0
 43
30.0
 50
180.0
  0
INSERT
  5
74
330
1E
100
AcDbEntity
  8
SUNPOU
100
AcDbBlockReference
  2
ARROWANG
 10
8406.003195000002
 20
2851.637063
 30
0.0
 41
30.0
 42
30.0
 43
30.0
  0
LINE
  5
75
330
1E
100
AcDbEntity
  8
SUNPOU
100
AcDbLine
 10
8331.003195
 20
2851.637063
 30
0.0
 11
8406.003195000002
 21
2851.637063
 31
0.0
  0
LINE
  5
76
330
1E
100
AcDbEntity
  8
SUNPOU
100
AcDbLine
 10
8406.003195000002
 20
2763.269914
 30
0.0
 11
8406.003195000002
 21
2881.637062999999
 31
0.0
  0
LINE
  5
77
330
1E
100
AcDbEntity
  8
SUNPOU
100
AcDbLine
 10
8331.003195
 20
2786.269914
 30
0.0
 11
8331.003195
 21
2881.637062999999
 31
0.0
  0
TEXT
  5
78
330
1E
100
AcDbEntity
  8
SUNPOU
100
AcDbText
 10
8737.43178142857
 20
3029.945981
 30
0.0
 40
60.0
  1
1050
  7
K
 72
     1
 11
8856.003209999999
 21
3029.945981
 31
0.0
100
AcDbText
  0
INSERT
  5
79
330
1E
100
AcDbEntity
  8
SUNPOU
100
AcDbBlockReference
  2
ARROWANG
 10
9381.003195000001
 20
2984.945981
 30
0.0
 41
30.0
 42
30.0
 43
30.0
  0
INSERT
  5
7A
330
1E
100
AcDbEntity
  8
SUNPOU
100
AcDbBlockReference
  2
ARROWANG
 10
8331.003195
 20
2984.945981
 30
0.0
 41
30.0
 42
30.0
 43
30.0
 50
180.0
  0
LINE
  5
7B
330
1E
100
AcDbEntity
  8
SUNPOU
100
AcDbLine
 10
8331.003195
 20
2984.945981
 30
0.0
 11
9381.003195000001
 21
2984.945981
 31
0.0
  0
LINE
  5
7C
330
1E
100
AcDbEntity
  8
SUNPOU
100
AcDbLine
 10
9381.003195000001
 20
2786.269914
 30
0.0
 11
9381.003195000001
 21
3014.945981
 31
0.0
  0
LINE
  5
7D
330
1E
100
AcDbEntity
  8
SUNPOU
100
AcDbLine
 10
8331.003195
 20
2786.269914
 30
0.0
 11
8331.003195
 21
3014.945981
 31
0.0
  0
LINE
  5
7E
330
1E
100
AcDbEntity
  8
HASEN
100
AcDbLine
 10
9306.003195
 20
2733.269914
 30
0.0
 11
9306.003195
 21
2441.269914
 31
0.0
  0
LINE
  5
7F
330
1E
100
AcDbEntity
  8
JISSEN
100
AcDbLine
 10
8856.003195000001
 20
2456.269913999999
 30
0.0
 11
9340.003195000001
 21
2456.269913999999
 31
0.0
  0
LINE
  5
80
330
1E
100
AcDbEntity
  8
JISSEN
100
AcDbLine
 10
9331.003195
 20
2441.269914
 30
0.0
 11
8856.003195000001
 21
2441.269914
 31
0.0
  0
LINE
  5
81
330
1E
100
AcDbEntity
  8
JISSEN
100
AcDbLine
 10
9340.003195000001
 20
2456.269913999999
 30
0.0
 11
9331.003195
 21
2441.269914
 31
0.0
  0
LINE
  5
82
330
1E
100
AcDbEntity
  8
JISSEN
100
AcDbLine
 10
9381.003195000001
 20
2456.269913999999
 30
0.0
 11
9340.003195000001
 21
2456.269913999999
 31
0.0
  0
LINE
  5
83
330
1E
100
AcDbEntity
  8
JISSEN
100
AcDbLine
 10
8381.003195000001
 20
2441.269914
 30
0.0
 11
8856.003195000001
 21
2441.269914
 31
0.0
  0
LINE
  5
84
330
1E
100
AcDbEntity
  8
JISSEN
100
AcDbLine
 10
8372.003195000001
 20
2456.269913999999
 30
0.0
 11
8381.003195000001
 21
2441.269914
 31
0.0
  0
LINE
  5
85
330
1E
100
AcDbEntity
  8
JISSEN
100
AcDbLine
 10
8331.003195
 20
2456.269913999999
 30
0.0
 11
8372.003195000001
 21
2456.269913999999
 31
0.0
  0
LINE
  5
86
330
1E
100
AcDbEntity
  8
HASEN
100
AcDbLine
 10
9334.003195000001
 20
2733.269914
 30
0.0
 11
8856.003195000001
 21
2733.269914
 31
0.0
  0
LINE
  5
87
330
1E
100
AcDbEntity
  8
HASEN
100
AcDbLine
 10
9341.003195000002
 20
2756.269914
 30
0.0
 11
9334.003195000001
 21
2733.269914
 31
0.0
  0
LINE
  5
88
330
1E
100
AcDbEntity
  8
JISSEN
100
AcDbLine
 10
8378.003195000001
 20
2733.269914
 30
0.0
 11
8856.003195000001
 21
2733.269914
 31
0.0
  0
LINE
  5
89
330
1E
100
AcDbEntity
  8
JISSEN
100
AcDbLine
 10
8371.003195000001
 20
2756.269914
 30
0.0
 11
8378.003195000001
 21
2733.269914
 31
0.0
  0
LINE
  5
8A
330
1E
100
AcDbEntity
  8
JISSEN
100
AcDbLine
 10
8406.003195000002
 20
2733.269914
 30
0.0
 11
8406.003195000002
 21
2441.269914
 31
0.0
  0
LINE
  5
8B
330
1E
100
AcDbEntity
  8
JISSEN
100
AcDbLine
 10
8331.003195
 20
2756.269914
 30
0.0
 11
8331.003195
 21
2456.269913999999
 31
0.0
  0
LINE
  5
8C
330
1E
100
AcDbEntity
  8
JISSEN
100
AcDbLine
 10
9381.003195000001
 20
2756.269914
 30
0.0
 11
9381.003195000001
 21
2456.269913999999
 31
0.0
  0
LINE
  5
8D
330
1E
100
AcDbEntity
  8
JISSEN
100
AcDbLine
 10
8331.003195
 20
2756.269914
 30
0.0
 11
9381.003195000001
 21
2756.269914
 31
0.0
  0
LINE
  5
8E
330
1E
100
AcDbEntity
  8
ITTEN
100
AcDbLine
 10
8856.003195000001
 20
2806.269913999999
 30
0.0
 11
8856.003195000001
 21
2391.269913999999
 31
0.0
  0
LINE
  5
8F
330
1E
100
AcDbEntity
  8
ITTEN
100
AcDbLine
 10
8371.003195000001
 20
2591.269914
 30
0.0
 11
8556.003195
 21
2591.269914
 31
0.0
  0
LINE
  5
90
330
1E
100
AcDbEntity
  8
JISSEN
100
AcDbLine
 10
8496.003195000001
 20
2601.269913999999
 30
0.0
 11
8406.003195000002
 21
2601.269913999999
 31
0.0
  0
LINE
  5
91
330
1E
100
AcDbEntity
  8
JISSEN
100
AcDbLine
 10
8496.003195000001
 20
2581.269913999999
 30
0.0
 11
8406.003195000002
 21
2581.269913999999
 31
0.0
  0
ARC
  5
92
330
1E
100
AcDbEntity
  8
JISSEN
100
AcDbCircle
 10
8496.003195000001
 20
2591.269914
 30
0.0
 40
10.0
100
AcDbArc
 50
270.0
 51
90.0
  0
CIRCLE
  5
93
330
1E
100
AcDbEntity
  8
HASEN
100
AcDbCircle
 10
8484.772135
 20
2656.269914
 30
0.0
 40
10.0
  0
LINE
  5
94
330
1E
100
AcDbEntity
  8
SUNPOU
100
AcDbLine
 10
8536.003195000001
 20
2591.269914
 30
0.0
 11
8651.410501
 21
2591.269914
 31
0.0
  0
LINE
  5
95
330
1E
100
AcDbEntity
  8
SUNPOU
100
AcDbLine
 10
8536.003195000001
 20
2591.269914
 30
0.0
 11
8651.410501
 21
2591.269914
 31
0.0
  0
INSERT
  5
96
330
1E
100
AcDbEntity
  8
SUNPOU
100
AcDbBlockReference
  2
ARROWANG
 10
8621.410501000001
 20
2591.269914
 30
0.0
 41
30.0
 42
30.0
 43
30.0
 50
90.0
  0
LINE
  5
97
330
1E
100
AcDbEntity
  8
SUNPOU
100
AcDbLine
 10
8651.410501
 20
2591.269914
 30
0.0
 11
8655.090673999998
 21
2591.269914
 31
0.0
  0
LINE
  5
98
330
1E
100
AcDbEntity
  8
SUNPOU
100
AcDbLine
 10
8436.003195000001
 20
2441.269914
 30
0.0
 11
8651.410501
 21
2441.269914
 31
0.0
  0
LINE
  5
99
330
1E
100
AcDbEntity
  8
SUNPOU
100
AcDbLine
 10
8591.410501
 20
2591.269914
 30
0.0
 11
8591.410501
 21
2591.269914
 31
0.0
  0
LINE
  5
9A
330
1E
100
AcDbEntity
  8
SUNPOU
100
AcDbLine
 10
8621.410501000001
 20
2441.269914
 30
0.0
 11
8621.410501000001
 21
2591.269914
 31
0.0
  0
INSERT
  5
9B
330
1E
100
AcDbEntity
  8
SUNPOU
100
AcDbBlockReference
  2
ARROWANG
 10
8621.410501000001
 20
2441.269914
 30
0.0
 41
30.0
 42
30.0
 43
30.0
 50
270.0
  0
INSERT
  5
9C
330
1E
100
AcDbEntity
  8
SUNPOU
100
AcDbBlockReference
  2
ARROWANG
 10
8621.410501000001
 20
2591.269914
 30
0.0
 41
30.0
 42
30.0
 43
30.0
 50
90.0
  0
TEXT
  5
9D
330
1E
100
AcDbEntity
  8
SUNPOU
100
AcDbText
 10
8576.410501000001
 20
2426.269914
 30
0.0
 40
60.0
  1
150
 50
90.0
  7
K
 72
     1
 11
8576.410501000001
 21
2516.269914
 31
0.0
100
AcDbText
  0
LINE
  5
9E
330
1E
100
AcDbEntity
  8
SUNPOU
100
AcDbLine
 10
8651.410501
 20
2441.269914
 30
0.0
 11
8805.900263999999
 21
2441.269914
 31
0.0
  0
LINE
  5
9F
330
1E
100
AcDbEntity
  8
SUNPOU
100
AcDbLine
 10
8826.003195000001
 20
2733.269914
 30
0.0
 11
8745.900263999999
 21
2733.269914
 31
0.0
  0
LINE
  5
A0
330
1E
100
AcDbEntity
  8
SUNPOU
100
AcDbLine
 10
8826.003195000001
 20
2756.269914
 30
0.0
 11
8745.900263999999
 21
2756.269914
 31
0.0
  0
CIRCLE
  5
A1
330
1E
100
AcDbEntity
  8
HASEN
100
AcDbCircle
 10
8484.772135
 20
2556.269914
 30
0.0
 40
10.0
  0
CIRCLE
  5
A2
330
1E
100
AcDbEntity
  8
HASEN
100
AcDbCircle
 10
6624.772135
 20
2256.269914
 30
0.0
 40
10.0
  0
CIRCLE
  5
A3
330
1E
100
AcDbEntity
  8
HASEN
100
AcDbCircle
 10
8484.772135
 20
4684.041384
 30
0.0
 40
10.0
  0
LINE
  5
A4
330
1E
100
AcDbEntity
  8
SUNPOU
100
AcDbLine
 10
6915.900264
 20
2756.269914
 30
0.0
 11
6915.900264
 21
2816.269914
 31
0.0
  0
LINE
  5
A5
330
1E
100
AcDbEntity
  8
SUNPOU
100
AcDbLine
 10
6915.900264
 20
2733.269914
 30
0.0
 11
6915.900264
 21
2673.269914
 31
0.0
  0
TEXT
  5
A6
330
1E
100
AcDbEntity
  8
SUNPOU
100
AcDbText
 10
6870.900263999999
 20
2567.555628285714
 30
0.0
 40
60.0
  1
23
 50
90.0
  7
K
 72
     2
 11
6870.900263999999
 21
2673.269914
 31
0.0
100
AcDbText
  0
LINE
  5
A7
330
1E
100
AcDbEntity
  8
SUNPOU
100
AcDbLine
 10
6915.900264
 20
2733.269914
 30
0.0
 11
6915.900264
 21
2601.269913999999
 31
0.0
  0
INSERT
  5
A8
330
1E
100
AcDbEntity
  8
SUNPOU
100
AcDbBlockReference
  2
ARROWANG
 10
6915.900264
 20
2756.269914
 30
0.0
 41
30.0
 42
30.0
 43
30.0
 50
270.0
  0
INSERT
  5
A9
330
1E
100
AcDbEntity
  8
SUNPOU
100
AcDbBlockReference
  2
ARROWANG
 10
6915.900264
 20
2733.269914
 30
0.0
 41
30.0
 42
30.0
 43
30.0
 50
90.0
  0
LINE
  5
AA
330
1E
100
AcDbEntity
  8
SUNPOU
100
AcDbLine
 10
6966.003195
 20
2756.269914
 30
0.0
 11
6885.900263999999
 21
2756.269914
 31
0.0
  0
LINE
  5
AB
330
1E
100
AcDbEntity
  8
SUNPOU
100
AcDbLine
 10
6915.900264
 20
2756.269914
 30
0.0
 11
6915.900264
 21
2733.269914
 31
0.0
  0
TEXT
  5
AC
330
1E
100
AcDbEntity
  8
SUNPOU
100
AcDbText
 10
6870.900263999999
 20
2351.555628285714
 30
0.0
 40
60.0
  1
592
 50
90.0
  7
K
 72
     1
 11
6870.900263999999
 21
2437.269914
 31
0.0
100
AcDbText
  0
INSERT
  5
AD
330
1E
100
AcDbEntity
  8
SUNPOU
100
AcDbBlockReference
  2
ARROWANG
 10
6915.900264
 20
2733.269914
 30
0.0
 41
30.0
 42
30.0
 43
30.0
 50
90.0
  0
INSERT
  5
AE
330
1E
100
AcDbEntity
  8
SUNPOU
100
AcDbBlockReference
  2
ARROWANG
 10
6915.900264
 20
2141.269913999999
 30
0.0
 41
30.0
 42
30.0
 43
30.0
 50
270.0
  0
LINE
  5
AF
330
1E
100
AcDbEntity
  8
SUNPOU
100
AcDbLine
 10
6915.900264
 20
2141.269913999999
 30
0.0
 11
6915.900264
 21
2733.269914
 31
0.0
  0
LINE
  5
B0
330
1E
100
AcDbEntity
  8
SUNPOU
100
AcDbLine
 10
6966.003195
 20
2733.269914
 30
0.0
 11
6885.900263999999
 21
2733.269914
 31
0.0
  0
LINE
  5
B1
330
1E
100
AcDbEntity
  8
SUNPOU
100
AcDbLine
 10
6791.410501
 20
2141.269913999999
 30
0.0
 11
6945.900263999999
 21
2141.269913999999
 31
0.0
  0
TEXT
  5
B2
330
1E
100
AcDbEntity
  8
SUNPOU
100
AcDbText
 10
6716.410501
 20
2126.269913999999
 30
0.0
 40
60.0
  1
150
 50
90.0
  7
K
 72
     1
 11
6716.410501
 21
2216.269914
 31
0.0
100
AcDbText
  0
INSERT
  5
B3
330
1E
100
AcDbEntity
  8
SUNPOU
100
AcDbBlockReference
  2
ARROWANG
 10
6761.410501
 20
2291.269914
 30
0.0
 41
30.0
 42
30.0
 43
30.0
 50
90.0
  0
INSERT
  5
B4
330
1E
100
AcDbEntity
  8
SUNPOU
100
AcDbBlockReference
  2
ARROWANG
 10
6761.410501
 20
2141.269913999999
 30
0.0
 41
30.0
 42
30.0
 43
30.0
 50
270.0
  0
LINE
  5
B5
330
1E
100
AcDbEntity
  8
SUNPOU
100
AcDbLine
 10
6761.410501
 20
2141.269913999999
 30
0.0
 11
6761.410501
 21
2291.269914
 31
0.0
  0
LINE
  5
B6
330
1E
100
AcDbEntity
  8
SUNPOU
100
AcDbLine
 10
6731.410501
 20
2291.269914
 30
0.0
 11
6731.410501
 21
2291.269914
 31
0.0
  0
LINE
  5
B7
330
1E
100
AcDbEntity
  8
SUNPOU
100
AcDbLine
 10
6576.003195
 20
2141.269913999999
 30
0.0
 11
6791.410501
 21
2141.269913999999
 31
0.0
  0
LINE
  5
B8
330
1E
100
AcDbEntity
  8
SUNPOU
100
AcDbLine
 10
6791.410501
 20
2291.269914
 30
0.0
 11
6795.090673999999
 21
2291.269914
 31
0.0
  0
TEXT
  5
B9
330
1E
100
AcDbEntity
  8
SUNPOU
100
AcDbText
 10
6716.410501
 20
2355.555628285714
 30
0.0
 40
60.0
  1
300
 50
90.0
  7
K
 72
     1
 11
6716.410501
 21
2441.269914
 31
0.0
100
AcDbText
  0
INSERT
  5
BA
330
1E
100
AcDbEntity
  8
SUNPOU
100
AcDbBlockReference
  2
ARROWANG
 10
6761.410501
 20
2591.269914
 30
0.0
 41
30.0
 42
30.0
 43
30.0
 50
90.0
  0
INSERT
  5
BB
330
1E
100
AcDbEntity
  8
SUNPOU
100
AcDbBlockReference
  2
ARROWANG
 10
6761.410501
 20
2291.269914
 30
0.0
 41
30.0
 42
30.0
 43
30.0
 50
270.0
  0
LINE
  5
BC
330
1E
100
AcDbEntity
  8
SUNPOU
100
AcDbLine
 10
6676.003194999999
 20
2591.269914
 30
0.0
 11
6791.410501
 21
2591.269914
 31
0.0
  0
LINE
  5
BD
330
1E
100
AcDbEntity
  8
SUNPOU
100
AcDbLine
 10
6676.003194999999
 20
2291.269914
 30
0.0
 11
6791.410501
 21
2291.269914
 31
0.0
  0
CIRCLE
  5
BE
330
1E
100
AcDbEntity
  8
HASEN
100
AcDbCircle
 10
6624.772135
 20
2656.269914
 30
0.0
 40
10.0
  0
LINE
  5
BF
330
1E
100
AcDbEntity
  8
ITTEN
100
AcDbLine
 10
6511.003195
 20
2591.269914
 30
0.0
 11
6696.003195
 21
2591.269914
 31
0.0
  0
LINE
  5
C0
330
1E
100
AcDbEntity
  8
JISSEN
100
AcDbLine
 10
6636.003195
 20
2601.269913999999
 30
0.0
 11
6546.003195
 21
2601.269913999999
 31
0.0
  0
LINE
  5
C1
330
1E
100
AcDbEntity
  8
JISSEN
100
AcDbLine
 10
6636.003195
 20
2581.269913999999
 30
0.0
 11
6546.003195
 21
2581.269913999999
 31
0.0
  0
ARC
  5
C2
330
1E
100
AcDbEntity
  8
JISSEN
100
AcDbCircle
 10
6636.003195
 20
2591.269914
 30
0.0
 40
10.0
100
AcDbArc
 50
270.0
 51
90.0
  0
ARC
  5
C3
330
1E
100
AcDbEntity
  8
JISSEN
100
AcDbCircle
 10
6636.003195
 20
2291.269914
 30
0.0
 40
10.0
100
AcDbArc
 50
270.0
 51
90.0
  0
LINE
  5
C4
330
1E
100
AcDbEntity
  8
JISSEN
100
AcDbLine
 10
6636.003195
 20
2281.269914
 30
0.0
 11
6546.003195
 21
2281.269914
 31
0.0
  0
LINE
  5
C5
330
1E
100
AcDbEntity
  8
JISSEN
100
AcDbLine
 10
6636.003195
 20
2301.269914
 30
0.0
 11
6546.003195
 21
2301.269914
 31
0.0
  0
LINE
  5
C6
330
1E
100
AcDbEntity
  8
ITTEN
100
AcDbLine
 10
6511.003195
 20
2291.269914
 30
0.0
 11
6696.003195
 21
2291.269914
 31
0.0
  0
LINE
  5
C7
330
1E
100
AcDbEntity
  8
SUNPOU
100
AcDbLine
 10
6761.410501
 20
2291.269914
 30
0.0
 11
6761.410501
 21
2591.269914
 31
0.0
  0
LINE
  5
C8
330
1E
100
AcDbEntity
  8
SUNPOU
100
AcDbLine
 10
8787.590990000001
 20
5484.041384000001
 30
0.0
 11
8787.590990000001
 21
5544.041384
 31
0.0
  0
LINE
  5
C9
330
1E
100
AcDbEntity
  8
SUNPOU
100
AcDbLine
 10
8787.590990000001
 20
5461.041384
 30
0.0
 11
8787.590990000001
 21
5401.041384
 31
0.0
  0
TEXT
  5
CA
330
1E
100
AcDbEntity
  8
SUNPOU
100
AcDbText
 10
8742.590990000001
 20
5295.327098285715
 30
0.0
 40
60.0
  1
23
 50
90.0
  7
K
 72
     2
 11
8742.590990000001
 21
5401.041384
 31
0.0
100
AcDbText
  0
LINE
  5
CB
330
1E
100
AcDbEntity
  8
SUNPOU
100
AcDbLine
 10
8787.590990000001
 20
5461.041384
 30
0.0
 11
8787.590990000001
 21
5329.041383999999
 31
0.0
  0
INSERT
  5
CC
330
1E
100
AcDbEntity
  8
SUNPOU
100
AcDbBlockReference
  2
ARROWANG
 10
8787.590990000001
 20
5484.041384000001
 30
0.0
 41
30.0
 42
30.0
 43
30.0
 50
270.0
  0
INSERT
  5
CD
330
1E
100
AcDbEntity
  8
SUNPOU
100
AcDbBlockReference
  2
ARROWANG
 10
8787.590990000001
 20
5461.041384
 30
0.0
 41
30.0
 42
30.0
 43
30.0
 50
90.0
  0
LINE
  5
CE
330
1E
100
AcDbEntity
  8
SUNPOU
100
AcDbLine
 10
8826.003195000001
 20
5484.041384000001
 30
0.0
 11
8757.590990000002
 21
5484.041384000001
 31
0.0
  0
LINE
  5
CF
330
1E
100
AcDbEntity
  8
SUNPOU
100
AcDbLine
 10
8787.590990000001
 20
5484.041384000001
 30
0.0
 11
8787.590990000001
 21
5461.041384
 31
0.0
  0
TEXT
  5
D0
330
1E
100
AcDbEntity
  8
SUNPOU
100
AcDbText
 10
8742.590990000001
 20
4929.327098285715
 30
0.0
 40
60.0
  1
892
 50
90.0
  7
K
 72
     1
 11
8742.590990000001
 21
5015.041383999999
 31
0.0
100
AcDbText
  0
INSERT
  5
D1
330
1E
100
AcDbEntity
  8
SUNPOU
100
AcDbBlockReference
  2
ARROWANG
 10
8787.590990000001
 20
5461.041384
 30
0.0
 41
30.0
 42
30.0
 43
30.0
 50
90.0
  0
INSERT
  5
D2
330
1E
100
AcDbEntity
  8
SUNPOU
100
AcDbBlockReference
  2
ARROWANG
 10
8787.590990000001
 20
4569.041384000001
 30
0.0
 41
30.0
 42
30.0
 43
30.0
 50
270.0
  0
LINE
  5
D3
330
1E
100
AcDbEntity
  8
SUNPOU
100
AcDbLine
 10
8787.590990000001
 20
4569.041384000001
 30
0.0
 11
8787.590990000001
 21
5461.041384
 31
0.0
  0
LINE
  5
D4
330
1E
100
AcDbEntity
  8
SUNPOU
100
AcDbLine
 10
8826.003195000001
 20
5461.041384
 30
0.0
 11
8757.590990000002
 21
5461.041384
 31
0.0
  0
LINE
  5
D5
330
1E
100
AcDbEntity
  8
SUNPOU
100
AcDbLine
 10
8651.410501
 20
4569.041384000001
 30
0.0
 11
8817.590990000001
 21
4569.041384000001
 31
0.0
  0
TEXT
  5
D6
330
1E
100
AcDbEntity
  8
SUNPOU
100
AcDbText
 10
8576.410501000001
 20
4554.041384
 30
0.0
 40
60.0
  1
150
 50
90.0
  7
K
 72
     1
 11
8576.410501000001
 21
4644.041384
 31
0.0
100
AcDbText
  0
INSERT
  5
D7
330
1E
100
AcDbEntity
  8
SUNPOU
100
AcDbBlockReference
  2
ARROWANG
 10
8621.410501000001
 20
4719.041384
 30
0.0
 41
30.0
 42
30.0
 43
30.0
 50
90.0
  0
INSERT
  5
D8
330
1E
100
AcDbEntity
  8
SUNPOU
100
AcDbBlockReference
  2
ARROWANG
 10
8621.410501000001
 20
4569.041384000001
 30
0.0
 41
30.0
 42
30.0
 43
30.0
 50
270.0
  0
LINE
  5
D9
330
1E
100
AcDbEntity
  8
SUNPOU
100
AcDbLine
 10
8621.410501000001
 20
4569.041384000001
 30
0.0
 11
8621.410501000001
 21
4719.041384
 31
0.0
  0
LINE
  5
DA
330
1E
100
AcDbEntity
  8
SUNPOU
100
AcDbLine
 10
8591.410501
 20
4719.041384
 30
0.0
 11
8591.410501
 21
4719.041384
 31
0.0
  0
LINE
  5
DB
330
1E
100
AcDbEntity
  8
SUNPOU
100
AcDbLine
 10
8436.003195000001
 20
4569.041384000001
 30
0.0
 11
8651.410501
 21
4569.041384000001
 31
0.0
  0
LINE
  5
DC
330
1E
100
AcDbEntity
  8
SUNPOU
100
AcDbLine
 10
8621.410501000001
 20
4719.041384
 30
0.0
 11
8621.410501000001
 21
5019.041384000001
 31
0.0
  0
LINE
  5
DD
330
1E
100
AcDbEntity
  8
SUNPOU
100
AcDbLine
 10
8621.410501000001
 20
5019.041384000001
 30
0.0
 11
8621.410501000001
 21
5319.041384000001
 31
0.0
  0
LINE
  5
DE
330
1E
100
AcDbEntity
  8
ITTEN
100
AcDbLine
 10
8371.003195000001
 20
4719.041384
 30
0.0
 11
8556.003195
 21
4719.041384
 31
0.0
  0
LINE
  5
DF
330
1E
100
AcDbEntity
  8
JISSEN
100
AcDbLine
 10
8496.003195000001
 20
4729.041384
 30
0.0
 11
8406.003195000002
 21
4729.041384
 31
0.0
  0
LINE
  5
E0
330
1E
100
AcDbEntity
  8
JISSEN
100
AcDbLine
 10
8496.003195000001
 20
4709.041384
 30
0.0
 11
8406.003195000002
 21
4709.041384
 31
0.0
  0
ARC
  5
E1
330
1E
100
AcDbEntity
  8
JISSEN
100
AcDbCircle
 10
8496.003195000001
 20
4719.041384
 30
0.0
 40
10.0
100
AcDbArc
 50
270.0
 51
90.0
  0
LINE
  5
E2
330
1E
100
AcDbEntity
  8
ITTEN
100
AcDbLine
 10
8371.003195000001
 20
5019.041384000001
 30
0.0
 11
8556.003195
 21
5019.041384000001
 31
0.0
  0
LINE
  5
E3
330
1E
100
AcDbEntity
  8
JISSEN
100
AcDbLine
 10
8496.003195000001
 20
5029.041384
 30
0.0
 11
8406.003195000002
 21
5029.041384
 31
0.0
  0
LINE
  5
E4
330
1E
100
AcDbEntity
  8
JISSEN
100
AcDbLine
 10
8496.003195000001
 20
5009.041384
 30
0.0
 11
8406.003195000002
 21
5009.041384
 31
0.0
  0
ARC
  5
E5
330
1E
100
AcDbEntity
  8
JISSEN
100
AcDbCircle
 10
8496.003195000001
 20
5019.041384000001
 30
0.0
 40
10.0
100
AcDbArc
 50
270.0
 51
90.0
  0
ARC
  5
E6
330
1E
100
AcDbEntity
  8
JISSEN
100
AcDbCircle
 10
8496.003195000001
 20
5319.041384000001
 30
0.0
 40
10.0
100
AcDbArc
 50
270.0
 51
90.0
  0
LINE
  5
E7
330
1E
100
AcDbEntity
  8
JISSEN
100
AcDbLine
 10
8496.003195000001
 20
5309.041384
 30
0.0
 11
8406.003195000002
 21
5309.041384
 31
0.0
  0
LINE
  5
E8
330
1E
100
AcDbEntity
  8
JISSEN
100
AcDbLine
 10
8496.003195000001
 20
5329.041383999999
 30
0.0
 11
8406.003195000002
 21
5329.041383999999
 31
0.0
  0
LINE
  5
E9
330
1E
100
AcDbEntity
  8
ITTEN
100
AcDbLine
 10
8371.003195000001
 20
5319.041384000001
 30
0.0
 11
8556.003195
 21
5319.041384000001
 31
0.0
  0
CIRCLE
  5
EA
330
1E
100
AcDbEntity
  8
HASEN
100
AcDbCircle
 10
8484.772135
 20
5384.041384
 30
0.0
 40
10.0
  0
LINE
  5
EB
330
1E
100
AcDbEntity
  8
SUNPOU
100
AcDbLine
 10
8536.003195000001
 20
4719.041384
 30
0.0
 11
8651.410501
 21
4719.041384
 31
0.0
  0
LINE
  5
EC
330
1E
100
AcDbEntity
  8
SUNPOU
100
AcDbLine
 10
8536.003195000001
 20
5019.041384000001
 30
0.0
 11
8651.410501
 21
5019.041384000001
 31
0.0
  0
INSERT
  5
ED
330
1E
100
AcDbEntity
  8
SUNPOU
100
AcDbBlockReference
  2
ARROWANG
 10
8621.410501000001
 20
4719.041384
 30
0.0
 41
30.0
 42
30.0
 43
30.0
 50
270.0
  0
INSERT
  5
EE
330
1E
100
AcDbEntity
  8
SUNPOU
100
AcDbBlockReference
  2
ARROWANG
 10
8621.410501000001
 20
5019.041384000001
 30
0.0
 41
30.0
 42
30.0
 43
30.0
 50
90.0
  0
TEXT
  5
EF
330
1E
100
AcDbEntity
  8
SUNPOU
100
AcDbText
 10
8576.410501000001
 20
4783.327098285715
 30
0.0
 40
60.0
  1
300
 50
90.0
  7
K
 72
     1
 11
8576.410501000001
 21
4869.041384
 31
0.0
100
AcDbText
  0
LINE
  5
F0
330
1E
100
AcDbEntity
  8
SUNPOU
100
AcDbLine
 10
8536.003195000001
 20
5319.041384000001
 30
0.0
 11
8651.410501
 21
5319.041384000001
 31
0.0
  0
INSERT
  5
F1
330
1E
100
AcDbEntity
  8
SUNPOU
100
AcDbBlockReference
  2
ARROWANG
 10
8621.410501000001
 20
5019.041384000001
 30
0.0
 41
30.0
 42
30.0
 43
30.0
 50
270.0
  0
INSERT
  5
F2
330
1E
100
AcDbEntity
  8
SUNPOU
100
AcDbBlockReference
  2
ARROWANG
 10
8621.410501000001
 20
5319.041384000001
 30
0.0
 41
30.0
 42
30.0
 43
30.0
 50
90.0
  0
TEXT
  5
F3
330
1E
100
AcDbEntity
  8
SUNPOU
100
AcDbText
 10
8576.410501000001
 20
5083.327098285715
 30
0.0
 40
60.0
  1
300
 50
90.0
  7
K
 72
     1
 11
8576.410501000001
 21
5169.041384
 31
0.0
100
AcDbText
  0
LINE
  5
F4
330
1E
100
AcDbEntity
  8
SUNPOU
100
AcDbLine
 10
6924.25473
 20
5484.041384000001
 30
0.0
 11
6924.25473
 21
5544.041384
 31
0.0
  0
LINE
  5
F5
330
1E
100
AcDbEntity
  8
SUNPOU
100
AcDbLine
 10
6924.25473
 20
5461.041384
 30
0.0
 11
6924.25473
 21
5401.041384
 31
0.0
  0
TEXT
  5
F6
330
1E
100
AcDbEntity
  8
SUNPOU
100
AcDbText
 10
6879.254729999999
 20
5295.327098285715
 30
0.0
 40
60.0
  1
23
 50
90.0
  7
K
 72
     2
 11
6879.254729999999
 21
5401.041384
 31
0.0
100
AcDbText
  0
LINE
  5
F7
330
1E
100
AcDbEntity
  8
SUNPOU
100
AcDbLine
 10
6924.25473
 20
5461.041384
 30
0.0
 11
6924.25473
 21
5329.041383999999
 31
0.0
  0
INSERT
  5
F8
330
1E
100
AcDbEntity
  8
SUNPOU
100
AcDbBlockReference
  2
ARROWANG
 10
6924.25473
 20
5484.041384000001
 30
0.0
 41
30.0
 42
30.0
 43
30.0
 50
270.0
  0
INSERT
  5
F9
330
1E
100
AcDbEntity
  8
SUNPOU
100
AcDbBlockReference
  2
ARROWANG
 10
6924.25473
 20
5461.041384
 30
0.0
 41
30.0
 42
30.0
 43
30.0
 50
90.0
  0
LINE
  5
FA
330
1E
100
AcDbEntity
  8
SUNPOU
100
AcDbLine
 10
6966.003195
 20
5484.041384000001
 30
0.0
 11
6894.25473
 21
5484.041384000001
 31
0.0
  0
LINE
  5
FB
330
1E
100
AcDbEntity
  8
SUNPOU
100
AcDbLine
 10
6924.25473
 20
5484.041384000001
 30
0.0
 11
6924.25473
 21
5461.041384
 31
0.0
  0
TEXT
  5
FC
330
1E
100
AcDbEntity
  8
SUNPOU
100
AcDbText
 10
6879.254729999999
 20
4746.469955428572
 30
0.0
 40
60.0
  1
1192
 50
90.0
  7
K
 72
     1
 11
6879.254729999999
 21
4865.041384
 31
0.0
100
AcDbText
  0
INSERT
  5
FD
330
1E
100
AcDbEntity
  8
SUNPOU
100
AcDbBlockReference
  2
ARROWANG
 10
6924.25473
 20
5461.041384
 30
0.0
 41
30.0
 42
30.0
 43
30.0
 50
90.0
  0
INSERT
  5
FE
330
1E
100
AcDbEntity
  8
SUNPOU
100
AcDbBlockReference
  2
ARROWANG
 10
6924.25473
 20
4269.041384
 30
0.0
 41
30.0
 42
30.0
 43
30.0
 50
270.0
  0
LINE
  5
FF
330
1E
100
AcDbEntity
  8
SUNPOU
100
AcDbLine
 10
6924.25473
 20
4269.041384
 30
0.0
 11
6924.25473
 21
5461.041384
 31
0.0
  0
LINE
  5
100
330
1E
100
AcDbEntity
  8
SUNPOU
100
AcDbLine
 10
6966.003195
 20
5461.041384
 30
0.0
 11
6894.25473
 21
5461.041384
 31
0.0
  0
LINE
  5
101
330
1E
100
AcDbEntity
  8
SUNPOU
100
AcDbLine
 10
6791.410501
 20
4269.041384
 30
0.0
 11
6954.254729999999
 21
4269.041384
 31
0.0
  0
TEXT
  5
102
330
1E
100
AcDbEntity
  8
SUNPOU
100
AcDbText
 10
6716.410501
 20
4254.041383999999
 30
0.0
 40
60.0
  1
150
 50
90.0
  7
K
 72
     1
 11
6716.410501
 21
4344.041384
 31
0.0
100
AcDbText
  0
INSERT
  5
103
330
1E
100
AcDbEntity
  8
SUNPOU
100
AcDbBlockReference
  2
ARROWANG
 10
6761.410501
 20
4419.041384
 30
0.0
 41
30.0
 42
30.0
 43
30.0
 50
90.0
  0
INSERT
  5
104
330
1E
100
AcDbEntity
  8
SUNPOU
100
AcDbBlockReference
  2
ARROWANG
 10
6761.410501
 20
4269.041384
 30
0.0
 41
30.0
 42
30.0
 43
30.0
 50
270.0
  0
LINE
  5
105
330
1E
100
AcDbEntity
  8
SUNPOU
100
AcDbLine
 10
6761.410501
 20
4269.041384
 30
0.0
 11
6761.410501
 21
4419.041384
 31
0.0
  0
LINE
  5
106
330
1E
100
AcDbEntity
  8
SUNPOU
100
AcDbLine
 10
6731.410501
 20
4419.041384
 30
0.0
 11
6731.410501
 21
4419.041384
 31
0.0
  0
LINE
  5
107
330
1E
100
AcDbEntity
  8
SUNPOU
100
AcDbLine
 10
6576.003195
 20
4269.041384
 30
0.0
 11
6791.410501
 21
4269.041384
 31
0.0
  0
CIRCLE
  5
108
330
1E
100
AcDbEntity
  8
HASEN
100
AcDbCircle
 10
6624.772135
 20
4384.041384
 30
0.0
 40
10.0
  0
TEXT
  5
109
330
1E
100
AcDbEntity
  8
SUNPOU
100
AcDbText
 10
6716.410501
 20
5083.327098285715
 30
0.0
 40
60.0
  1
300
 50
90.0
  7
K
 72
     1
 11
6716.410501
 21
5169.041384
 31
0.0
100
AcDbText
  0
INSERT
  5
10A
330
1E
100
AcDbEntity
  8
SUNPOU
100
AcDbBlockReference
  2
ARROWANG
 10
6761.410501
 20
5319.041384000001
 30
0.0
 41
30.0
 42
30.0
 43
30.0
 50
90.0
  0
INSERT
  5
10B
330
1E
100
AcDbEntity
  8
SUNPOU
100
AcDbBlockReference
  2
ARROWANG
 10
6761.410501
 20
5019.041384000001
 30
0.0
 41
30.0
 42
30.0
 43
30.0
 50
270.0
  0
LINE
  5
10C
330
1E
100
AcDbEntity
  8
SUNPOU
100
AcDbLine
 10
6676.003194999999
 20
5319.041384000001
 30
0.0
 11
6791.410501
 21
5319.041384000001
 31
0.0
  0
TEXT
  5
10D
330
1E
100
AcDbEntity
  8
SUNPOU
100
AcDbText
 10
6716.410501
 20
4783.327098285715
 30
0.0
 40
60.0
  1
300
 50
90.0
  7
K
 72
     1
 11
6716.410501
 21
4869.041384
 31
0.0
100
AcDbText
  0
INSERT
  5
10E
330
1E
100
AcDbEntity
  8
SUNPOU
100
AcDbBlockReference
  2
ARROWANG
 10
6761.410501
 20
5019.041384000001
 30
0.0
 41
30.0
 42
30.0
 43
30.0
 50
90.0
  0
INSERT
  5
10F
330
1E
100
AcDbEntity
  8
SUNPOU
100
AcDbBlockReference
  2
ARROWANG
 10
6761.410501
 20
4719.041384
 30
0.0
 41
30.0
 42
30.0
 43
30.0
 50
270.0
  0
LINE
  5
110
330
1E
100
AcDbEntity
  8
SUNPOU
100
AcDbLine
 10
6676.003194999999
 20
5019.041384000001
 30
0.0
 11
6791.410501
 21
5019.041384000001
 31
0.0
  0
TEXT
  5
111
330
1E
100
AcDbEntity
  8
SUNPOU
100
AcDbText
 10
6716.410501
 20
4483.327098285715
 30
0.0
 40
60.0
  1
300
 50
90.0
  7
K
 72
     1
 11
6716.410501
 21
4569.041384000001
 31
0.0
100
AcDbText
  0
INSERT
  5
112
330
1E
100
AcDbEntity
  8
SUNPOU
100
AcDbBlockReference
  2
ARROWANG
 10
6761.410501
 20
4719.041384
 30
0.0
 41
30.0
 42
30.0
 43
30.0
 50
90.0
  0
INSERT
  5
113
330
1E
100
AcDbEntity
  8
SUNPOU
100
AcDbBlockReference
  2
ARROWANG
 10
6761.410501
 20
4419.041384
 30
0.0
 41
30.0
 42
30.0
 43
30.0
 50
270.0
  0
LINE
  5
114
330
1E
100
AcDbEntity
  8
SUNPOU
100
AcDbLine
 10
6676.003194999999
 20
4719.041384
 30
0.0
 11
6791.410501
 21
4719.041384
 31
0.0
  0
LINE
  5
115
330
1E
100
AcDbEntity
  8
SUNPOU
100
AcDbLine
 10
6676.003194999999
 20
4419.041384
 30
0.0
 11
6791.410501
 21
4419.041384
 31
0.0
  0
CIRCLE
  5
116
330
1E
100
AcDbEntity
  8
HASEN
100
AcDbCircle
 10
6624.772135
 20
5384.041384
 30
0.0
 40
10.0
  0
LINE
  5
117
330
1E
100
AcDbEntity
  8
ITTEN
100
AcDbLine
 10
6511.003195
 20
5319.041384000001
 30
0.0
 11
6696.003195
 21
5319.041384000001
 31
0.0
  0
LINE
  5
118
330
1E
100
AcDbEntity
  8
JISSEN
100
AcDbLine
 10
6636.003195
 20
5329.041383999999
 30
0.0
 11
6546.003195
 21
5329.041383999999
 31
0.0
  0
LINE
  5
119
330
1E
100
AcDbEntity
  8
JISSEN
100
AcDbLine
 10
6636.003195
 20
5309.041384
 30
0.0
 11
6546.003195
 21
5309.041384
 31
0.0
  0
ARC
  5
11A
330
1E
100
AcDbEntity
  8
JISSEN
100
AcDbCircle
 10
6636.003195
 20
5319.041384000001
 30
0.0
 40
10.0
100
AcDbArc
 50
270.0
 51
90.0
  0
ARC
  5
11B
330
1E
100
AcDbEntity
  8
JISSEN
100
AcDbCircle
 10
6636.003195
 20
5019.041384000001
 30
0.0
 40
10.0
100
AcDbArc
 50
270.0
 51
90.0
  0
LINE
  5
11C
330
1E
100
AcDbEntity
  8
JISSEN
100
AcDbLine
 10
6636.003195
 20
5009.041384
 30
0.0
 11
6546.003195
 21
5009.041384
 31
0.0
  0
LINE
  5
11D
330
1E
100
AcDbEntity
  8
JISSEN
100
AcDbLine
 10
6636.003195
 20
5029.041384
 30
0.0
 11
6546.003195
 21
5029.041384
 31
0.0
  0
LINE
  5
11E
330
1E
100
AcDbEntity
  8
ITTEN
100
AcDbLine
 10
6511.003195
 20
5019.041384000001
 30
0.0
 11
6696.003195
 21
5019.041384000001
 31
0.0
  0
ARC
  5
11F
330
1E
100
AcDbEntity
  8
JISSEN
100
AcDbCircle
 10
6636.003195
 20
4719.041384
 30
0.0
 40
10.0
100
AcDbArc
 50
270.0
 51
90.0
  0
LINE
  5
120
330
1E
100
AcDbEntity
  8
JISSEN
100
AcDbLine
 10
6636.003195
 20
4709.041384
 30
0.0
 11
6546.003195
 21
4709.041384
 31
0.0
  0
LINE
  5
121
330
1E
100
AcDbEntity
  8
JISSEN
100
AcDbLine
 10
6636.003195
 20
4729.041384
 30
0.0
 11
6546.003195
 21
4729.041384
 31
0.0
  0
LINE
  5
122
330
1E
100
AcDbEntity
  8
ITTEN
100
AcDbLine
 10
6511.003195
 20
4719.041384
 30
0.0
 11
6696.003195
 21
4719.041384
 31
0.0
  0
ARC
  5
123
330
1E
100
AcDbEntity
  8
JISSEN
100
AcDbCircle
 10
6636.003195
 20
4419.041384
 30
0.0
 40
10.0
100
AcDbArc
 50
270.0
 51
90.0
  0
LINE
  5
124
330
1E
100
AcDbEntity
  8
JISSEN
100
AcDbLine
 10
6636.003195
 20
4409.041384
 30
0.0
 11
6546.003195
 21
4409.041384
 31
0.0
  0
LINE
  5
125
330
1E
100
AcDbEntity
  8
JISSEN
100
AcDbLine
 10
6636.003195
 20
4429.041384
 30
0.0
 11
6546.003195
 21
4429.041384
 31
0.0
  0
LINE
  5
126
330
1E
100
AcDbEntity
  8
ITTEN
100
AcDbLine
 10
6511.003195
 20
4419.041384
 30
0.0
 11
6696.003195
 21
4419.041384
 31
0.0
  0
LINE
  5
127
330
1E
100
AcDbEntity
  8
SUNPOU
100
AcDbLine
 10
6761.410501
 20
5019.041384000001
 30
0.0
 11
6761.410501
 21
5319.041384000001
 31
0.0
  0
LINE
  5
128
330
1E
100
AcDbEntity
  8
SUNPOU
100
AcDbLine
 10
6761.410501
 20
4719.041384
 30
0.0
 11
6761.410501
 21
5019.041384000001
 31
0.0
  0
LINE
  5
129
330
1E
100
AcDbEntity
  8
SUNPOU
100
AcDbLine
 10
6761.410501
 20
4419.041384
 30
0.0
 11
6761.410501
 21
4719.041384
 31
0.0
  0
LINE
  5
12A
330
1E
100
AcDbEntity
  8
SUNPOU
100
AcDbLine
 10
5044.99968
 20
5484.041384000001
 30
0.0
 11
5044.99968
 21
5544.041384
 31
0.0
  0
LINE
  5
12B
330
1E
100
AcDbEntity
  8
SUNPOU
100
AcDbLine
 10
5044.99968
 20
5461.041384
 30
0.0
 11
5044.99968
 21
5401.041384
 31
0.0
  0
TEXT
  5
12C
330
1E
100
AcDbEntity
  8
SUNPOU
100
AcDbText
 10
4999.99968
 20
5295.327098285715
 30
0.0
 40
60.0
  1
23
 50
90.0
  7
K
 72
     2
 11
4999.99968
 21
5401.041384
 31
0.0
100
AcDbText
  0
LINE
  5
12D
330
1E
100
AcDbEntity
  8
SUNPOU
100
AcDbLine
 10
5044.99968
 20
5461.041384
 30
0.0
 11
5044.99968
 21
5329.041383999999
 31
0.0
  0
INSERT
  5
12E
330
1E
100
AcDbEntity
  8
SUNPOU
100
AcDbBlockReference
  2
ARROWANG
 10
5044.99968
 20
5484.041384000001
 30
0.0
 41
30.0
 42
30.0
 43
30.0
 50
270.0
  0
INSERT
  5
12F
330
1E
100
AcDbEntity
  8
SUNPOU
100
AcDbBlockReference
  2
ARROWANG
 10
5044.99968
 20
5461.041384
 30
0.0
 41
30.0
 42
30.0
 43
30.0
 50
90.0
  0
LINE
  5
130
330
1E
100
AcDbEntity
  8
SUNPOU
100
AcDbLine
 10
5106.003195
 20
5484.041384000001
 30
0.0
 11
5014.999679999999
 21
5484.041384000001
 31
0.0
  0
LINE
  5
131
330
1E
100
AcDbEntity
  8
SUNPOU
100
AcDbLine
 10
5044.99968
 20
5484.041384000001
 30
0.0
 11
5044.99968
 21
5461.041384
 31
0.0
  0
TEXT
  5
132
330
1E
100
AcDbEntity
  8
SUNPOU
100
AcDbText
 10
4999.99968
 20
4587.663693428572
 30
0.0
 40
60.0
  1
1492
 50
90.0
  7
K
 72
     1
 11
4999.99968
 21
4706.235122
 31
0.0
100
AcDbText
  0
INSERT
  5
133
330
1E
100
AcDbEntity
  8
SUNPOU
100
AcDbBlockReference
  2
ARROWANG
 10
5044.99968
 20
5461.041384
 30
0.0
 41
30.0
 42
30.0
 43
30.0
 50
90.0
  0
INSERT
  5
134
330
1E
100
AcDbEntity
  8
SUNPOU
100
AcDbBlockReference
  2
ARROWANG
 10
5044.99968
 20
3969.041384
 30
0.0
 41
30.0
 42
30.0
 43
30.0
 50
270.0
  0
LINE
  5
135
330
1E
100
AcDbEntity
  8
SUNPOU
100
AcDbLine
 10
5044.99968
 20
3969.041384
 30
0.0
 11
5044.99968
 21
5461.041384
 31
0.0
  0
LINE
  5
136
330
1E
100
AcDbEntity
  8
SUNPOU
100
AcDbLine
 10
4716.003195
 20
5461.041384
 30
0.0
 11
5074.99968
 21
5461.041384
 31
0.0
  0
LINE
  5
137
330
1E
100
AcDbEntity
  8
SUNPOU
100
AcDbLine
 10
4931.410500999999
 20
3969.041384
 30
0.0
 11
5074.99968
 21
3969.041384
 31
0.0
  0
TEXT
  5
138
330
1E
100
AcDbEntity
  8
SUNPOU
100
AcDbText
 10
4856.410500999999
 20
3954.041384
 30
0.0
 40
60.0
  1
150
 50
90.0
  7
K
 72
     1
 11
4856.410500999999
 21
4044.041384
 31
0.0
100
AcDbText
  0
INSERT
  5
139
330
1E
100
AcDbEntity
  8
SUNPOU
100
AcDbBlockReference
  2
ARROWANG
 10
4901.410500999999
 20
4119.041384
 30
0.0
 41
30.0
 42
30.0
 43
30.0
 50
90.0
  0
INSERT
  5
13A
330
1E
100
AcDbEntity
  8
SUNPOU
100
AcDbBlockReference
  2
ARROWANG
 10
4901.410500999999
 20
3969.041384
 30
0.0
 41
30.0
 42
30.0
 43
30.0
 50
270.0
  0
LINE
  5
13B
330
1E
100
AcDbEntity
  8
SUNPOU
100
AcDbLine
 10
4901.410500999999
 20
3969.041384
 30
0.0
 11
4901.410500999999
 21
4119.041384
 31
0.0
  0
LINE
  5
13C
330
1E
100
AcDbEntity
  8
SUNPOU
100
AcDbLine
 10
4871.410500999999
 20
4119.041384
 30
0.0
 11
4871.410500999999
 21
4119.041384
 31
0.0
  0
LINE
  5
13D
330
1E
100
AcDbEntity
  8
SUNPOU
100
AcDbLine
 10
4716.003195
 20
3969.041384
 30
0.0
 11
4931.410500999999
 21
3969.041384
 31
0.0
  0
CIRCLE
  5
13E
330
1E
100
AcDbEntity
  8
HASEN
100
AcDbCircle
 10
4771.926634999999
 20
4081.990478
 30
0.0
 40
10.0
  0
LINE
  5
13F
330
1E
100
AcDbEntity
  8
SUNPOU
100
AcDbLine
 10
4901.410500999999
 20
4119.041384
 30
0.0
 11
4901.410500999999
 21
4419.041384
 31
0.0
  0
LINE
  5
140
330
1E
100
AcDbEntity
  8
SUNPOU
100
AcDbLine
 10
4901.410500999999
 20
4419.041384
 30
0.0
 11
4901.410500999999
 21
4719.041384
 31
0.0
  0
LINE
  5
141
330
1E
100
AcDbEntity
  8
SUNPOU
100
AcDbLine
 10
4901.410500999999
 20
4719.041384
 30
0.0
 11
4901.410500999999
 21
5019.041384000001
 31
0.0
  0
LINE
  5
142
330
1E
100
AcDbEntity
  8
SUNPOU
100
AcDbLine
 10
4901.410500999999
 20
5019.041384000001
 30
0.0
 11
4901.410500999999
 21
5319.041384000001
 31
0.0
  0
LINE
  5
143
330
1E
100
AcDbEntity
  8
ITTEN
100
AcDbLine
 10
4651.003195
 20
4419.041384
 30
0.0
 11
4836.003195
 21
4419.041384
 31
0.0
  0
LINE
  5
144
330
1E
100
AcDbEntity
  8
JISSEN
100
AcDbLine
 10
4776.003195
 20
4429.041384
 30
0.0
 11
4686.003195
 21
4429.041384
 31
0.0
  0
LINE
  5
145
330
1E
100
AcDbEntity
  8
JISSEN
100
AcDbLine
 10
4776.003195
 20
4409.041384
 30
0.0
 11
4686.003195
 21
4409.041384
 31
0.0
  0
ARC
  5
146
330
1E
100
AcDbEntity
  8
JISSEN
100
AcDbCircle
 10
4776.003195
 20
4419.041384
 30
0.0
 40
10.0
100
AcDbArc
 50
270.0
 51
90.0
  0
LINE
  5
147
330
1E
100
AcDbEntity
  8
ITTEN
100
AcDbLine
 10
4651.003195
 20
4719.041384
 30
0.0
 11
4836.003195
 21
4719.041384
 31
0.0
  0
LINE
  5
148
330
1E
100
AcDbEntity
  8
JISSEN
100
AcDbLine
 10
4776.003195
 20
4729.041384
 30
0.0
 11
4686.003195
 21
4729.041384
 31
0.0
  0
LINE
  5
149
330
1E
100
AcDbEntity
  8
JISSEN
100
AcDbLine
 10
4776.003195
 20
4709.041384
 30
0.0
 11
4686.003195
 21
4709.041384
 31
0.0
  0
ARC
  5
14A
330
1E
100
AcDbEntity
  8
JISSEN
100
AcDbCircle
 10
4776.003195
 20
4719.041384
 30
0.0
 40
10.0
100
AcDbArc
 50
270.0
 51
90.0
  0
LINE
  5
14B
330
1E
100
AcDbEntity
  8
ITTEN
100
AcDbLine
 10
4651.003195
 20
5019.041384000001
 30
0.0
 11
4836.003195
 21
5019.041384000001
 31
0.0
  0
LINE
  5
14C
330
1E
100
AcDbEntity
  8
JISSEN
100
AcDbLine
 10
4776.003195
 20
5029.041384
 30
0.0
 11
4686.003195
 21
5029.041384
 31
0.0
  0
LINE
  5
14D
330
1E
100
AcDbEntity
  8
JISSEN
100
AcDbLine
 10
4776.003195
 20
5009.041384
 30
0.0
 11
4686.003195
 21
5009.041384
 31
0.0
  0
ARC
  5
14E
330
1E
100
AcDbEntity
  8
JISSEN
100
AcDbCircle
 10
4776.003195
 20
5019.041384000001
 30
0.0
 40
10.0
100
AcDbArc
 50
270.0
 51
90.0
  0
ARC
  5
14F
330
1E
100
AcDbEntity
  8
JISSEN
100
AcDbCircle
 10
4776.003195
 20
5319.041384000001
 30
0.0
 40
10.0
100
AcDbArc
 50
270.0
 51
90.0
  0
LINE
  5
150
330
1E
100
AcDbEntity
  8
JISSEN
100
AcDbLine
 10
4776.003195
 20
5309.041384
 30
0.0
 11
4686.003195
 21
5309.041384
 31
0.0
  0
LINE
  5
151
330
1E
100
AcDbEntity
  8
JISSEN
100
AcDbLine
 10
4776.003195
 20
5329.041383999999
 30
0.0
 11
4686.003195
 21
5329.041383999999
 31
0.0
  0
LINE
  5
152
330
1E
100
AcDbEntity
  8
ITTEN
100
AcDbLine
 10
4651.003195
 20
5319.041384000001
 30
0.0
 11
4836.003195
 21
5319.041384000001
 31
0.0
  0
ARC
  5
153
330
1E
100
AcDbEntity
  8
JISSEN
100
AcDbCircle
 10
4776.003195
 20
4119.041384
 30
0.0
 40
10.0
100
AcDbArc
 50
270.0
 51
90.0
  0
LINE
  5
154
330
1E
100
AcDbEntity
  8
JISSEN
100
AcDbLine
 10
4776.003195
 20
4109.041384
 30
0.0
 11
4686.003195
 21
4109.041384
 31
0.0
  0
LINE
  5
155
330
1E
100
AcDbEntity
  8
JISSEN
100
AcDbLine
 10
4776.003195
 20
4129.041383999999
 30
0.0
 11
4686.003195
 21
4129.041383999999
 31
0.0
  0
LINE
  5
156
330
1E
100
AcDbEntity
  8
ITTEN
100
AcDbLine
 10
4651.003195
 20
4119.041384
 30
0.0
 11
4836.003195
 21
4119.041384
 31
0.0
  0
CIRCLE
  5
157
330
1E
100
AcDbEntity
  8
HASEN
100
AcDbCircle
 10
4764.772135
 20
5384.041384
 30
0.0
 40
10.0
  0
LINE
  5
158
330
1E
100
AcDbEntity
  8
SUNPOU
100
AcDbLine
 10
4816.003195
 20
4119.041384
 30
0.0
 11
4931.410500999999
 21
4119.041384
 31
0.0
  0
INSERT
  5
159
330
1E
100
AcDbEntity
  8
SUNPOU
100
AcDbBlockReference
  2
ARROWANG
 10
4901.410500999999
 20
4119.041384
 30
0.0
 41
30.0
 42
30.0
 43
30.0
 50
90.0
  0
LINE
  5
15A
330
1E
100
AcDbEntity
  8
SUNPOU
100
AcDbLine
 10
4816.003195
 20
4419.041384
 30
0.0
 11
4931.410500999999
 21
4419.041384
 31
0.0
  0
INSERT
  5
15B
330
1E
100
AcDbEntity
  8
SUNPOU
100
AcDbBlockReference
  2
ARROWANG
 10
4901.410500999999
 20
4119.041384
 30
0.0
 41
30.0
 42
30.0
 43
30.0
 50
270.0
  0
INSERT
  5
15C
330
1E
100
AcDbEntity
  8
SUNPOU
100
AcDbBlockReference
  2
ARROWANG
 10
4901.410500999999
 20
4419.041384
 30
0.0
 41
30.0
 42
30.0
 43
30.0
 50
90.0
  0
TEXT
  5
15D
330
1E
100
AcDbEntity
  8
SUNPOU
100
AcDbText
 10
4856.410500999999
 20
4183.327098285714
 30
0.0
 40
60.0
  1
300
 50
90.0
  7
K
 72
     1
 11
4856.410500999999
 21
4269.041384
 31
0.0
100
AcDbText
  0
LINE
  5
15E
330
1E
100
AcDbEntity
  8
SUNPOU
100
AcDbLine
 10
4816.003195
 20
4719.041384
 30
0.0
 11
4931.410500999999
 21
4719.041384
 31
0.0
  0
INSERT
  5
15F
330
1E
100
AcDbEntity
  8
SUNPOU
100
AcDbBlockReference
  2
ARROWANG
 10
4901.410500999999
 20
4419.041384
 30
0.0
 41
30.0
 42
30.0
 43
30.0
 50
270.0
  0
INSERT
  5
160
330
1E
100
AcDbEntity
  8
SUNPOU
100
AcDbBlockReference
  2
ARROWANG
 10
4901.410500999999
 20
4719.041384
 30
0.0
 41
30.0
 42
30.0
 43
30.0
 50
90.0
  0
TEXT
  5
161
330
1E
100
AcDbEntity
  8
SUNPOU
100
AcDbText
 10
4856.410500999999
 20
4483.327098285715
 30
0.0
 40
60.0
  1
300
 50
90.0
  7
K
 72
     1
 11
4856.410500999999
 21
4569.041384000001
 31
0.0
100
AcDbText
  0
LINE
  5
162
330
1E
100
AcDbEntity
  8
SUNPOU
100
AcDbLine
 10
4816.003195
 20
5019.041384000001
 30
0.0
 11
4931.410500999999
 21
5019.041384000001
 31
0.0
  0
INSERT
  5
163
330
1E
100
AcDbEntity
  8
SUNPOU
100
AcDbBlockReference
  2
ARROWANG
 10
4901.410500999999
 20
4719.041384
 30
0.0
 41
30.0
 42
30.0
 43
30.0
 50
270.0
  0
INSERT
  5
164
330
1E
100
AcDbEntity
  8
SUNPOU
100
AcDbBlockReference
  2
ARROWANG
 10
4901.410500999999
 20
5019.041384000001
 30
0.0
 41
30.0
 42
30.0
 43
30.0
 50
90.0
  0
TEXT
  5
165
330
1E
100
AcDbEntity
  8
SUNPOU
100
AcDbText
 10
4856.410500999999
 20
4783.327098285715
 30
0.0
 40
60.0
  1
300
 50
90.0
  7
K
 72
     1
 11
4856.410500999999
 21
4869.041384
 31
0.0
100
AcDbText
  0
LINE
  5
166
330
1E
100
AcDbEntity
  8
SUNPOU
100
AcDbLine
 10
4816.003195
 20
5319.041384000001
 30
0.0
 11
4931.410500999999
 21
5319.041384000001
 31
0.0
  0
INSERT
  5
167
330
1E
100
AcDbEntity
  8
SUNPOU
100
AcDbBlockReference
  2
ARROWANG
 10
4901.410500999999
 20
5019.041384000001
 30
0.0
 41
30.0
 42
30.0
 43
30.0
 50
270.0
  0
INSERT
  5
168
330
1E
100
AcDbEntity
  8
SUNPOU
100
AcDbBlockReference
  2
ARROWANG
 10
4901.410500999999
 20
5319.041384000001
 30
0.0
 41
30.0
 42
30.0
 43
30.0
 50
90.0
  0
TEXT
  5
169
330
1E
100
AcDbEntity
  8
SUNPOU
100
AcDbText
 10
4856.410500999999
 20
5083.327098285715
 30
0.0
 40
60.0
  1
300
 50
90.0
  7
K
 72
     1
 11
4856.410500999999
 21
5169.041384
 31
0.0
100
AcDbText
  0
LINE
  5
16A
330
1E
100
AcDbEntity
  8
SUNPOU
100
AcDbLine
 10
3184.176914
 20
5484.041384000001
 30
0.0
 11
3184.176914
 21
5544.041384
 31
0.0
  0
LINE
  5
16B
330
1E
100
AcDbEntity
  8
SUNPOU
100
AcDbLine
 10
3184.176914
 20
5461.041384
 30
0.0
 11
3184.176914
 21
5401.041384
 31
0.0
  0
TEXT
  5
16C
330
1E
100
AcDbEntity
  8
SUNPOU
100
AcDbText
 10
3139.176914
 20
5295.327098285715
 30
0.0
 40
60.0
  1
23
 50
90.0
  7
K
 72
     2
 11
3139.176914
 21
5401.041384
 31
0.0
100
AcDbText
  0
LINE
  5
16D
330
1E
100
AcDbEntity
  8
SUNPOU
100
AcDbLine
 10
3184.176914
 20
5461.041384
 30
0.0
 11
3184.176914
 21
5329.041383999999
 31
0.0
  0
INSERT
  5
16E
330
1E
100
AcDbEntity
  8
SUNPOU
100
AcDbBlockReference
  2
ARROWANG
 10
3184.176914
 20
5484.041384000001
 30
0.0
 41
30.0
 42
30.0
 43
30.0
 50
270.0
  0
INSERT
  5
16F
330
1E
100
AcDbEntity
  8
SUNPOU
100
AcDbBlockReference
  2
ARROWANG
 10
3184.176914
 20
5461.041384
 30
0.0
 41
30.0
 42
30.0
 43
30.0
 50
90.0
  0
LINE
  5
170
330
1E
100
AcDbEntity
  8
SUNPOU
100
AcDbLine
 10
3249.689653
 20
5484.041384000001
 30
0.0
 11
3154.176914
 21
5484.041384000001
 31
0.0
  0
LINE
  5
171
330
1E
100
AcDbEntity
  8
SUNPOU
100
AcDbLine
 10
3184.176914
 20
5484.041384000001
 30
0.0
 11
3184.176914
 21
5461.041384
 31
0.0
  0
TEXT
  5
172
330
1E
100
AcDbEntity
  8
SUNPOU
100
AcDbText
 10
3139.176914
 20
4446.469955428571
 30
0.0
 40
60.0
  1
1792
 50
90.0
  7
K
 72
     1
 11
3139.176914
 21
4565.041383999999
 31
0.0
100
AcDbText
  0
INSERT
  5
173
330
1E
100
AcDbEntity
  8
SUNPOU
100
AcDbBlockReference
  2
ARROWANG
 10
3184.176914
 20
5461.041384
 30
0.0
 41
30.0
 42
30.0
 43
30.0
 50
90.0
  0
INSERT
  5
174
330
1E
100
AcDbEntity
  8
SUNPOU
100
AcDbBlockReference
  2
ARROWANG
 10
3184.176914
 20
3669.041384
 30
0.0
 41
30.0
 42
30.0
 43
30.0
 50
270.0
  0
LINE
  5
175
330
1E
100
AcDbEntity
  8
SUNPOU
100
AcDbLine
 10
3184.176914
 20
3669.041384
 30
0.0
 11
3184.176914
 21
5461.041384
 31
0.0
  0
LINE
  5
176
330
1E
100
AcDbEntity
  8
SUNPOU
100
AcDbLine
 10
3249.689653
 20
5461.041384
 30
0.0
 11
3154.176914
 21
5461.041384
 31
0.0
  0
LINE
  5
177
330
1E
100
AcDbEntity
  8
SUNPOU
100
AcDbLine
 10
3075.096959
 20
3669.041384
 30
0.0
 11
3214.176914
 21
3669.041384
 31
0.0
  0
TEXT
  5
178
330
1E
100
AcDbEntity
  8
SUNPOU
100
AcDbText
 10
3000.096959
 20
5083.327098285715
 30
0.0
 40
60.0
  1
300
 50
90.0
  7
K
 72
     1
 11
3000.096959
 21
5169.041384
 31
0.0
100
AcDbText
  0
INSERT
  5
179
330
1E
100
AcDbEntity
  8
SUNPOU
100
AcDbBlockReference
  2
ARROWANG
 10
3045.096959
 20
5319.041384000001
 30
0.0
 41
30.0
 42
30.0
 43
30.0
 50
90.0
  0
INSERT
  5
17A
330
1E
100
AcDbEntity
  8
SUNPOU
100
AcDbBlockReference
  2
ARROWANG
 10
3045.096959
 20
5019.041384000001
 30
0.0
 41
30.0
 42
30.0
 43
30.0
 50
270.0
  0
LINE
  5
17B
330
1E
100
AcDbEntity
  8
SUNPOU
100
AcDbLine
 10
2959.689652999999
 20
5319.041384000001
 30
0.0
 11
3075.096959
 21
5319.041384000001
 31
0.0
  0
LINE
  5
17C
330
1E
100
AcDbEntity
  8
SUNPOU
100
AcDbLine
 10
3045.096959
 20
5019.041384000001
 30
0.0
 11
3045.096959
 21
5319.041384000001
 31
0.0
  0
TEXT
  5
17D
330
1E
100
AcDbEntity
  8
SUNPOU
100
AcDbText
 10
3000.096959
 20
4783.327098285715
 30
0.0
 40
60.0
  1
300
 50
90.0
  7
K
 72
     1
 11
3000.096959
 21
4869.041384
 31
0.0
100
AcDbText
  0
INSERT
  5
17E
330
1E
100
AcDbEntity
  8
SUNPOU
100
AcDbBlockReference
  2
ARROWANG
 10
3045.096959
 20
5019.041384000001
 30
0.0
 41
30.0
 42
30.0
 43
30.0
 50
90.0
  0
INSERT
  5
17F
330
1E
100
AcDbEntity
  8
SUNPOU
100
AcDbBlockReference
  2
ARROWANG
 10
3045.096959
 20
4719.041384
 30
0.0
 41
30.0
 42
30.0
 43
30.0
 50
270.0
  0
LINE
  5
180
330
1E
100
AcDbEntity
  8
SUNPOU
100
AcDbLine
 10
2959.689652999999
 20
5019.041384000001
 30
0.0
 11
3075.096959
 21
5019.041384000001
 31
0.0
  0
LINE
  5
181
330
1E
100
AcDbEntity
  8
SUNPOU
100
AcDbLine
 10
3045.096959
 20
4719.041384
 30
0.0
 11
3045.096959
 21
5019.041384000001
 31
0.0
  0
TEXT
  5
182
330
1E
100
AcDbEntity
  8
SUNPOU
100
AcDbText
 10
3000.096959
 20
4483.327098285715
 30
0.0
 40
60.0
  1
300
 50
90.0
  7
K
 72
     1
 11
3000.096959
 21
4569.041384000001
 31
0.0
100
AcDbText
  0
INSERT
  5
183
330
1E
100
AcDbEntity
  8
SUNPOU
100
AcDbBlockReference
  2
ARROWANG
 10
3045.096959
 20
4719.041384
 30
0.0
 41
30.0
 42
30.0
 43
30.0
 50
90.0
  0
INSERT
  5
184
330
1E
100
AcDbEntity
  8
SUNPOU
100
AcDbBlockReference
  2
ARROWANG
 10
3045.096959
 20
4419.041384
 30
0.0
 41
30.0
 42
30.0
 43
30.0
 50
270.0
  0
LINE
  5
185
330
1E
100
AcDbEntity
  8
SUNPOU
100
AcDbLine
 10
2959.689652999999
 20
4719.041384
 30
0.0
 11
3075.096959
 21
4719.041384
 31
0.0
  0
LINE
  5
186
330
1E
100
AcDbEntity
  8
SUNPOU
100
AcDbLine
 10
3045.096959
 20
4419.041384
 30
0.0
 11
3045.096959
 21
4719.041384
 31
0.0
  0
TEXT
  5
187
330
1E
100
AcDbEntity
  8
SUNPOU
100
AcDbText
 10
3000.096959
 20
4183.327098285714
 30
0.0
 40
60.0
  1
300
 50
90.0
  7
K
 72
     1
 11
3000.096959
 21
4269.041384
 31
0.0
100
AcDbText
  0
INSERT
  5
188
330
1E
100
AcDbEntity
  8
SUNPOU
100
AcDbBlockReference
  2
ARROWANG
 10
3045.096959
 20
4419.041384
 30
0.0
 41
30.0
 42
30.0
 43
30.0
 50
90.0
  0
INSERT
  5
189
330
1E
100
AcDbEntity
  8
SUNPOU
100
AcDbBlockReference
  2
ARROWANG
 10
3045.096959
 20
4119.041384
 30
0.0
 41
30.0
 42
30.0
 43
30.0
 50
270.0
  0
LINE
  5
18A
330
1E
100
AcDbEntity
  8
SUNPOU
100
AcDbLine
 10
2959.689652999999
 20
4419.041384
 30
0.0
 11
3075.096959
 21
4419.041384
 31
0.0
  0
LINE
  5
18B
330
1E
100
AcDbEntity
  8
SUNPOU
100
AcDbLine
 10
3045.096959
 20
4119.041384
 30
0.0
 11
3045.096959
 21
4419.041384
 31
0.0
  0
TEXT
  5
18C
330
1E
100
AcDbEntity
  8
SUNPOU
100
AcDbText
 10
3000.096959
 20
3883.327098285715
 30
0.0
 40
60.0
  1
300
 50
90.0
  7
K
 72
     1
 11
3000.096959
 21
3969.041384
 31
0.0
100
AcDbText
  0
INSERT
  5
18D
330
1E
100
AcDbEntity
  8
SUNPOU
100
AcDbBlockReference
  2
ARROWANG
 10
3045.096959
 20
4119.041384
 30
0.0
 41
30.0
 42
30.0
 43
30.0
 50
90.0
  0
INSERT
  5
18E
330
1E
100
AcDbEntity
  8
SUNPOU
100
AcDbBlockReference
  2
ARROWANG
 10
3045.096959
 20
3819.041384
 30
0.0
 41
30.0
 42
30.0
 43
30.0
 50
270.0
  0
LINE
  5
18F
330
1E
100
AcDbEntity
  8
SUNPOU
100
AcDbLine
 10
2959.689652999999
 20
4119.041384
 30
0.0
 11
3075.096959
 21
4119.041384
 31
0.0
  0
LINE
  5
190
330
1E
100
AcDbEntity
  8
SUNPOU
100
AcDbLine
 10
3045.096959
 20
3819.041384
 30
0.0
 11
3045.096959
 21
4119.041384
 31
0.0
  0
TEXT
  5
191
330
1E
100
AcDbEntity
  8
SUNPOU
100
AcDbText
 10
3000.096959
 20
3654.041384000001
 30
0.0
 40
60.0
  1
150
 50
90.0
  7
K
 72
     1
 11
3000.096959
 21
3744.041384
 31
0.0
100
AcDbText
  0
INSERT
  5
192
330
1E
100
AcDbEntity
  8
SUNPOU
100
AcDbBlockReference
  2
ARROWANG
 10
3045.096959
 20
3819.041384
 30
0.0
 41
30.0
 42
30.0
 43
30.0
 50
90.0
  0
INSERT
  5
193
330
1E
100
AcDbEntity
  8
SUNPOU
100
AcDbBlockReference
  2
ARROWANG
 10
3045.096959
 20
3669.041384
 30
0.0
 41
30.0
 42
30.0
 43
30.0
 50
270.0
  0
LINE
  5
194
330
1E
100
AcDbEntity
  8
SUNPOU
100
AcDbLine
 10
3045.096959
 20
3669.041384
 30
0.0
 11
3045.096959
 21
3819.041384
 31
0.0
  0
LINE
  5
195
330
1E
100
AcDbEntity
  8
SUNPOU
100
AcDbLine
 10
2959.689652999999
 20
3819.041384
 30
0.0
 11
3075.096959
 21
3819.041384
 31
0.0
  0
LINE
  5
196
330
1E
100
AcDbEntity
  8
SUNPOU
100
AcDbLine
 10
2859.689653
 20
3669.041384
 30
0.0
 11
3075.096959
 21
3669.041384
 31
0.0
  0
CIRCLE
  5
197
330
1E
100
AcDbEntity
  8
HASEN
100
AcDbCircle
 10
2908.458593
 20
3784.041384
 30
0.0
 40
10.0
  0
CIRCLE
  5
198
330
1E
100
AcDbEntity
  8
HASEN
100
AcDbCircle
 10
2908.458593
 20
5384.041384
 30
0.0
 40
10.0
  0
LINE
  5
199
330
1E
100
AcDbEntity
  8
ITTEN
100
AcDbLine
 10
2794.689653
 20
3819.041384
 30
0.0
 11
2979.689652999999
 21
3819.041384
 31
0.0
  0
LINE
  5
19A
330
1E
100
AcDbEntity
  8
JISSEN
100
AcDbLine
 10
2919.689653
 20
3829.041384
 30
0.0
 11
2829.689652999999
 21
3829.041384
 31
0.0
  0
LINE
  5
19B
330
1E
100
AcDbEntity
  8
JISSEN
100
AcDbLine
 10
2919.689653
 20
3809.041384
 30
0.0
 11
2829.689652999999
 21
3809.041384
 31
0.0
  0
ARC
  5
19C
330
1E
100
AcDbEntity
  8
JISSEN
100
AcDbCircle
 10
2919.689653
 20
3819.041384
 30
0.0
 40
10.0
100
AcDbArc
 50
270.0
 51
90.0
  0
LINE
  5
19D
330
1E
100
AcDbEntity
  8
ITTEN
100
AcDbLine
 10
2794.689653
 20
4119.041384
 30
0.0
 11
2979.689652999999
 21
4119.041384
 31
0.0
  0
LINE
  5
19E
330
1E
100
AcDbEntity
  8
JISSEN
100
AcDbLine
 10
2919.689653
 20
4129.041383999999
 30
0.0
 11
2829.689652999999
 21
4129.041383999999
 31
0.0
  0
LINE
  5
19F
330
1E
100
AcDbEntity
  8
JISSEN
100
AcDbLine
 10
2919.689653
 20
4109.041384
 30
0.0
 11
2829.689652999999
 21
4109.041384
 31
0.0
  0
ARC
  5
1A0
330
1E
100
AcDbEntity
  8
JISSEN
100
AcDbCircle
 10
2919.689653
 20
4119.041384
 30
0.0
 40
10.0
100
AcDbArc
 50
270.0
 51
90.0
  0
LINE
  5
1A1
330
1E
100
AcDbEntity
  8
ITTEN
100
AcDbLine
 10
3279.689653
 20
5534.041384
 30
0.0
 11
3279.689653
 21
3619.041384
 31
0.0
  0
LINE
  5
1A2
330
1E
100
AcDbEntity
  8
JISSEN
100
AcDbLine
 10
2754.689652999999
 20
5484.041384000001
 30
0.0
 11
3804.689653
 21
5484.041384000001
 31
0.0
  0
LINE
  5
1A3
330
1E
100
AcDbEntity
  8
JISSEN
100
AcDbLine
 10
3804.689653
 20
5484.041384000001
 30
0.0
 11
3804.689653
 21
3684.041384
 31
0.0
  0
LINE
  5
1A4
330
1E
100
AcDbEntity
  8
JISSEN
100
AcDbLine
 10
2754.689652999999
 20
5484.041384000001
 30
0.0
 11
2754.689652999999
 21
3684.041384
 31
0.0
  0
LINE
  5
1A5
330
1E
100
AcDbEntity
  8
JISSEN
100
AcDbLine
 10
2829.689652999999
 20
5461.041384
 30
0.0
 11
2829.689652999999
 21
3669.041384
 31
0.0
  0
LINE
  5
1A6
330
1E
100
AcDbEntity
  8
JISSEN
100
AcDbLine
 10
2794.689653
 20
5484.041384000001
 30
0.0
 11
2801.689653
 21
5461.041384
 31
0.0
  0
LINE
  5
1A7
330
1E
100
AcDbEntity
  8
JISSEN
100
AcDbLine
 10
2801.689653
 20
5461.041384
 30
0.0
 11
3279.689653
 21
5461.041384
 31
0.0
  0
LINE
  5
1A8
330
1E
100
AcDbEntity
  8
HASEN
100
AcDbLine
 10
3764.689653
 20
5484.041384000001
 30
0.0
 11
3757.689652999999
 21
5461.041384
 31
0.0
  0
LINE
  5
1A9
330
1E
100
AcDbEntity
  8
HASEN
100
AcDbLine
 10
3757.689652999999
 20
5461.041384
 30
0.0
 11
3279.689653
 21
5461.041384
 31
0.0
  0
LINE
  5
1AA
330
1E
100
AcDbEntity
  8
JISSEN
100
AcDbLine
 10
2754.689652999999
 20
3684.041384
 30
0.0
 11
2795.689653
 21
3684.041384
 31
0.0
  0
LINE
  5
1AB
330
1E
100
AcDbEntity
  8
JISSEN
100
AcDbLine
 10
2795.689653
 20
3684.041384
 30
0.0
 11
2804.689653
 21
3669.041384
 31
0.0
  0
LINE
  5
1AC
330
1E
100
AcDbEntity
  8
JISSEN
100
AcDbLine
 10
2804.689653
 20
3669.041384
 30
0.0
 11
3279.689653
 21
3669.041384
 31
0.0
  0
LINE
  5
1AD
330
1E
100
AcDbEntity
  8
JISSEN
100
AcDbLine
 10
3804.689653
 20
3684.041384
 30
0.0
 11
3763.689653
 21
3684.041384
 31
0.0
  0
LINE
  5
1AE
330
1E
100
AcDbEntity
  8
JISSEN
100
AcDbLine
 10
3763.689653
 20
3684.041384
 30
0.0
 11
3754.689652999999
 21
3669.041384
 31
0.0
  0
LINE
  5
1AF
330
1E
100
AcDbEntity
  8
JISSEN
100
AcDbLine
 10
3754.689652999999
 20
3669.041384
 30
0.0
 11
3279.689653
 21
3669.041384
 31
0.0
  0
LINE
  5
1B0
330
1E
100
AcDbEntity
  8
JISSEN
100
AcDbLine
 10
3279.689653
 20
3684.041384
 30
0.0
 11
3763.689653
 21
3684.041384
 31
0.0
  0
LINE
  5
1B1
330
1E
100
AcDbEntity
  8
HASEN
100
AcDbLine
 10
3729.689652999999
 20
5461.041384
 30
0.0
 11
3729.689652999999
 21
3669.041384
 31
0.0
  0
LINE
  5
1B2
330
1E
100
AcDbEntity
  8
ITTEN
100
AcDbLine
 10
2794.689653
 20
5319.041384000001
 30
0.0
 11
2979.689652999999
 21
5319.041384000001
 31
0.0
  0
LINE
  5
1B3
330
1E
100
AcDbEntity
  8
JISSEN
100
AcDbLine
 10
2919.689653
 20
5329.041383999999
 30
0.0
 11
2829.689652999999
 21
5329.041383999999
 31
0.0
  0
LINE
  5
1B4
330
1E
100
AcDbEntity
  8
JISSEN
100
AcDbLine
 10
2919.689653
 20
5309.041384
 30
0.0
 11
2829.689652999999
 21
5309.041384
 31
0.0
  0
ARC
  5
1B5
330
1E
100
AcDbEntity
  8
JISSEN
100
AcDbCircle
 10
2919.689653
 20
5319.041384000001
 30
0.0
 40
10.0
100
AcDbArc
 50
270.0
 51
90.0
  0
ARC
  5
1B6
330
1E
100
AcDbEntity
  8
JISSEN
100
AcDbCircle
 10
2919.689653
 20
5019.041384000001
 30
0.0
 40
10.0
100
AcDbArc
 50
270.0
 51
90.0
  0
LINE
  5
1B7
330
1E
100
AcDbEntity
  8
JISSEN
100
AcDbLine
 10
2919.689653
 20
5009.041384
 30
0.0
 11
2829.689652999999
 21
5009.041384
 31
0.0
  0
LINE
  5
1B8
330
1E
100
AcDbEntity
  8
JISSEN
100
AcDbLine
 10
2919.689653
 20
5029.041384
 30
0.0
 11
2829.689652999999
 21
5029.041384
 31
0.0
  0
LINE
  5
1B9
330
1E
100
AcDbEntity
  8
ITTEN
100
AcDbLine
 10
2794.689653
 20
5019.041384000001
 30
0.0
 11
2979.689652999999
 21
5019.041384000001
 31
0.0
  0
ARC
  5
1BA
330
1E
100
AcDbEntity
  8
JISSEN
100
AcDbCircle
 10
2919.689653
 20
4719.041384
 30
0.0
 40
10.0
100
AcDbArc
 50
270.0
 51
90.0
  0
LINE
  5
1BB
330
1E
100
AcDbEntity
  8
JISSEN
100
AcDbLine
 10
2919.689653
 20
4709.041384
 30
0.0
 11
2829.689652999999
 21
4709.041384
 31
0.0
  0
LINE
  5
1BC
330
1E
100
AcDbEntity
  8
JISSEN
100
AcDbLine
 10
2919.689653
 20
4729.041384
 30
0.0
 11
2829.689652999999
 21
4729.041384
 31
0.0
  0
LINE
  5
1BD
330
1E
100
AcDbEntity
  8
ITTEN
100
AcDbLine
 10
2794.689653
 20
4719.041384
 30
0.0
 11
2979.689652999999
 21
4719.041384
 31
0.0
  0
ARC
  5
1BE
330
1E
100
AcDbEntity
  8
JISSEN
100
AcDbCircle
 10
2919.689653
 20
4419.041384
 30
0.0
 40
10.0
100
AcDbArc
 50
270.0
 51
90.0
  0
LINE
  5
1BF
330
1E
100
AcDbEntity
  8
JISSEN
100
AcDbLine
 10
2919.689653
 20
4409.041384
 30
0.0
 11
2829.689652999999
 21
4409.041384
 31
0.0
  0
LINE
  5
1C0
330
1E
100
AcDbEntity
  8
JISSEN
100
AcDbLine
 10
2919.689653
 20
4429.041384
 30
0.0
 11
2829.689652999999
 21
4429.041384
 31
0.0
  0
LINE
  5
1C1
330
1E
100
AcDbEntity
  8
ITTEN
100
AcDbLine
 10
2794.689653
 20
4419.041384
 30
0.0
 11
2979.689652999999
 21
4419.041384
 31
0.0
  0
LINE
  5
1C2
330
1E
100
AcDbEntity
  8
SUNPOU
100
AcDbLine
 10
2724.689653
 20
3684.041384
 30
0.0
 11
2504.857848
 21
3684.041384
 31
0.0
  0
LINE
  5
1C3
330
1E
100
AcDbEntity
  8
SUNPOU
100
AcDbLine
 10
2724.689653
 20
5484.041384000001
 30
0.0
 11
2504.857848
 21
5484.041384000001
 31
0.0
  0
LINE
  5
1C4
330
1E
100
AcDbEntity
  8
SUNPOU
100
AcDbLine
 10
2534.857848
 20
3684.041384
 30
0.0
 11
2534.857848
 21
5484.041384000001
 31
0.0
  0
INSERT
  5
1C5
330
1E
100
AcDbEntity
  8
SUNPOU
100
AcDbBlockReference
  2
ARROWANG
 10
2534.857848
 20
3684.041384
 30
0.0
 41
30.0
 42
30.0
 43
30.0
 50
270.0
  0
INSERT
  5
1C6
330
1E
100
AcDbEntity
  8
SUNPOU
100
AcDbBlockReference
  2
ARROWANG
 10
2534.857848
 20
5484.041384000001
 30
0.0
 41
30.0
 42
30.0
 43
30.0
 50
90.0
  0
TEXT
  5
1C7
330
1E
100
AcDbEntity
  8
SUNPOU
100
AcDbText
 10
2489.857848
 20
4465.469955428572
 30
0.0
 40
60.0
  1
1800
 50
90.0
  7
K
 72
     1
 11
2489.857848
 21
4584.041384
 31
0.0
100
AcDbText
  0
LINE
  5
1C8
330
1E
100
AcDbEntity
  8
SUNPOU
100
AcDbLine
 10
2799.689653
 20
3669.041384
 30
0.0
 11
2655.667438
 21
3669.041384
 31
0.0
  0
LINE
  5
1C9
330
1E
100
AcDbEntity
  8
SUNPOU
100
AcDbLine
 10
2724.689653
 20
3684.041384
 30
0.0
 11
2655.667438
 21
3684.041384
 31
0.0
  0
LINE
  5
1CA
330
1E
100
AcDbEntity
  8
SUNPOU
100
AcDbLine
 10
2685.667438
 20
3669.041384
 30
0.0
 11
2685.667438
 21
3684.041384
 31
0.0
  0
INSERT
  5
1CB
330
1E
100
AcDbEntity
  8
SUNPOU
100
AcDbBlockReference
  2
ARROWANG
 10
2685.667438
 20
3669.041384
 30
0.0
 41
30.0
 42
30.0
 43
30.0
 50
90.0
  0
INSERT
  5
1CC
330
1E
100
AcDbEntity
  8
SUNPOU
100
AcDbBlockReference
  2
ARROWANG
 10
2685.667438
 20
3684.041384
 30
0.0
 41
30.0
 42
30.0
 43
30.0
 50
270.0
  0
LINE
  5
1CD
330
1E
100
AcDbEntity
  8
SUNPOU
100
AcDbLine
 10
2685.667438
 20
3684.041384
 30
0.0
 11
2685.667438
 21
3755.138253
 31
0.0
  0
LINE
  5
1CE
330
1E
100
AcDbEntity
  8
SUNPOU
100
AcDbLine
 10
2685.667438
 20
3669.041384
 30
0.0
 11
2685.667439
 21
3609.041384
 31
0.0
  0
TEXT
  5
1CF
330
1E
100
AcDbEntity
  8
SUNPOU
100
AcDbText
 10
2640.667437999999
 20
3633.709681571428
 30
0.0
 40
60.0
  1
15
 50
90.0
  7
K
 72
     1
 11
2640.667437999999
 21
3695.138253
 31
0.0
100
AcDbText
  0
LINE
  5
1D0
330
1E
100
AcDbEntity
  8
SUNPOU
100
AcDbLine
 10
2754.689652999999
 20
5514.041384
 30
0.0
 11
2754.689652999999
 21
5742.717450999999
 31
0.0
  0
LINE
  5
1D1
330
1E
100
AcDbEntity
  8
SUNPOU
100
AcDbLine
 10
3804.689653
 20
5514.041384
 30
0.0
 11
3804.689653
 21
5742.717450999999
 31
0.0
  0
LINE
  5
1D2
330
1E
100
AcDbEntity
  8
SUNPOU
100
AcDbLine
 10
2754.689652999999
 20
5712.717450999999
 30
0.0
 11
3804.689653
 21
5712.717450999999
 31
0.0
  0
INSERT
  5
1D3
330
1E
100
AcDbEntity
  8
SUNPOU
100
AcDbBlockReference
  2
ARROWANG
 10
2754.689652999999
 20
5712.717450999999
 30
0.0
 41
30.0
 42
30.0
 43
30.0
 50
180.0
  0
INSERT
  5
1D4
330
1E
100
AcDbEntity
  8
SUNPOU
100
AcDbBlockReference
  2
ARROWANG
 10
3804.689653
 20
5712.717450999999
 30
0.0
 41
30.0
 42
30.0
 43
30.0
  0
TEXT
  5
1D5
330
1E
100
AcDbEntity
  8
SUNPOU
100
AcDbText
 10
3161.118239428571
 20
5757.717451
 30
0.0
 40
60.0
  1
1050
  7
K
 72
     1
 11
3279.689668
 21
5757.717451
 31
0.0
100
AcDbText
  0
LINE
  5
1D6
330
1E
100
AcDbEntity
  8
SUNPOU
100
AcDbLine
 10
2754.689652999999
 20
5514.041384
 30
0.0
 11
2754.689652999999
 21
5609.408532999999
 31
0.0
  0
LINE
  5
1D7
330
1E
100
AcDbEntity
  8
SUNPOU
100
AcDbLine
 10
2829.689652999999
 20
5491.041384
 30
0.0
 11
2829.689652999999
 21
5609.408532999999
 31
0.0
  0
LINE
  5
1D8
330
1E
100
AcDbEntity
  8
SUNPOU
100
AcDbLine
 10
2754.689652999999
 20
5579.408533
 30
0.0
 11
2829.689652999999
 21
5579.408533
 31
0.0
  0
INSERT
  5
1D9
330
1E
100
AcDbEntity
  8
SUNPOU
100
AcDbBlockReference
  2
ARROWANG
 10
2829.689652999999
 20
5579.408533
 30
0.0
 41
30.0
 42
30.0
 43
30.0
  0
INSERT
  5
1DA
330
1E
100
AcDbEntity
  8
SUNPOU
100
AcDbBlockReference
  2
ARROWANG
 10
2754.689652999999
 20
5579.408533
 30
0.0
 41
30.0
 42
30.0
 43
30.0
 50
180.0
  0
LINE
  5
1DB
330
1E
100
AcDbEntity
  8
SUNPOU
100
AcDbLine
 10
2754.689652999999
 20
5579.408533
 30
0.0
 11
2622.689653
 21
5579.408533
 31
0.0
  0
TEXT
  5
1DC
330
1E
100
AcDbEntity
  8
SUNPOU
100
AcDbText
 10
2631.546795857142
 20
5624.408533
 30
0.0
 40
60.0
  1
75
  7
K
 72
     1
 11
2688.689653
 21
5624.408533
 31
0.0
100
AcDbText
  0
LINE
  5
1DD
330
1E
100
AcDbEntity
  8
SUNPOU
100
AcDbLine
 10
2829.689652999999
 20
5579.408533
 30
0.0
 11
3729.689652999999
 21
5579.408533
 31
0.0
  0
LINE
  5
1DE
330
1E
100
AcDbEntity
  8
SUNPOU
100
AcDbLine
 10
3729.689652999999
 20
5491.041384
 30
0.0
 11
3729.689652999999
 21
5609.408532999999
 31
0.0
  0
INSERT
  5
1DF
330
1E
100
AcDbEntity
  8
SUNPOU
100
AcDbBlockReference
  2
ARROWANG
 10
2829.689652999999
 20
5579.408533
 30
0.0
 41
30.0
 42
30.0
 43
30.0
 50
180.0
  0
INSERT
  5
1E0
330
1E
100
AcDbEntity
  8
SUNPOU
100
AcDbBlockReference
  2
ARROWANG
 10
3729.689652999999
 20
5579.408533
 30
0.0
 41
30.0
 42
30.0
 43
30.0
  0
TEXT
  5
1E1
330
1E
100
AcDbEntity
  8
SUNPOU
100
AcDbText
 10
3193.975367285714
 20
5624.408533
 30
0.0
 40
60.0
  1
900
  7
K
 72
     1
 11
3279.689653
 21
5624.408533
 31
0.0
100
AcDbText
  0
LINE
  5
1E2
330
1E
100
AcDbEntity
  8
SUNPOU
100
AcDbLine
 10
3729.689652999999
 20
5579.408533
 30
0.0
 11
3804.689653
 21
5579.408533
 31
0.0
  0
LINE
  5
1E3
330
1E
100
AcDbEntity
  8
SUNPOU
100
AcDbLine
 10
3804.689653
 20
5514.041384
 30
0.0
 11
3804.689653
 21
5609.408532999999
 31
0.0
  0
INSERT
  5
1E4
330
1E
100
AcDbEntity
  8
SUNPOU
100
AcDbBlockReference
  2
ARROWANG
 10
3804.689653
 20
5579.408533
 30
0.0
 41
30.0
 42
30.0
 43
30.0
  0
INSERT
  5
1E5
330
1E
100
AcDbEntity
  8
SUNPOU
100
AcDbBlockReference
  2
ARROWANG
 10
3729.689652999999
 20
5579.408533
 30
0.0
 41
30.0
 42
30.0
 43
30.0
 50
180.0
  0
LINE
  5
1E6
330
1E
100
AcDbEntity
  8
SUNPOU
100
AcDbLine
 10
3804.689653
 20
5579.408533
 30
0.0
 11
3936.689653
 21
5579.408533
 31
0.0
  0
TEXT
  5
1E7
330
1E
100
AcDbEntity
  8
SUNPOU
100
AcDbText
 10
3894.689653
 20
5624.408533
 30
0.0
 40
60.0
  1
75
  7
K
100
AcDbText
  0
CIRCLE
  5
1E8
330
1E
100
AcDbEntity
  8
JISSEN
100
AcDbCircle
 10
3279.689653
 20
2591.269914
 30
0.0
 40
525.0
  0
CIRCLE
  5
1E9
330
1E
100
AcDbEntity
  8
JISSEN
100
AcDbCircle
 10
3279.689653
 20
2591.269914
 30
0.0
 40
450.0
  0
CIRCLE
  5
1EA
330
1E
100
AcDbEntity
  8
JISSEN
100
AcDbCircle
 10
3279.689653
 20
2591.269914
 30
0.0
 40
478.0
  0
CIRCLE
  5
1EB
330
1E
100
AcDbEntity
  8
JISSEN
100
AcDbCircle
 10
3279.689653
 20
2591.269914
 30
0.0
 40
485.0
  0
LINE
  5
1EC
330
1E
100
AcDbEntity
  8
HASEN
100
AcDbLine
 10
2901.454875
 20
2955.362557
 30
0.0
 11
2936.742864999999
 21
2920.074567
 31
0.0
  0
LINE
  5
1ED
330
1E
100
AcDbEntity
  8
HASEN
100
AcDbLine
 10
2950.885
 20
2934.216703
 30
0.0
 11
2936.742864999999
 21
2920.074567
 31
0.0
  0
LINE
  5
1EE
330
1E
100
AcDbEntity
  8
HASEN
100
AcDbLine
 10
2950.885
 20
2934.216703
 30
0.0
 11
2915.597011
 21
2969.504692
 31
0.0
  0
LINE
  5
1EF
330
1E
100
AcDbEntity
  8
ITTEN
100
AcDbLine
 10
2979.169271
 20
2891.790296
 30
0.0
 11
2873.103254
 21
2997.856312999999
 31
0.0
  0
POINT
  5
1F0
330
1E
100
AcDbEntity
  8
HASEN
100
AcDbPoint
 10
3278.982547
 20
2591.977021
 30
0.0
  0
LINE
  5
1F1
330
1E
100
AcDbEntity
  8
ITTEN
100
AcDbLine
 10
3580.210035
 20
2290.749531999999
 30
0.0
 11
3686.276053
 21
2184.683514999999
 31
0.0
  0
LINE
  5
1F2
330
1E
100
AcDbEntity
  8
HASEN
100
AcDbLine
 10
3608.494307
 20
2248.323125
 30
0.0
 11
3643.782296
 21
2213.035135999999
 31
0.0
  0
LINE
  5
1F3
330
1E
100
AcDbEntity
  8
HASEN
100
AcDbLine
 10
3608.494307
 20
2248.323125
 30
0.0
 11
3622.636442
 21
2262.465261
 31
0.0
  0
LINE
  5
1F4
330
1E
100
AcDbEntity
  8
HASEN
100
AcDbLine
 10
3657.924432
 20
2227.177270999999
 30
0.0
 11
3622.636442
 21
2262.465261
 31
0.0
  0
CIRCLE
  5
1F5
330
1E
100
AcDbEntity
  8
JISSEN
100
AcDbCircle
 10
3650.920714
 20
5384.041384
 30
0.0
 40
10.0
  0
LINE
  5
1F6
330
1E
100
AcDbEntity
  8
SUNPOU
100
AcDbLine
 10
3680.920713999999
 20
5384.041384
 30
0.0
 11
4036.927007
 21
5384.041384
 31
0.0
  0
LINE
  5
1F7
330
1E
100
AcDbEntity
  8
SUNPOU
100
AcDbLine
 10
3834.689653
 20
5484.041384000001
 30
0.0
 11
4036.927007
 21
5484.041384000001
 31
0.0
  0
LINE
  5
1F8
330
1E
100
AcDbEntity
  8
SUNPOU
100
AcDbLine
 10
4006.927007
 20
5384.041384
 30
0.0
 11
4006.927007
 21
5484.041384000001
 31
0.0
  0
INSERT
  5
1F9
330
1E
100
AcDbEntity
  8
SUNPOU
100
AcDbBlockReference
  2
ARROWANG
 10
4006.927007
 20
5384.041384
 30
0.0
 41
30.0
 42
30.0
 43
30.0
 50
270.0
  0
INSERT
  5
1FA
330
1E
100
AcDbEntity
  8
SUNPOU
100
AcDbBlockReference
  2
ARROWANG
 10
4006.927007
 20
5484.041384000001
 30
0.0
 41
30.0
 42
30.0
 43
30.0
 50
90.0
  0
TEXT
  5
1FB
330
1E
100
AcDbEntity
  8
SUNPOU
100
AcDbText
 10
3961.927007
 20
5344.041384
 30
0.0
 40
60.0
  1
100
 50
90.0
  7
K
 72
     1
 11
3961.927007
 21
5434.041384
 31
0.0
100
AcDbText
  0
CIRCLE
  5
1FC
330
1E
100
AcDbEntity
  8
JISSEN
100
AcDbCircle
 10
3650.920714
 20
3784.041384
 30
0.0
 40
10.0
  0
LINE
  5
1FD
330
1E
100
AcDbEntity
  8
SUNPOU
100
AcDbLine
 10
3834.689653
 20
3684.041384
 30
0.0
 11
3989.170637
 21
3684.041384
 31
0.0
  0
LINE
  5
1FE
330
1E
100
AcDbEntity
  8
SUNPOU
100
AcDbLine
 10
3680.920713999999
 20
3784.041384
 30
0.0
 11
3989.170637
 21
3784.041384
 31
0.0
  0
LINE
  5
1FF
330
1E
100
AcDbEntity
  8
SUNPOU
100
AcDbLine
 10
3959.170636999999
 20
3684.041384
 30
0.0
 11
3959.170636999999
 21
3784.041384
 31
0.0
  0
INSERT
  5
200
330
1E
100
AcDbEntity
  8
SUNPOU
100
AcDbBlockReference
  2
ARROWANG
 10
3959.170636999999
 20
3684.041384
 30
0.0
 41
30.0
 42
30.0
 43
30.0
 50
270.0
  0
INSERT
  5
201
330
1E
100
AcDbEntity
  8
SUNPOU
100
AcDbBlockReference
  2
ARROWANG
 10
3959.170636999999
 20
3784.041384
 30
0.0
 41
30.0
 42
30.0
 43
30.0
 50
90.0
  0
TEXT
  5
202
330
1E
100
AcDbEntity
  8
SUNPOU
100
AcDbText
 10
3914.170637
 20
3644.041384
 30
0.0
 40
60.0
  1
100
 50
90.0
  7
K
 72
     1
 11
3914.170637
 21
3734.041384
 31
0.0
100
AcDbText
  0
LINE
  5
203
330
1E
100
AcDbEntity
  8
ITTEN
100
AcDbLine
 10
2704.689652999999
 20
2591.269914
 30
0.0
 11
3854.689652999999
 21
2591.269914
 31
0.0
  0
LINE
  5
204
330
1E
100
AcDbEntity
  8
ITTEN
100
AcDbLine
 10
3279.689653
 20
3166.269914
 30
0.0
 11
3279.689653
 21
2016.269913999999
 31
0.0
  0
LINE
  5
205
330
1E
100
AcDbEntity
  8
JISSEN
100
AcDbLine
 10
2855.425585
 20
2441.269914
 30
0.0
 11
2919.689653
 21
2441.269914
 31
0.0
  0
LINE
  5
206
330
1E
100
AcDbEntity
  8
JISSEN
100
AcDbLine
 10
2929.689653
 20
2731.269914
 30
0.0
 11
2929.689653
 21
2451.269914
 31
0.0
  0
LINE
  5
207
330
1E
100
AcDbEntity
  8
JISSEN
100
AcDbLine
 10
2919.689653
 20
2741.269914
 30
0.0
 11
2855.425585
 21
2741.269914
 31
0.0
  0
LINE
  5
208
330
1E
100
AcDbEntity
  8
JISSEN
100
AcDbLine
 10
2848.876469
 20
2461.269914
 30
0.0
 11
2899.689653
 21
2461.269914
 31
0.0
  0
LINE
  5
209
330
1E
100
AcDbEntity
  8
JISSEN
100
AcDbLine
 10
2909.689653
 20
2471.269914
 30
0.0
 11
2909.689653
 21
2711.269914
 31
0.0
  0
LINE
  5
20A
330
1E
100
AcDbEntity
  8
JISSEN
100
AcDbLine
 10
2899.689653
 20
2721.269914
 30
0.0
 11
2848.876469
 21
2721.269914
 31
0.0
  0
ARC
  5
20B
330
1E
100
AcDbEntity
  8
JISSEN
100
AcDbCircle
 10
2919.689653
 20
2451.269914
 30
0.0
 40
10.0
100
AcDbArc
 50
270.0
 51
0.0
  0
ARC
  5
20C
330
1E
100
AcDbEntity
  8
JISSEN
100
AcDbCircle
 10
2899.689653
 20
2471.269914
 30
0.0
 40
10.0
100
AcDbArc
 50
270.0
 51
0.0
  0
ARC
  5
20D
330
1E
100
AcDbEntity
  8
JISSEN
100
AcDbCircle
 10
2899.689653
 20
2711.269914
 30
0.0
 40
10.0
100
AcDbArc
 50
0.0
 51
90.0
  0
ARC
  5
20E
330
1E
100
AcDbEntity
  8
JISSEN
100
AcDbCircle
 10
2919.689653
 20
2731.269914
 30
0.0
 40
10.0
100
AcDbArc
 50
0.0
 51
90.0
  0
TEXT
  5
20F
330
1E
100
AcDbEntity
  8
SUNPOU
100
AcDbText
 10
5770.484179
 20
3944.041384
 30
0.0
 40
60.0
  1
100
 50
90.0
  7
K
 72
     1
 11
5770.484179
 21
4034.041384
 31
0.0
100
AcDbText
  0
INSERT
  5
210
330
1E
100
AcDbEntity
  8
SUNPOU
100
AcDbBlockReference
  2
ARROWANG
 10
5815.484179
 20
4084.041384
 30
0.0
 41
30.0
 42
30.0
 43
30.0
 50
90.0
  0
INSERT
  5
211
330
1E
100
AcDbEntity
  8
SUNPOU
100
AcDbBlockReference
  2
ARROWANG
 10
5815.484179
 20
3984.041384
 30
0.0
 41
30.0
 42
30.0
 43
30.0
 50
270.0
  0
LINE
  5
212
330
1E
100
AcDbEntity
  8
SUNPOU
100
AcDbLine
 10
5815.484179
 20
3984.041384
 30
0.0
 11
5815.484179
 21
4084.041384
 31
0.0
  0
LINE
  5
213
330
1E
100
AcDbEntity
  8
SUNPOU
100
AcDbLine
 10
5537.234254999999
 20
4084.041384
 30
0.0
 11
5845.484179
 21
4084.041384
 31
0.0
  0
LINE
  5
214
330
1E
100
AcDbEntity
  8
SUNPOU
100
AcDbLine
 10
5691.003195
 20
3984.041384
 30
0.0
 11
5845.484179
 21
3984.041384
 31
0.0
  0
CIRCLE
  5
215
330
1E
100
AcDbEntity
  8
JISSEN
100
AcDbCircle
 10
5500.079756
 20
4081.990478
 30
0.0
 40
10.0
  0
TEXT
  5
216
330
1E
100
AcDbEntity
  8
SUNPOU
100
AcDbText
 10
5818.240548
 20
5344.041384
 30
0.0
 40
60.0
  1
100
 50
90.0
  7
K
 72
     1
 11
5818.240548
 21
5434.041384
 31
0.0
100
AcDbText
  0
INSERT
  5
217
330
1E
100
AcDbEntity
  8
SUNPOU
100
AcDbBlockReference
  2
ARROWANG
 10
5856.086049
 20
5484.041384000001
 30
0.0
 41
30.0
 42
30.0
 43
30.0
 50
90.0
  0
INSERT
  5
218
330
1E
100
AcDbEntity
  8
SUNPOU
100
AcDbBlockReference
  2
ARROWANG
 10
5856.086049
 20
5384.041384
 30
0.0
 41
30.0
 42
30.0
 43
30.0
 50
270.0
  0
LINE
  5
219
330
1E
100
AcDbEntity
  8
SUNPOU
100
AcDbLine
 10
5856.086049
 20
5384.041384
 30
0.0
 11
5856.086049
 21
5484.041384000001
 31
0.0
  0
LINE
  5
21A
330
1E
100
AcDbEntity
  8
SUNPOU
100
AcDbLine
 10
5530.079756
 20
5384.041384
 30
0.0
 11
5886.086049000001
 21
5384.041384
 31
0.0
  0
CIRCLE
  5
21B
330
1E
100
AcDbEntity
  8
JISSEN
100
AcDbCircle
 10
5500.079756
 20
5384.041384
 30
0.0
 40
10.0
  0
TEXT
  5
21C
330
1E
100
AcDbEntity
  8
SUNPOU
100
AcDbText
 10
5687.596321
 20
5620.047762
 30
0.0
 40
60.0
  1
75
  7
K
100
AcDbText
  0
LINE
  5
21D
330
1E
100
AcDbEntity
  8
SUNPOU
100
AcDbLine
 10
5661.003195000001
 20
5579.408533
 30
0.0
 11
5793.003195
 21
5579.408533
 31
0.0
  0
INSERT
  5
21E
330
1E
100
AcDbEntity
  8
SUNPOU
100
AcDbBlockReference
  2
ARROWANG
 10
5586.003195
 20
5579.408533
 30
0.0
 41
30.0
 42
30.0
 43
30.0
 50
180.0
  0
INSERT
  5
21F
330
1E
100
AcDbEntity
  8
SUNPOU
100
AcDbBlockReference
  2
ARROWANG
 10
5661.003195000001
 20
5579.408533
 30
0.0
 41
30.0
 42
30.0
 43
30.0
  0
LINE
  5
220
330
1E
100
AcDbEntity
  8
SUNPOU
100
AcDbLine
 10
5661.003195000001
 20
5514.041384
 30
0.0
 11
5661.003195000001
 21
5609.408532999999
 31
0.0
  0
LINE
  5
221
330
1E
100
AcDbEntity
  8
SUNPOU
100
AcDbLine
 10
5586.003195
 20
5579.408533
 30
0.0
 11
5661.003195000001
 21
5579.408533
 31
0.0
  0
TEXT
  5
222
330
1E
100
AcDbEntity
  8
SUNPOU
100
AcDbText
 10
5050.288909285715
 20
5624.408533
 30
0.0
 40
60.0
  1
900
  7
K
 72
     1
 11
5136.003195
 21
5624.408533
 31
0.0
100
AcDbText
  0
INSERT
  5
223
330
1E
100
AcDbEntity
  8
SUNPOU
100
AcDbBlockReference
  2
ARROWANG
 10
5586.003195
 20
5579.408533
 30
0.0
 41
30.0
 42
30.0
 43
30.0
  0
INSERT
  5
224
330
1E
100
AcDbEntity
  8
SUNPOU
100
AcDbBlockReference
  2
ARROWANG
 10
4686.003195
 20
5579.408533
 30
0.0
 41
30.0
 42
30.0
 43
30.0
 50
180.0
  0
LINE
  5
225
330
1E
100
AcDbEntity
  8
SUNPOU
100
AcDbLine
 10
5586.003195
 20
5491.041384
 30
0.0
 11
5586.003195
 21
5609.408532999999
 31
0.0
  0
LINE
  5
226
330
1E
100
AcDbEntity
  8
SUNPOU
100
AcDbLine
 10
4686.003195
 20
5579.408533
 30
0.0
 11
5586.003195
 21
5579.408533
 31
0.0
  0
TEXT
  5
227
330
1E
100
AcDbEntity
  8
SUNPOU
100
AcDbText
 10
4487.860337857143
 20
5624.408533
 30
0.0
 40
60.0
  1
75
  7
K
 72
     1
 11
4545.003195
 21
5624.408533
 31
0.0
100
AcDbText
  0
LINE
  5
228
330
1E
100
AcDbEntity
  8
SUNPOU
100
AcDbLine
 10
4611.003195
 20
5579.408533
 30
0.0
 11
4479.003195
 21
5579.408533
 31
0.0
  0
INSERT
  5
229
330
1E
100
AcDbEntity
  8
SUNPOU
100
AcDbBlockReference
  2
ARROWANG
 10
4611.003195
 20
5579.408533
 30
0.0
 41
30.0
 42
30.0
 43
30.0
 50
180.0
  0
INSERT
  5
22A
330
1E
100
AcDbEntity
  8
SUNPOU
100
AcDbBlockReference
  2
ARROWANG
 10
4686.003195
 20
5579.408533
 30
0.0
 41
30.0
 42
30.0
 43
30.0
  0
LINE
  5
22B
330
1E
100
AcDbEntity
  8
SUNPOU
100
AcDbLine
 10
4611.003195
 20
5579.408533
 30
0.0
 11
4686.003195
 21
5579.408533
 31
0.0
  0
LINE
  5
22C
330
1E
100
AcDbEntity
  8
SUNPOU
100
AcDbLine
 10
4686.003195
 20
5491.041384
 30
0.0
 11
4686.003195
 21
5609.408532999999
 31
0.0
  0
LINE
  5
22D
330
1E
100
AcDbEntity
  8
SUNPOU
100
AcDbLine
 10
4611.003195
 20
5514.041384
 30
0.0
 11
4611.003195
 21
5609.408532999999
 31
0.0
  0
TEXT
  5
22E
330
1E
100
AcDbEntity
  8
SUNPOU
100
AcDbText
 10
5017.431781428571
 20
5757.717451
 30
0.0
 40
60.0
  1
1050
  7
K
 72
     1
 11
5136.00321
 21
5757.717451
 31
0.0
100
AcDbText
  0
INSERT
  5
22F
330
1E
100
AcDbEntity
  8
SUNPOU
100
AcDbBlockReference
  2
ARROWANG
 10
5661.003195000001
 20
5712.717450999999
 30
0.0
 41
30.0
 42
30.0
 43
30.0
  0
INSERT
  5
230
330
1E
100
AcDbEntity
  8
SUNPOU
100
AcDbBlockReference
  2
ARROWANG
 10
4611.003195
 20
5712.717450999999
 30
0.0
 41
30.0
 42
30.0
 43
30.0
 50
180.0
  0
LINE
  5
231
330
1E
100
AcDbEntity
  8
SUNPOU
100
AcDbLine
 10
4611.003195
 20
5712.717450999999
 30
0.0
 11
5661.003195000001
 21
5712.717450999999
 31
0.0
  0
LINE
  5
232
330
1E
100
AcDbEntity
  8
SUNPOU
100
AcDbLine
 10
5661.003195000001
 20
5514.041384
 30
0.0
 11
5661.003195000001
 21
5742.717450999999
 31
0.0
  0
LINE
  5
233
330
1E
100
AcDbEntity
  8
SUNPOU
100
AcDbLine
 10
4611.003195
 20
5514.041384
 30
0.0
 11
4611.003195
 21
5742.717450999999
 31
0.0
  0
TEXT
  5
234
330
1E
100
AcDbEntity
  8
SUNPOU
100
AcDbText
 10
4496.980978999999
 20
3933.709681571428
 30
0.0
 40
60.0
  1
15
 50
90.0
  7
K
 72
     1
 11
4496.980978999999
 21
3995.138253
 31
0.0
100
AcDbText
  0
LINE
  5
235
330
1E
100
AcDbEntity
  8
SUNPOU
100
AcDbLine
 10
4541.980979
 20
3969.041384
 30
0.0
 11
4541.980979999999
 21
3909.041384
 31
0.0
  0
LINE
  5
236
330
1E
100
AcDbEntity
  8
SUNPOU
100
AcDbLine
 10
4541.980979
 20
3984.041384
 30
0.0
 11
4541.980979
 21
4055.138253
 31
0.0
  0
INSERT
  5
237
330
1E
100
AcDbEntity
  8
SUNPOU
100
AcDbBlockReference
  2
ARROWANG
 10
4541.980979
 20
3984.041384
 30
0.0
 41
30.0
 42
30.0
 43
30.0
 50
270.0
  0
INSERT
  5
238
330
1E
100
AcDbEntity
  8
SUNPOU
100
AcDbBlockReference
  2
ARROWANG
 10
4541.980979
 20
3969.041384
 30
0.0
 41
30.0
 42
30.0
 43
30.0
 50
90.0
  0
LINE
  5
239
330
1E
100
AcDbEntity
  8
SUNPOU
100
AcDbLine
 10
4541.980979
 20
3969.041384
 30
0.0
 11
4541.980979
 21
3984.041384
 31
0.0
  0
LINE
  5
23A
330
1E
100
AcDbEntity
  8
SUNPOU
100
AcDbLine
 10
4581.003195
 20
3984.041384
 30
0.0
 11
4511.980978999999
 21
3984.041384
 31
0.0
  0
LINE
  5
23B
330
1E
100
AcDbEntity
  8
SUNPOU
100
AcDbLine
 10
4656.003195
 20
3969.041384
 30
0.0
 11
4511.980978999999
 21
3969.041384
 31
0.0
  0
LINE
  5
23D
330
1E
100
AcDbEntity
  8
JISSEN
100
AcDbLine
 10
5136.003195
 20
3984.041384
 30
0.0
 11
5620.003195
 21
3984.041384
 31
0.0
  0
LINE
  5
23E
330
1E
100
AcDbEntity
  8
JISSEN
100
AcDbLine
 10
5611.003195000001
 20
3969.041384
 30
0.0
 11
5136.003195
 21
3969.041384
 31
0.0
  0
LINE
  5
23F
330
1E
100
AcDbEntity
  8
JISSEN
100
AcDbLine
 10
5620.003195
 20
3984.041384
 30
0.0
 11
5611.003195000001
 21
3969.041384
 31
0.0
  0
LINE
  5
240
330
1E
100
AcDbEntity
  8
JISSEN
100
AcDbLine
 10
5661.003195000001
 20
3984.041384
 30
0.0
 11
5620.003195
 21
3984.041384
 31
0.0
  0
LINE
  5
241
330
1E
100
AcDbEntity
  8
JISSEN
100
AcDbLine
 10
4661.003195
 20
3969.041384
 30
0.0
 11
5136.003195
 21
3969.041384
 31
0.0
  0
LINE
  5
242
330
1E
100
AcDbEntity
  8
JISSEN
100
AcDbLine
 10
4652.003195
 20
3984.041384
 30
0.0
 11
4661.003195
 21
3969.041384
 31
0.0
  0
LINE
  5
243
330
1E
100
AcDbEntity
  8
JISSEN
100
AcDbLine
 10
4611.003195
 20
3984.041384
 30
0.0
 11
4652.003195
 21
3984.041384
 31
0.0
  0
LINE
  5
244
330
1E
100
AcDbEntity
  8
HASEN
100
AcDbLine
 10
5614.003195
 20
5461.041384
 30
0.0
 11
5136.003195
 21
5461.041384
 31
0.0
  0
LINE
  5
245
330
1E
100
AcDbEntity
  8
JISSEN
100
AcDbLine
 10
4658.003195
 20
5461.041384
 30
0.0
 11
5136.003195
 21
5461.041384
 31
0.0
  0
LINE
  5
246
330
1E
100
AcDbEntity
  8
JISSEN
100
AcDbLine
 10
4651.003195
 20
5484.041384000001
 30
0.0
 11
4658.003195
 21
5461.041384
 31
0.0
  0
LINE
  5
247
330
1E
100
AcDbEntity
  8
JISSEN
100
AcDbLine
 10
4686.003195
 20
5461.041384
 30
0.0
 11
4686.003195
 21
3969.041384
 31
0.0
  0
LINE
  5
248
330
1E
100
AcDbEntity
  8
JISSEN
100
AcDbLine
 10
4611.003195
 20
5484.041384000001
 30
0.0
 11
4611.003195
 21
3984.041384
 31
0.0
  0
LINE
  5
249
330
1E
100
AcDbEntity
  8
JISSEN
100
AcDbLine
 10
5661.003195000001
 20
5484.041384000001
 30
0.0
 11
5661.003195000001
 21
3984.041384
 31
0.0
  0
LINE
  5
24A
330
1E
100
AcDbEntity
  8
JISSEN
100
AcDbLine
 10
4611.003195
 20
5484.041384000001
 30
0.0
 11
5661.003195000001
 21
5484.041384000001
 31
0.0
  0
LINE
  5
24B
330
1E
100
AcDbEntity
  8
ITTEN
100
AcDbLine
 10
5136.003195
 20
5534.041384
 30
0.0
 11
5136.003195
 21
3919.041384
 31
0.0
  0
LINE
  5
24C
330
1E
100
AcDbEntity
  8
SUNPOU
100
AcDbLine
 10
4481.980979
 20
3984.041384
 30
0.0
 11
4316.832254999999
 21
3984.041384
 31
0.0
  0
LINE
  5
24D
330
1E
100
AcDbEntity
  8
SUNPOU
100
AcDbLine
 10
4581.003195
 20
5484.041384000001
 30
0.0
 11
4316.832254999999
 21
5484.041384000001
 31
0.0
  0
LINE
  5
24E
330
1E
100
AcDbEntity
  8
SUNPOU
100
AcDbLine
 10
4346.832254999999
 20
3984.041384
 30
0.0
 11
4346.832254999999
 21
5484.041384000001
 31
0.0
  0
INSERT
  5
24F
330
1E
100
AcDbEntity
  8
SUNPOU
100
AcDbBlockReference
  2
ARROWANG
 10
4346.832254999999
 20
3984.041384
 30
0.0
 41
30.0
 42
30.0
 43
30.0
 50
270.0
  0
INSERT
  5
250
330
1E
100
AcDbEntity
  8
SUNPOU
100
AcDbBlockReference
  2
ARROWANG
 10
4346.832254999999
 20
5484.041384000001
 30
0.0
 41
30.0
 42
30.0
 43
30.0
 50
90.0
  0
TEXT
  5
251
330
1E
100
AcDbEntity
  8
SUNPOU
100
AcDbText
 10
4301.832254999999
 20
4615.469955428571
 30
0.0
 40
60.0
  1
1500
 50
90.0
  7
K
 72
     1
 11
4301.832254999999
 21
4734.041384
 31
0.0
100
AcDbText
  0
LINE
  5
252
330
1E
100
AcDbEntity
  8
ITTEN
100
AcDbLine
 10
6996.003195
 20
5534.041384
 30
0.0
 11
6996.003195
 21
4219.041384
 31
0.0
  0
LINE
  5
253
330
1E
100
AcDbEntity
  8
JISSEN
100
AcDbLine
 10
6471.003195
 20
5484.041384000001
 30
0.0
 11
7521.003195
 21
5484.041384000001
 31
0.0
  0
LINE
  5
254
330
1E
100
AcDbEntity
  8
JISSEN
100
AcDbLine
 10
7521.003195
 20
5484.041384000001
 30
0.0
 11
7521.003195
 21
4284.041384
 31
0.0
  0
LINE
  5
255
330
1E
100
AcDbEntity
  8
JISSEN
100
AcDbLine
 10
6471.003195
 20
5484.041384000001
 30
0.0
 11
6471.003195
 21
4284.041384
 31
0.0
  0
LINE
  5
256
330
1E
100
AcDbEntity
  8
JISSEN
100
AcDbLine
 10
6546.003195
 20
5461.041384
 30
0.0
 11
6546.003195
 21
4269.041384
 31
0.0
  0
LINE
  5
257
330
1E
100
AcDbEntity
  8
JISSEN
100
AcDbLine
 10
6511.003195
 20
5484.041384000001
 30
0.0
 11
6518.003195
 21
5461.041384
 31
0.0
  0
LINE
  5
258
330
1E
100
AcDbEntity
  8
JISSEN
100
AcDbLine
 10
6518.003195
 20
5461.041384
 30
0.0
 11
6996.003195
 21
5461.041384
 31
0.0
  0
LINE
  5
259
330
1E
100
AcDbEntity
  8
HASEN
100
AcDbLine
 10
7481.003195000001
 20
5484.041384000001
 30
0.0
 11
7474.003195
 21
5461.041384
 31
0.0
  0
LINE
  5
25A
330
1E
100
AcDbEntity
  8
HASEN
100
AcDbLine
 10
7474.003195
 20
5461.041384
 30
0.0
 11
6996.003195
 21
5461.041384
 31
0.0
  0
LINE
  5
25B
330
1E
100
AcDbEntity
  8
JISSEN
100
AcDbLine
 10
6471.003195
 20
4284.041384
 30
0.0
 11
6512.003195
 21
4284.041384
 31
0.0
  0
LINE
  5
25C
330
1E
100
AcDbEntity
  8
JISSEN
100
AcDbLine
 10
6512.003195
 20
4284.041384
 30
0.0
 11
6521.003195
 21
4269.041384
 31
0.0
  0
LINE
  5
25D
330
1E
100
AcDbEntity
  8
JISSEN
100
AcDbLine
 10
6521.003195
 20
4269.041384
 30
0.0
 11
6996.003195
 21
4269.041384
 31
0.0
  0
LINE
  5
25E
330
1E
100
AcDbEntity
  8
JISSEN
100
AcDbLine
 10
7521.003195
 20
4284.041384
 30
0.0
 11
7480.003195
 21
4284.041384
 31
0.0
  0
LINE
  5
25F
330
1E
100
AcDbEntity
  8
JISSEN
100
AcDbLine
 10
7480.003195
 20
4284.041384
 30
0.0
 11
7471.003195
 21
4269.041384
 31
0.0
  0
LINE
  5
260
330
1E
100
AcDbEntity
  8
JISSEN
100
AcDbLine
 10
7471.003195
 20
4269.041384
 30
0.0
 11
6996.003195
 21
4269.041384
 31
0.0
  0
LINE
  5
261
330
1E
100
AcDbEntity
  8
JISSEN
100
AcDbLine
 10
6996.003195
 20
4284.041384
 30
0.0
 11
7480.003195
 21
4284.041384
 31
0.0
  0
LINE
  5
262
330
1E
100
AcDbEntity
  8
HASEN
100
AcDbLine
 10
7446.003195
 20
5461.041384
 30
0.0
 11
7446.003195
 21
4269.041384
 31
0.0
  0
LINE
  5
263
330
1E
100
AcDbEntity
  8
SUNPOU
100
AcDbLine
 10
6471.003195
 20
5514.041384
 30
0.0
 11
6471.003195
 21
5742.717450999999
 31
0.0
  0
LINE
  5
264
330
1E
100
AcDbEntity
  8
SUNPOU
100
AcDbLine
 10
7521.003195
 20
5514.041384
 30
0.0
 11
7521.003195
 21
5742.717450999999
 31
0.0
  0
LINE
  5
265
330
1E
100
AcDbEntity
  8
SUNPOU
100
AcDbLine
 10
6471.003195
 20
5712.717450999999
 30
0.0
 11
7521.003195
 21
5712.717450999999
 31
0.0
  0
INSERT
  5
266
330
1E
100
AcDbEntity
  8
SUNPOU
100
AcDbBlockReference
  2
ARROWANG
 10
6471.003195
 20
5712.717450999999
 30
0.0
 41
30.0
 42
30.0
 43
30.0
 50
180.0
  0
INSERT
  5
267
330
1E
100
AcDbEntity
  8
SUNPOU
100
AcDbBlockReference
  2
ARROWANG
 10
7521.003195
 20
5712.717450999999
 30
0.0
 41
30.0
 42
30.0
 43
30.0
  0
TEXT
  5
268
330
1E
100
AcDbEntity
  8
SUNPOU
100
AcDbText
 10
6877.431781428571
 20
5757.717451
 30
0.0
 40
60.0
  1
1050
  7
K
 72
     1
 11
6996.003210000001
 21
5757.717451
 31
0.0
100
AcDbText
  0
LINE
  5
269
330
1E
100
AcDbEntity
  8
SUNPOU
100
AcDbLine
 10
6471.003195
 20
5514.041384
 30
0.0
 11
6471.003195
 21
5609.408532999999
 31
0.0
  0
LINE
  5
26A
330
1E
100
AcDbEntity
  8
SUNPOU
100
AcDbLine
 10
6546.003195
 20
5491.041384
 30
0.0
 11
6546.003195
 21
5609.408532999999
 31
0.0
  0
LINE
  5
26B
330
1E
100
AcDbEntity
  8
SUNPOU
100
AcDbLine
 10
6471.003195
 20
5579.408533
 30
0.0
 11
6546.003195
 21
5579.408533
 31
0.0
  0
INSERT
  5
26C
330
1E
100
AcDbEntity
  8
SUNPOU
100
AcDbBlockReference
  2
ARROWANG
 10
6546.003195
 20
5579.408533
 30
0.0
 41
30.0
 42
30.0
 43
30.0
  0
INSERT
  5
26D
330
1E
100
AcDbEntity
  8
SUNPOU
100
AcDbBlockReference
  2
ARROWANG
 10
6471.003195
 20
5579.408533
 30
0.0
 41
30.0
 42
30.0
 43
30.0
 50
180.0
  0
LINE
  5
26E
330
1E
100
AcDbEntity
  8
SUNPOU
100
AcDbLine
 10
5421.003195
 20
5579.408533
 30
0.0
 11
5289.003195
 21
5579.408533
 31
0.0
  0
TEXT
  5
26F
330
1E
100
AcDbEntity
  8
SUNPOU
100
AcDbText
 10
6347.860337857143
 20
5624.408533
 30
0.0
 40
60.0
  1
75
  7
K
 72
     1
 11
6405.003195
 21
5624.408533
 31
0.0
100
AcDbText
  0
LINE
  5
270
330
1E
100
AcDbEntity
  8
SUNPOU
100
AcDbLine
 10
6546.003195
 20
5579.408533
 30
0.0
 11
7446.003195
 21
5579.408533
 31
0.0
  0
LINE
  5
271
330
1E
100
AcDbEntity
  8
SUNPOU
100
AcDbLine
 10
7446.003195
 20
5491.041384
 30
0.0
 11
7446.003195
 21
5609.408532999999
 31
0.0
  0
INSERT
  5
272
330
1E
100
AcDbEntity
  8
SUNPOU
100
AcDbBlockReference
  2
ARROWANG
 10
6546.003195
 20
5579.408533
 30
0.0
 41
30.0
 42
30.0
 43
30.0
 50
180.0
  0
INSERT
  5
273
330
1E
100
AcDbEntity
  8
SUNPOU
100
AcDbBlockReference
  2
ARROWANG
 10
7446.003195
 20
5579.408533
 30
0.0
 41
30.0
 42
30.0
 43
30.0
  0
TEXT
  5
274
330
1E
100
AcDbEntity
  8
SUNPOU
100
AcDbText
 10
6910.288909285715
 20
5624.408533
 30
0.0
 40
60.0
  1
900
  7
K
 72
     1
 11
6996.003195
 21
5624.408533
 31
0.0
100
AcDbText
  0
LINE
  5
275
330
1E
100
AcDbEntity
  8
SUNPOU
100
AcDbLine
 10
7446.003195
 20
5579.408533
 30
0.0
 11
7521.003195
 21
5579.408533
 31
0.0
  0
LINE
  5
276
330
1E
100
AcDbEntity
  8
SUNPOU
100
AcDbLine
 10
7521.003195
 20
5514.041384
 30
0.0
 11
7521.003195
 21
5609.408532999999
 31
0.0
  0
INSERT
  5
277
330
1E
100
AcDbEntity
  8
SUNPOU
100
AcDbBlockReference
  2
ARROWANG
 10
7521.003195
 20
5579.408533
 30
0.0
 41
30.0
 42
30.0
 43
30.0
  0
INSERT
  5
278
330
1E
100
AcDbEntity
  8
SUNPOU
100
AcDbBlockReference
  2
ARROWANG
 10
7446.003195
 20
5579.408533
 30
0.0
 41
30.0
 42
30.0
 43
30.0
 50
180.0
  0
LINE
  5
279
330
1E
100
AcDbEntity
  8
SUNPOU
100
AcDbLine
 10
7521.003195
 20
5579.408533
 30
0.0
 11
7653.003195000001
 21
5579.408533
 31
0.0
  0
TEXT
  5
27A
330
1E
100
AcDbEntity
  8
SUNPOU
100
AcDbText
 10
7542.301048999999
 20
5620.819447
 30
0.0
 40
60.0
  1
75
  7
K
100
AcDbText
  0
CIRCLE
  5
27B
330
1E
100
AcDbEntity
  8
JISSEN
100
AcDbCircle
 10
7367.234254999999
 20
5384.041384
 30
0.0
 40
10.0
  0
LINE
  5
27C
330
1E
100
AcDbEntity
  8
SUNPOU
100
AcDbLine
 10
7397.234254999999
 20
5384.041384
 30
0.0
 11
7753.240548
 21
5384.041384
 31
0.0
  0
LINE
  5
27D
330
1E
100
AcDbEntity
  8
SUNPOU
100
AcDbLine
 10
7551.003194999999
 20
5484.041384000001
 30
0.0
 11
7753.240548
 21
5484.041384000001
 31
0.0
  0
LINE
  5
27E
330
1E
100
AcDbEntity
  8
SUNPOU
100
AcDbLine
 10
7723.240548000001
 20
5384.041384
 30
0.0
 11
7723.240548000001
 21
5484.041384000001
 31
0.0
  0
INSERT
  5
27F
330
1E
100
AcDbEntity
  8
SUNPOU
100
AcDbBlockReference
  2
ARROWANG
 10
7723.240548000001
 20
5384.041384
 30
0.0
 41
30.0
 42
30.0
 43
30.0
 50
270.0
  0
INSERT
  5
280
330
1E
100
AcDbEntity
  8
SUNPOU
100
AcDbBlockReference
  2
ARROWANG
 10
7723.240548000001
 20
5484.041384000001
 30
0.0
 41
30.0
 42
30.0
 43
30.0
 50
90.0
  0
TEXT
  5
281
330
1E
100
AcDbEntity
  8
SUNPOU
100
AcDbText
 10
7678.240548000001
 20
5344.041384
 30
0.0
 40
60.0
  1
100
 50
90.0
  7
K
 72
     1
 11
7678.240548000001
 21
5434.041384
 31
0.0
100
AcDbText
  0
CIRCLE
  5
282
330
1E
100
AcDbEntity
  8
JISSEN
100
AcDbCircle
 10
7367.234254999999
 20
4384.041384
 30
0.0
 40
10.0
  0
LINE
  5
283
330
1E
100
AcDbEntity
  8
SUNPOU
100
AcDbLine
 10
7551.003194999999
 20
4284.041384
 30
0.0
 11
7705.484179000001
 21
4284.041384
 31
0.0
  0
LINE
  5
284
330
1E
100
AcDbEntity
  8
SUNPOU
100
AcDbLine
 10
7397.234254999999
 20
4384.041384
 30
0.0
 11
7705.484179000001
 21
4384.041384
 31
0.0
  0
LINE
  5
285
330
1E
100
AcDbEntity
  8
SUNPOU
100
AcDbLine
 10
7675.484179000001
 20
4284.041384
 30
0.0
 11
7675.484179000001
 21
4384.041384
 31
0.0
  0
INSERT
  5
286
330
1E
100
AcDbEntity
  8
SUNPOU
100
AcDbBlockReference
  2
ARROWANG
 10
7675.484179000001
 20
4284.041384
 30
0.0
 41
30.0
 42
30.0
 43
30.0
 50
270.0
  0
INSERT
  5
287
330
1E
100
AcDbEntity
  8
SUNPOU
100
AcDbBlockReference
  2
ARROWANG
 10
7675.484179000001
 20
4384.041384
 30
0.0
 41
30.0
 42
30.0
 43
30.0
 50
90.0
  0
TEXT
  5
288
330
1E
100
AcDbEntity
  8
SUNPOU
100
AcDbText
 10
7630.484179000001
 20
4244.041384
 30
0.0
 40
60.0
  1
100
 50
90.0
  7
K
 72
     1
 11
7630.484179000001
 21
4334.041384
 31
0.0
100
AcDbText
  0
LINE
  5
289
330
1E
100
AcDbEntity
  8
SUNPOU
100
AcDbLine
 10
5651.753653
 20
5484.48852
 30
0.0
 11
5886.086049000001
 21
5484.48852
 31
0.0
  0
LINE
  5
28A
330
1E
100
AcDbEntity
  8
SUNPOU
100
AcDbLine
 10
6441.003195
 20
4284.041384
 30
0.0
 11
6227.341213
 21
4284.041384
 31
0.0
  0
LINE
  5
28B
330
1E
100
AcDbEntity
  8
SUNPOU
100
AcDbLine
 10
6441.003195
 20
5484.041384000001
 30
0.0
 11
6227.341213
 21
5484.041384000001
 31
0.0
  0
LINE
  5
28C
330
1E
100
AcDbEntity
  8
SUNPOU
100
AcDbLine
 10
6257.341213000001
 20
4284.041384
 30
0.0
 11
6257.341213000001
 21
5484.041384000001
 31
0.0
  0
INSERT
  5
28D
330
1E
100
AcDbEntity
  8
SUNPOU
100
AcDbBlockReference
  2
ARROWANG
 10
6257.341213000001
 20
4284.041384
 30
0.0
 41
30.0
 42
30.0
 43
30.0
 50
270.0
  0
INSERT
  5
28E
330
1E
100
AcDbEntity
  8
SUNPOU
100
AcDbBlockReference
  2
ARROWANG
 10
6257.341213000001
 20
5484.041384000001
 30
0.0
 41
30.0
 42
30.0
 43
30.0
 50
90.0
  0
TEXT
  5
28F
330
1E
100
AcDbEntity
  8
SUNPOU
100
AcDbText
 10
6212.341213000001
 20
4765.469955428572
 30
0.0
 40
60.0
  1
1200
 50
90.0
  7
K
 72
     1
 11
6212.341213000001
 21
4884.041384
 31
0.0
100
AcDbText
  0
LINE
  5
290
330
1E
100
AcDbEntity
  8
HASEN
100
AcDbLine
 10
5621.003195
 20
5484.041384000001
 30
0.0
 11
5614.003195
 21
5461.041384
 31
0.0
  0
TEXT
  5
291
330
1E
100
AcDbEntity
  8
SUNPOU
100
AcDbText
 10
9490.484179
 20
4544.041384
 30
0.0
 40
60.0
  1
100
 50
90.0
  7
K
 72
     1
 11
9490.484179
 21
4634.041384
 31
0.0
100
AcDbText
  0
INSERT
  5
292
330
1E
100
AcDbEntity
  8
SUNPOU
100
AcDbBlockReference
  2
ARROWANG
 10
9535.484179
 20
4684.041384
 30
0.0
 41
30.0
 42
30.0
 43
30.0
 50
90.0
  0
INSERT
  5
293
330
1E
100
AcDbEntity
  8
SUNPOU
100
AcDbBlockReference
  2
ARROWANG
 10
9535.484179
 20
4584.041384
 30
0.0
 41
30.0
 42
30.0
 43
30.0
 50
270.0
  0
LINE
  5
294
330
1E
100
AcDbEntity
  8
SUNPOU
100
AcDbLine
 10
9535.484179
 20
4584.041384
 30
0.0
 11
9535.484179
 21
4684.041384
 31
0.0
  0
LINE
  5
295
330
1E
100
AcDbEntity
  8
SUNPOU
100
AcDbLine
 10
9257.234255
 20
4684.041384
 30
0.0
 11
9565.484179
 21
4684.041384
 31
0.0
  0
LINE
  5
296
330
1E
100
AcDbEntity
  8
SUNPOU
100
AcDbLine
 10
9411.003195000001
 20
4584.041384
 30
0.0
 11
9565.484179
 21
4584.041384
 31
0.0
  0
CIRCLE
  5
297
330
1E
100
AcDbEntity
  8
JISSEN
100
AcDbCircle
 10
9227.234254999999
 20
4684.041384
 30
0.0
 40
10.0
  0
TEXT
  5
298
330
1E
100
AcDbEntity
  8
SUNPOU
100
AcDbText
 10
9538.240548
 20
5344.041384
 30
0.0
 40
60.0
  1
100
 50
90.0
  7
K
 72
     1
 11
9538.240548
 21
5434.041384
 31
0.0
100
AcDbText
  0
INSERT
  5
299
330
1E
100
AcDbEntity
  8
SUNPOU
100
AcDbBlockReference
  2
ARROWANG
 10
9583.240548
 20
5484.041384000001
 30
0.0
 41
30.0
 42
30.0
 43
30.0
 50
90.0
  0
INSERT
  5
29A
330
1E
100
AcDbEntity
  8
SUNPOU
100
AcDbBlockReference
  2
ARROWANG
 10
9583.240548
 20
5384.041384
 30
0.0
 41
30.0
 42
30.0
 43
30.0
 50
270.0
  0
LINE
  5
29B
330
1E
100
AcDbEntity
  8
SUNPOU
100
AcDbLine
 10
9583.240548
 20
5384.041384
 30
0.0
 11
9583.240548
 21
5484.041384000001
 31
0.0
  0
LINE
  5
29C
330
1E
100
AcDbEntity
  8
SUNPOU
100
AcDbLine
 10
9411.003195000001
 20
5484.041384000001
 30
0.0
 11
9613.240548
 21
5484.041384000001
 31
0.0
  0
LINE
  5
29D
330
1E
100
AcDbEntity
  8
SUNPOU
100
AcDbLine
 10
9257.234255
 20
5384.041384
 30
0.0
 11
9613.240548
 21
5384.041384
 31
0.0
  0
CIRCLE
  5
29E
330
1E
100
AcDbEntity
  8
JISSEN
100
AcDbCircle
 10
9227.234254999999
 20
5384.041384
 30
0.0
 40
10.0
  0
TEXT
  5
29F
330
1E
100
AcDbEntity
  8
SUNPOU
100
AcDbText
 10
9402.301049
 20
5620.819447
 30
0.0
 40
60.0
  1
75
  7
K
100
AcDbText
  0
LINE
  5
2A0
330
1E
100
AcDbEntity
  8
SUNPOU
100
AcDbLine
 10
9381.003195000001
 20
5579.408533
 30
0.0
 11
9513.003195000001
 21
5579.408533
 31
0.0
  0
INSERT
  5
2A1
330
1E
100
AcDbEntity
  8
SUNPOU
100
AcDbBlockReference
  2
ARROWANG
 10
9306.003195
 20
5579.408533
 30
0.0
 41
30.0
 42
30.0
 43
30.0
 50
180.0
  0
INSERT
  5
2A2
330
1E
100
AcDbEntity
  8
SUNPOU
100
AcDbBlockReference
  2
ARROWANG
 10
9381.003195000001
 20
5579.408533
 30
0.0
 41
30.0
 42
30.0
 43
30.0
  0
LINE
  5
2A3
330
1E
100
AcDbEntity
  8
SUNPOU
100
AcDbLine
 10
9381.003195000001
 20
5514.041384
 30
0.0
 11
9381.003195000001
 21
5609.408532999999
 31
0.0
  0
LINE
  5
2A4
330
1E
100
AcDbEntity
  8
SUNPOU
100
AcDbLine
 10
9306.003195
 20
5579.408533
 30
0.0
 11
9381.003195000001
 21
5579.408533
 31
0.0
  0
TEXT
  5
2A5
330
1E
100
AcDbEntity
  8
SUNPOU
100
AcDbText
 10
8770.288909285715
 20
5624.408533
 30
0.0
 40
60.0
  1
900
  7
K
 72
     1
 11
8856.003195000001
 21
5624.408533
 31
0.0
100
AcDbText
  0
INSERT
  5
2A6
330
1E
100
AcDbEntity
  8
SUNPOU
100
AcDbBlockReference
  2
ARROWANG
 10
9306.003195
 20
5579.408533
 30
0.0
 41
30.0
 42
30.0
 43
30.0
  0
INSERT
  5
2A7
330
1E
100
AcDbEntity
  8
SUNPOU
100
AcDbBlockReference
  2
ARROWANG
 10
8406.003195000002
 20
5579.408533
 30
0.0
 41
30.0
 42
30.0
 43
30.0
 50
180.0
  0
LINE
  5
2A8
330
1E
100
AcDbEntity
  8
SUNPOU
100
AcDbLine
 10
9306.003195
 20
5491.041384
 30
0.0
 11
9306.003195
 21
5609.408532999999
 31
0.0
  0
LINE
  5
2A9
330
1E
100
AcDbEntity
  8
SUNPOU
100
AcDbLine
 10
8406.003195000002
 20
5579.408533
 30
0.0
 11
9306.003195
 21
5579.408533
 31
0.0
  0
TEXT
  5
2AA
330
1E
100
AcDbEntity
  8
SUNPOU
100
AcDbText
 10
8207.860337857145
 20
5624.408533
 30
0.0
 40
60.0
  1
75
  7
K
 72
     1
 11
8265.003195000002
 21
5624.408533
 31
0.0
100
AcDbText
  0
INSERT
  5
2AB
330
1E
100
AcDbEntity
  8
SUNPOU
100
AcDbBlockReference
  2
ARROWANG
 10
8331.003195
 20
5579.408533
 30
0.0
 41
30.0
 42
30.0
 43
30.0
 50
180.0
  0
INSERT
  5
2AC
330
1E
100
AcDbEntity
  8
SUNPOU
100
AcDbBlockReference
  2
ARROWANG
 10
8406.003195000002
 20
5579.408533
 30
0.0
 41
30.0
 42
30.0
 43
30.0
  0
LINE
  5
2AD
330
1E
100
AcDbEntity
  8
SUNPOU
100
AcDbLine
 10
8331.003195
 20
5579.408533
 30
0.0
 11
8406.003195000002
 21
5579.408533
 31
0.0
  0
LINE
  5
2AE
330
1E
100
AcDbEntity
  8
SUNPOU
100
AcDbLine
 10
8406.003195000002
 20
5491.041384
 30
0.0
 11
8406.003195000002
 21
5609.408532999999
 31
0.0
  0
LINE
  5
2AF
330
1E
100
AcDbEntity
  8
SUNPOU
100
AcDbLine
 10
8331.003195
 20
5514.041384
 30
0.0
 11
8331.003195
 21
5609.408532999999
 31
0.0
  0
TEXT
  5
2B0
330
1E
100
AcDbEntity
  8
SUNPOU
100
AcDbText
 10
8737.43178142857
 20
5757.717451
 30
0.0
 40
60.0
  1
1050
  7
K
 72
     1
 11
8856.003209999999
 21
5757.717451
 31
0.0
100
AcDbText
  0
INSERT
  5
2B1
330
1E
100
AcDbEntity
  8
SUNPOU
100
AcDbBlockReference
  2
ARROWANG
 10
9381.003195000001
 20
5712.717450999999
 30
0.0
 41
30.0
 42
30.0
 43
30.0
  0
INSERT
  5
2B2
330
1E
100
AcDbEntity
  8
SUNPOU
100
AcDbBlockReference
  2
ARROWANG
 10
8331.003195
 20
5712.717450999999
 30
0.0
 41
30.0
 42
30.0
 43
30.0
 50
180.0
  0
LINE
  5
2B3
330
1E
100
AcDbEntity
  8
SUNPOU
100
AcDbLine
 10
8331.003195
 20
5712.717450999999
 30
0.0
 11
9381.003195000001
 21
5712.717450999999
 31
0.0
  0
LINE
  5
2B4
330
1E
100
AcDbEntity
  8
SUNPOU
100
AcDbLine
 10
9381.003195000001
 20
5514.041384
 30
0.0
 11
9381.003195000001
 21
5742.717450999999
 31
0.0
  0
LINE
  5
2B5
330
1E
100
AcDbEntity
  8
SUNPOU
100
AcDbLine
 10
8331.003195
 20
5514.041384
 30
0.0
 11
8331.003195
 21
5742.717450999999
 31
0.0
  0
LINE
  5
2B6
330
1E
100
AcDbEntity
  8
HASEN
100
AcDbLine
 10
9306.003195
 20
5461.041384
 30
0.0
 11
9306.003195
 21
4569.041384000001
 31
0.0
  0
LINE
  5
2B7
330
1E
100
AcDbEntity
  8
JISSEN
100
AcDbLine
 10
8856.003195000001
 20
4584.041384
 30
0.0
 11
9340.003195000001
 21
4584.041384
 31
0.0
  0
LINE
  5
2B8
330
1E
100
AcDbEntity
  8
JISSEN
100
AcDbLine
 10
9331.003195
 20
4569.041384000001
 30
0.0
 11
8856.003195000001
 21
4569.041384000001
 31
0.0
  0
LINE
  5
2B9
330
1E
100
AcDbEntity
  8
JISSEN
100
AcDbLine
 10
9340.003195000001
 20
4584.041384
 30
0.0
 11
9331.003195
 21
4569.041384000001
 31
0.0
  0
LINE
  5
2BA
330
1E
100
AcDbEntity
  8
JISSEN
100
AcDbLine
 10
9381.003195000001
 20
4584.041384
 30
0.0
 11
9340.003195000001
 21
4584.041384
 31
0.0
  0
LINE
  5
2BB
330
1E
100
AcDbEntity
  8
JISSEN
100
AcDbLine
 10
8381.003195000001
 20
4569.041384000001
 30
0.0
 11
8856.003195000001
 21
4569.041384000001
 31
0.0
  0
LINE
  5
2BC
330
1E
100
AcDbEntity
  8
JISSEN
100
AcDbLine
 10
8372.003195000001
 20
4584.041384
 30
0.0
 11
8381.003195000001
 21
4569.041384000001
 31
0.0
  0
LINE
  5
2BD
330
1E
100
AcDbEntity
  8
JISSEN
100
AcDbLine
 10
8331.003195
 20
4584.041384
 30
0.0
 11
8372.003195000001
 21
4584.041384
 31
0.0
  0
LINE
  5
2BE
330
1E
100
AcDbEntity
  8
HASEN
100
AcDbLine
 10
9334.003195000001
 20
5461.041384
 30
0.0
 11
8856.003195000001
 21
5461.041384
 31
0.0
  0
LINE
  5
2BF
330
1E
100
AcDbEntity
  8
HASEN
100
AcDbLine
 10
9341.003195000002
 20
5484.041384000001
 30
0.0
 11
9334.003195000001
 21
5461.041384
 31
0.0
  0
LINE
  5
2C0
330
1E
100
AcDbEntity
  8
JISSEN
100
AcDbLine
 10
8378.003195000001
 20
5461.041384
 30
0.0
 11
8856.003195000001
 21
5461.041384
 31
0.0
  0
LINE
  5
2C1
330
1E
100
AcDbEntity
  8
JISSEN
100
AcDbLine
 10
8371.003195000001
 20
5484.041384000001
 30
0.0
 11
8378.003195000001
 21
5461.041384
 31
0.0
  0
LINE
  5
2C2
330
1E
100
AcDbEntity
  8
JISSEN
100
AcDbLine
 10
8406.003195000002
 20
5461.041384
 30
0.0
 11
8406.003195000002
 21
4569.041384000001
 31
0.0
  0
LINE
  5
2C3
330
1E
100
AcDbEntity
  8
JISSEN
100
AcDbLine
 10
8331.003195
 20
5484.041384000001
 30
0.0
 11
8331.003195
 21
4584.041384
 31
0.0
  0
LINE
  5
2C4
330
1E
100
AcDbEntity
  8
JISSEN
100
AcDbLine
 10
9381.003195000001
 20
5484.041384000001
 30
0.0
 11
9381.003195000001
 21
4584.041384
 31
0.0
  0
LINE
  5
2C5
330
1E
100
AcDbEntity
  8
JISSEN
100
AcDbLine
 10
8331.003195
 20
5484.041384000001
 30
0.0
 11
9381.003195000001
 21
5484.041384000001
 31
0.0
  0
LINE
  5
2C6
330
1E
100
AcDbEntity
  8
ITTEN
100
AcDbLine
 10
8856.003195000001
 20
5534.041384
 30
0.0
 11
8856.003195000001
 21
4519.041384
 31
0.0
  0
LINE
  5
2C7
330
1E
100
AcDbEntity
  8
SUNPOU
100
AcDbLine
 10
8301.003195000001
 20
4584.041384
 30
0.0
 11
8066.380372000001
 21
4584.041384
 31
0.0
  0
LINE
  5
2C8
330
1E
100
AcDbEntity
  8
SUNPOU
100
AcDbLine
 10
8301.003195000001
 20
5484.041384000001
 30
0.0
 11
8066.380372000001
 21
5484.041384000001
 31
0.0
  0
LINE
  5
2C9
330
1E
100
AcDbEntity
  8
SUNPOU
100
AcDbLine
 10
8096.380372
 20
4584.041384
 30
0.0
 11
8096.380372
 21
5484.041384000001
 31
0.0
  0
INSERT
  5
2CA
330
1E
100
AcDbEntity
  8
SUNPOU
100
AcDbBlockReference
  2
ARROWANG
 10
8096.380372
 20
4584.041384
 30
0.0
 41
30.0
 42
30.0
 43
30.0
 50
270.0
  0
INSERT
  5
2CB
330
1E
100
AcDbEntity
  8
SUNPOU
100
AcDbBlockReference
  2
ARROWANG
 10
8096.380372
 20
5484.041384000001
 30
0.0
 41
30.0
 42
30.0
 43
30.0
 50
90.0
  0
TEXT
  5
2CC
330
1E
100
AcDbEntity
  8
SUNPOU
100
AcDbText
 10
8051.380372
 20
4948.327098285715
 30
0.0
 40
60.0
  1
900
 50
90.0
  7
K
 72
     1
 11
8051.380372
 21
5034.041384
 31
0.0
100
AcDbText
  0
LINE
  5
2CD
330
1E
100
AcDbEntity
  8
ITTEN
100
AcDbLine
 10
6996.003195
 20
2806.269913999999
 30
0.0
 11
6996.003195
 21
2091.269914
 31
0.0
  0
LINE
  5
2CE
330
1E
100
AcDbEntity
  8
JISSEN
100
AcDbLine
 10
6471.003195
 20
2756.269914
 30
0.0
 11
7521.003195
 21
2756.269914
 31
0.0
  0
LINE
  5
2CF
330
1E
100
AcDbEntity
  8
JISSEN
100
AcDbLine
 10
7521.003195
 20
2756.269914
 30
0.0
 11
7521.003195
 21
2156.269914
 31
0.0
  0
LINE
  5
2D0
330
1E
100
AcDbEntity
  8
JISSEN
100
AcDbLine
 10
6471.003195
 20
2756.269914
 30
0.0
 11
6471.003195
 21
2156.269914
 31
0.0
  0
LINE
  5
2D1
330
1E
100
AcDbEntity
  8
JISSEN
100
AcDbLine
 10
6546.003195
 20
2733.269914
 30
0.0
 11
6546.003195
 21
2141.269913999999
 31
0.0
  0
LINE
  5
2D2
330
1E
100
AcDbEntity
  8
JISSEN
100
AcDbLine
 10
6511.003195
 20
2756.269914
 30
0.0
 11
6518.003195
 21
2733.269914
 31
0.0
  0
LINE
  5
2D3
330
1E
100
AcDbEntity
  8
JISSEN
100
AcDbLine
 10
6518.003195
 20
2733.269914
 30
0.0
 11
6996.003195
 21
2733.269914
 31
0.0
  0
LINE
  5
2D4
330
1E
100
AcDbEntity
  8
HASEN
100
AcDbLine
 10
7481.003195000001
 20
2756.269914
 30
0.0
 11
7474.003195
 21
2733.269914
 31
0.0
  0
LINE
  5
2D5
330
1E
100
AcDbEntity
  8
HASEN
100
AcDbLine
 10
7474.003195
 20
2733.269914
 30
0.0
 11
6996.003195
 21
2733.269914
 31
0.0
  0
LINE
  5
2D6
330
1E
100
AcDbEntity
  8
JISSEN
100
AcDbLine
 10
6471.003195
 20
2156.269914
 30
0.0
 11
6512.003195
 21
2156.269914
 31
0.0
  0
LINE
  5
2D7
330
1E
100
AcDbEntity
  8
JISSEN
100
AcDbLine
 10
6512.003195
 20
2156.269914
 30
0.0
 11
6521.003195
 21
2141.269913999999
 31
0.0
  0
LINE
  5
2D8
330
1E
100
AcDbEntity
  8
JISSEN
100
AcDbLine
 10
6521.003195
 20
2141.269913999999
 30
0.0
 11
6996.003195
 21
2141.269913999999
 31
0.0
  0
LINE
  5
2D9
330
1E
100
AcDbEntity
  8
JISSEN
100
AcDbLine
 10
7521.003195
 20
2156.269914
 30
0.0
 11
7480.003195
 21
2156.269914
 31
0.0
  0
LINE
  5
2DA
330
1E
100
AcDbEntity
  8
JISSEN
100
AcDbLine
 10
7480.003195
 20
2156.269914
 30
0.0
 11
7471.003195
 21
2141.269913999999
 31
0.0
  0
LINE
  5
2DB
330
1E
100
AcDbEntity
  8
JISSEN
100
AcDbLine
 10
7471.003195
 20
2141.269913999999
 30
0.0
 11
6996.003195
 21
2141.269913999999
 31
0.0
  0
LINE
  5
2DC
330
1E
100
AcDbEntity
  8
JISSEN
100
AcDbLine
 10
6996.003195
 20
2156.269914
 30
0.0
 11
7480.003195
 21
2156.269914
 31
0.0
  0
LINE
  5
2DD
330
1E
100
AcDbEntity
  8
HASEN
100
AcDbLine
 10
7446.003195
 20
2733.269914
 30
0.0
 11
7446.003195
 21
2141.269913999999
 31
0.0
  0
LINE
  5
2DE
330
1E
100
AcDbEntity
  8
SUNPOU
100
AcDbLine
 10
6471.003195
 20
2786.269914
 30
0.0
 11
6471.003195
 21
3014.945981
 31
0.0
  0
LINE
  5
2DF
330
1E
100
AcDbEntity
  8
SUNPOU
100
AcDbLine
 10
7521.003195
 20
2786.269914
 30
0.0
 11
7521.003195
 21
3014.945981
 31
0.0
  0
LINE
  5
2E0
330
1E
100
AcDbEntity
  8
SUNPOU
100
AcDbLine
 10
6471.003195
 20
2984.945981
 30
0.0
 11
7521.003195
 21
2984.945981
 31
0.0
  0
INSERT
  5
2E1
330
1E
100
AcDbEntity
  8
SUNPOU
100
AcDbBlockReference
  2
ARROWANG
 10
6471.003195
 20
2984.945981
 30
0.0
 41
30.0
 42
30.0
 43
30.0
 50
180.0
  0
INSERT
  5
2E2
330
1E
100
AcDbEntity
  8
SUNPOU
100
AcDbBlockReference
  2
ARROWANG
 10
7521.003195
 20
2984.945981
 30
0.0
 41
30.0
 42
30.0
 43
30.0
  0
TEXT
  5
2E3
330
1E
100
AcDbEntity
  8
SUNPOU
100
AcDbText
 10
6877.431781428571
 20
3029.945981
 30
0.0
 40
60.0
  1
1050
  7
K
 72
     1
 11
6996.003210000001
 21
3029.945981
 31
0.0
100
AcDbText
  0
LINE
  5
2E4
330
1E
100
AcDbEntity
  8
SUNPOU
100
AcDbLine
 10
6471.003195
 20
2786.269914
 30
0.0
 11
6471.003195
 21
2881.637062999999
 31
0.0
  0
LINE
  5
2E5
330
1E
100
AcDbEntity
  8
SUNPOU
100
AcDbLine
 10
6546.003195
 20
2763.269914
 30
0.0
 11
6546.003195
 21
2881.637062999999
 31
0.0
  0
LINE
  5
2E6
330
1E
100
AcDbEntity
  8
SUNPOU
100
AcDbLine
 10
6471.003195
 20
2851.637063
 30
0.0
 11
6546.003195
 21
2851.637063
 31
0.0
  0
INSERT
  5
2E7
330
1E
100
AcDbEntity
  8
SUNPOU
100
AcDbBlockReference
  2
ARROWANG
 10
6546.003195
 20
2851.637063
 30
0.0
 41
30.0
 42
30.0
 43
30.0
  0
INSERT
  5
2E8
330
1E
100
AcDbEntity
  8
SUNPOU
100
AcDbBlockReference
  2
ARROWANG
 10
6471.003195
 20
2851.637063
 30
0.0
 41
30.0
 42
30.0
 43
30.0
 50
180.0
  0
TEXT
  5
2E9
330
1E
100
AcDbEntity
  8
SUNPOU
100
AcDbText
 10
6347.860337857143
 20
2896.637063
 30
0.0
 40
60.0
  1
75
  7
K
 72
     1
 11
6405.003195
 21
2896.637063
 31
0.0
100
AcDbText
  0
LINE
  5
2EA
330
1E
100
AcDbEntity
  8
SUNPOU
100
AcDbLine
 10
6546.003195
 20
2851.637063
 30
0.0
 11
7446.003195
 21
2851.637063
 31
0.0
  0
LINE
  5
2EB
330
1E
100
AcDbEntity
  8
SUNPOU
100
AcDbLine
 10
7446.003195
 20
2763.269914
 30
0.0
 11
7446.003195
 21
2881.637062999999
 31
0.0
  0
INSERT
  5
2EC
330
1E
100
AcDbEntity
  8
SUNPOU
100
AcDbBlockReference
  2
ARROWANG
 10
6546.003195
 20
2851.637063
 30
0.0
 41
30.0
 42
30.0
 43
30.0
 50
180.0
  0
INSERT
  5
2ED
330
1E
100
AcDbEntity
  8
SUNPOU
100
AcDbBlockReference
  2
ARROWANG
 10
7446.003195
 20
2851.637063
 30
0.0
 41
30.0
 42
30.0
 43
30.0
  0
TEXT
  5
2EE
330
1E
100
AcDbEntity
  8
SUNPOU
100
AcDbText
 10
6910.288909285715
 20
2896.637063
 30
0.0
 40
60.0
  1
900
  7
K
 72
     1
 11
6996.003195
 21
2896.637063
 31
0.0
100
AcDbText
  0
LINE
  5
2EF
330
1E
100
AcDbEntity
  8
SUNPOU
100
AcDbLine
 10
7446.003195
 20
2851.637063
 30
0.0
 11
7521.003195
 21
2851.637063
 31
0.0
  0
LINE
  5
2F0
330
1E
100
AcDbEntity
  8
SUNPOU
100
AcDbLine
 10
7521.003195
 20
2786.269914
 30
0.0
 11
7521.003195
 21
2881.637062999999
 31
0.0
  0
INSERT
  5
2F1
330
1E
100
AcDbEntity
  8
SUNPOU
100
AcDbBlockReference
  2
ARROWANG
 10
7521.003195
 20
2851.637063
 30
0.0
 41
30.0
 42
30.0
 43
30.0
  0
INSERT
  5
2F2
330
1E
100
AcDbEntity
  8
SUNPOU
100
AcDbBlockReference
  2
ARROWANG
 10
7446.003195
 20
2851.637063
 30
0.0
 41
30.0
 42
30.0
 43
30.0
 50
180.0
  0
LINE
  5
2F3
330
1E
100
AcDbEntity
  8
SUNPOU
100
AcDbLine
 10
7521.003195
 20
2851.637063
 30
0.0
 11
7653.003195000001
 21
2851.637063
 31
0.0
  0
TEXT
  5
2F4
330
1E
100
AcDbEntity
  8
SUNPOU
100
AcDbText
 10
7542.301048999999
 20
2893.047977
 30
0.0
 40
60.0
  1
75
  7
K
100
AcDbText
  0
CIRCLE
  5
2F5
330
1E
100
AcDbEntity
  8
JISSEN
100
AcDbCircle
 10
7367.234254999999
 20
2656.269914
 30
0.0
 40
10.0
  0
LINE
  5
2F6
330
1E
100
AcDbEntity
  8
SUNPOU
100
AcDbLine
 10
7397.234254999999
 20
2656.269914
 30
0.0
 11
7753.240548
 21
2656.269914
 31
0.0
  0
LINE
  5
2F7
330
1E
100
AcDbEntity
  8
SUNPOU
100
AcDbLine
 10
7551.003194999999
 20
2756.269914
 30
0.0
 11
7753.240548
 21
2756.269914
 31
0.0
  0
LINE
  5
2F8
330
1E
100
AcDbEntity
  8
SUNPOU
100
AcDbLine
 10
7723.240548000001
 20
2656.269914
 30
0.0
 11
7723.240548000001
 21
2756.269914
 31
0.0
  0
INSERT
  5
2F9
330
1E
100
AcDbEntity
  8
SUNPOU
100
AcDbBlockReference
  2
ARROWANG
 10
7723.240548000001
 20
2656.269914
 30
0.0
 41
30.0
 42
30.0
 43
30.0
 50
270.0
  0
INSERT
  5
2FA
330
1E
100
AcDbEntity
  8
SUNPOU
100
AcDbBlockReference
  2
ARROWANG
 10
7723.240548000001
 20
2756.269914
 30
0.0
 41
30.0
 42
30.0
 43
30.0
 50
90.0
  0
TEXT
  5
2FB
330
1E
100
AcDbEntity
  8
SUNPOU
100
AcDbText
 10
7678.240548000001
 20
2616.269914
 30
0.0
 40
60.0
  1
100
 50
90.0
  7
K
 72
     1
 11
7678.240548000001
 21
2706.269913999999
 31
0.0
100
AcDbText
  0
CIRCLE
  5
2FC
330
1E
100
AcDbEntity
  8
JISSEN
100
AcDbCircle
 10
7367.234254999999
 20
2256.269914
 30
0.0
 40
10.0
  0
LINE
  5
2FD
330
1E
100
AcDbEntity
  8
SUNPOU
100
AcDbLine
 10
7551.003194999999
 20
2156.269914
 30
0.0
 11
7705.484179000001
 21
2156.269914
 31
0.0
  0
LINE
  5
2FE
330
1E
100
AcDbEntity
  8
SUNPOU
100
AcDbLine
 10
7397.234254999999
 20
2256.269914
 30
0.0
 11
7705.484179000001
 21
2256.269914
 31
0.0
  0
LINE
  5
2FF
330
1E
100
AcDbEntity
  8
SUNPOU
100
AcDbLine
 10
7675.484179000001
 20
2156.269914
 30
0.0
 11
7675.484179000001
 21
2256.269914
 31
0.0
  0
INSERT
  5
300
330
1E
100
AcDbEntity
  8
SUNPOU
100
AcDbBlockReference
  2
ARROWANG
 10
7675.484179000001
 20
2156.269914
 30
0.0
 41
30.0
 42
30.0
 43
30.0
 50
270.0
  0
INSERT
  5
301
330
1E
100
AcDbEntity
  8
SUNPOU
100
AcDbBlockReference
  2
ARROWANG
 10
7675.484179000001
 20
2256.269914
 30
0.0
 41
30.0
 42
30.0
 43
30.0
 50
90.0
  0
TEXT
  5
302
330
1E
100
AcDbEntity
  8
SUNPOU
100
AcDbText
 10
7630.484179000001
 20
2116.269914
 30
0.0
 40
60.0
  1
100
 50
90.0
  7
K
 72
     1
 11
7630.484179000001
 21
2206.269913999999
 31
0.0
100
AcDbText
  0
LINE
  5
303
330
1E
100
AcDbEntity
  8
SUNPOU
100
AcDbLine
 10
6441.003195
 20
2156.269914
 30
0.0
 11
6244.959509
 21
2156.269914
 31
0.0
  0
LINE
  5
304
330
1E
100
AcDbEntity
  8
SUNPOU
100
AcDbLine
 10
6441.003195
 20
2756.269914
 30
0.0
 11
6244.959509
 21
2756.269914
 31
0.0
  0
LINE
  5
305
330
1E
100
AcDbEntity
  8
SUNPOU
100
AcDbLine
 10
6274.959509000001
 20
2156.269914
 30
0.0
 11
6274.959509000001
 21
2756.269914
 31
0.0
  0
INSERT
  5
306
330
1E
100
AcDbEntity
  8
SUNPOU
100
AcDbBlockReference
  2
ARROWANG
 10
6274.959509000001
 20
2156.269914
 30
0.0
 41
30.0
 42
30.0
 43
30.0
 50
270.0
  0
INSERT
  5
307
330
1E
100
AcDbEntity
  8
SUNPOU
100
AcDbBlockReference
  2
ARROWANG
 10
6274.959509000001
 20
2756.269914
 30
0.0
 41
30.0
 42
30.0
 43
30.0
 50
90.0
  0
TEXT
  5
308
330
1E
100
AcDbEntity
  8
SUNPOU
100
AcDbText
 10
6229.959509
 20
2369.127056857142
 30
0.0
 40
60.0
  1
600
 50
90.0
  7
K
 72
     1
 11
6229.959509
 21
2456.269913999999
 31
0.0
100
AcDbText
  0
LWPOLYLINE
  5
309
330
1E
100
AcDbEntity
  8
WAKU
100
AcDbPolyline
 90
        4
 70
     1
 43
0.0
 10
0.0
 20
0.0
 10
11850.0
 20
0.0
 10
11850.0
 20
8190.0
 10
0.0
 20
8190.0
  0
TEXT
  5
30F
330
1E
100
AcDbEntity
  8
TEXT
100
AcDbText
 10
11193.17150699999
 20
684.2025269999999
 30
0.0
 40
120.0
  1
1/30
  7
K
100
AcDbText
  0
LINE
  5
312
330
1E
100
AcDbEntity
  8
HASEN
100
AcDbLine
 10
5586.003195
 20
5461.041384
 30
0.0
 11
5586.003195
 21
3969.041384
 31
0.0
  0
ENDSEC
  0
SECTION
  2
OBJECTS
  0
DICTIONARY
  5
C
330
0
100
AcDbDictionary
  3
ACAD_GROUP
350
D
  3
ACAD_LAYOUT
350
19
  3
ACAD_MLINESTYLE
350
16
  3
ACAD_PLOTSETTINGS
350
18
  3
ACAD_PLOTSTYLENAME
350
E
  3
ACDBHEADERROUNDTRIPXREC
350
314
  0
DICTIONARY
  5
336
330
1E
100
AcDbDictionary
280
     1
  3
ACAD_LAYOUTSELFREF
360
337
  0
DICTIONARY
  5
334
330
1A
100
AcDbDictionary
280
     1
  3
ACAD_LAYOUTSELFREF
360
335
  0
DICTIONARY
  5
D
102
{ACAD_REACTORS
330
C
102
}
330
C
100
AcDbDictionary
  0
DICTIONARY
  5
19
102
{ACAD_REACTORS
330
C
102
}
330
C
100
AcDbDictionary
  0
DICTIONARY
  5
16
102
{ACAD_REACTORS
330
C
102
}
330
C
100
AcDbDictionary
  3
STANDARD
350
17
  0
DICTIONARY
  5
18
102
{ACAD_REACTORS
330
C
102
}
330
C
100
AcDbDictionary
  0
ACDBDICTIONARYWDFLT
  5
E
102
{ACAD_REACTORS
330
C
102
}
330
C
100
AcDbDictionary
281
     1
  3
Normal
350
F
100
AcDbDictionaryWithDefault
340
F
  0
DICTIONARY
  5
314
102
{ACAD_REACTORS
330
C
102
}
330
C
100
AcDbDictionary
  3
CEPSNTYPE
350
31E
  3
FINGERPRINTGUID
350
31F
  3
HYPERLINKBASE
350
317
  3
INSUNITS
350
31D
  3
LAYOUTDICT
350
319
  3
LWETCUNION
350
31C
  3
PLOTSETDICT
350
31A
  3
PLOTSTYLNAMDICT
350
31B
  3
PSVPSCALE
350
321
  3
PUCSBASE
350
324
  3
PUCSORGBACK
350
32A
  3
PUCSORGBOTTOM
350
326
  3
PUCSORGFRONT
350
329
  3
PUCSORGLEFT
350
327
  3
PUCSORGRIGHT
350
328
  3
PUCSORGTOP
350
325
  3
PUCSORTHOREF
350
322
  3
PUCSORTHOVIEW
350
323
  3
STYLESHEET
350
318
  3
TSTACKALIGN
350
315
  3
TSTACKSIZE
350
316
  3
UCSBASE
350
32D
  3
UCSORGBACK
350
333
  3
UCSORGBOTTOM
350
32F
  3
UCSORGFRONT
350
332
  3
UCSORGLEFT
350
330
  3
UCSORGRIGHT
350
331
  3
UCSORGTOP
350
32E
  3
UCSORTHOREF
350
32B
  3
UCSORTHOVIEW
350
32C
  3
VERSIONGUID
350
320
  0
XRECORD
  5
337
102
{ACAD_REACTORS
330
336
102
}
330
336
100
AcDbXrecord
340
1E
  0
XRECORD
  5
335
102
{ACAD_REACTORS
330
334
102
}
330
334
100
AcDbXrecord
340
1A
  0
MLINESTYLE
  5
17
102
{ACAD_REACTORS
330
16
102
}
330
16
100
AcDbMlineStyle
  2
STANDARD
 70
     0
  3

 62
   256
 51
90.0
 52
90.0
 71
     2
 49
0.5
 62
   256
  6
BYLAYER
 49
-0.5
 62
   256
  6
BYLAYER
  0
ACDBPLACEHOLDER
  5
F
102
{ACAD_REACTORS
330
E
102
}
330
E
100
AcDbPlaceHolder
280
     0
  0
XRECORD
  5
31E
102
{ACAD_REACTORS
330
314
102
}
330
314
100
AcDbXrecord
 90
        0
  0
XRECORD
  5
31F
102
{ACAD_REACTORS
330
314
102
}
330
314
100
AcDbXrecord
  1
{223D68A7-EA1D-4EA4-9307-0B99CB2A6B8E}
  0
XRECORD
  5
317
102
{ACAD_REACTORS
330
314
102
}
330
314
100
AcDbXrecord
  1

  0
XRECORD
  5
31D
102
{ACAD_REACTORS
330
314
102
}
330
314
100
AcDbXrecord
 90
        0
  0
XRECORD
  5
319
102
{ACAD_REACTORS
330
314
102
}
330
314
100
AcDbXrecord
340
19
  0
XRECORD
  5
31C
102
{ACAD_REACTORS
330
314
102
}
330
314
100
AcDbXrecord
 90
    10781
  0
XRECORD
  5
31A
102
{ACAD_REACTORS
330
314
102
}
330
314
100
AcDbXrecord
340
18
  0
XRECORD
  5
31B
102
{ACAD_REACTORS
330
314
102
}
330
314
100
AcDbXrecord
340
E
  0
XRECORD
  5
321
102
{ACAD_REACTORS
330
314
102
}
330
314
100
AcDbXrecord
 40
0.0
  0
XRECORD
  5
324
102
{ACAD_REACTORS
330
314
102
}
330
314
100
AcDbXrecord
340
0
  0
XRECORD
  5
32A
102
{ACAD_REACTORS
330
314
102
}
330
314
100
AcDbXrecord
 10
0.0
 20
0.0
 30
0.0
  0
XRECORD
  5
326
102
{ACAD_REACTORS
330
314
102
}
330
314
100
AcDbXrecord
 10
0.0
 20
0.0
 30
0.0
  0
XRECORD
  5
329
102
{ACAD_REACTORS
330
314
102
}
330
314
100
AcDbXrecord
 10
0.0
 20
0.0
 30
0.0
  0
XRECORD
  5
327
102
{ACAD_REACTORS
330
314
102
}
330
314
100
AcDbXrecord
 10
0.0
 20
0.0
 30
0.0
  0
XRECORD
  5
328
102
{ACAD_REACTORS
330
314
102
}
330
314
100
AcDbXrecord
 10
0.0
 20
0.0
 30
0.0
  0
XRECORD
  5
325
102
{ACAD_REACTORS
330
314
102
}
330
314
100
AcDbXrecord
 10
0.0
 20
0.0
 30
0.0
  0
XRECORD
  5
322
102
{ACAD_REACTORS
330
314
102
}
330
314
100
AcDbXrecord
340
0
  0
XRECORD
  5
323
102
{ACAD_REACTORS
330
314
102
}
330
314
100
AcDbXrecord
 70
     0
  0
XRECORD
  5
318
102
{ACAD_REACTORS
330
314
102
}
330
314
100
AcDbXrecord
  1

  0
XRECORD
  5
315
102
{ACAD_REACTORS
330
314
102
}
330
314
100
AcDbXrecord
 90
        1
  0
XRECORD
  5
316
102
{ACAD_REACTORS
330
314
102
}
330
314
100
AcDbXrecord
 90
       70
  0
XRECORD
  5
32D
102
{ACAD_REACTORS
330
314
102
}
330
314
100
AcDbXrecord
340
0
  0
XRECORD
  5
333
102
{ACAD_REACTORS
330
314
102
}
330
314
100
AcDbXrecord
 10
0.0
 20
0.0
 30
0.0
  0
XRECORD
  5
32F
102
{ACAD_REACTORS
330
314
102
}
330
314
100
AcDbXrecord
 10
0.0
 20
0.0
 30
0.0
  0
XRECORD
  5
332
102
{ACAD_REACTORS
330
314
102
}
330
314
100
AcDbXrecord
 10
0.0
 20
0.0
 30
0.0
  0
XRECORD
  5
330
102
{ACAD_REACTORS
330
314
102
}
330
314
100
AcDbXrecord
 10
0.0
 20
0.0
 30
0.0
  0
XRECORD
  5
331
102
{ACAD_REACTORS
330
314
102
}
330
314
100
AcDbXrecord
 10
0.0
 20
0.0
 30
0.0
  0
XRECORD
  5
32E
102
{ACAD_REACTORS
330
314
102
}
330
314
100
AcDbXrecord
 10
0.0
 20
0.0
 30
0.0
  0
XRECORD
  5
32B
102
{ACAD_REACTORS
330
314
102
}
330
314
100
AcDbXrecord
340
0
  0
XRECORD
  5
32C
102
{ACAD_REACTORS
330
314
102
}
330
314
100
AcDbXrecord
 70
     0
  0
XRECORD
  5
320
102
{ACAD_REACTORS
330
314
102
}
330
314
100
AcDbXrecord
  1
{8F983C11-8274-4420-8258-CA8F4FA765A8}
  0
ENDSEC
  0
EOF
