  0
SECTION
  2
HEADER
  9
$ACADVER
  1
AC1009
  9
$INSBASE
 10
0.0
 20
0.0
 30
0.0
  9
$EXTMIN
 10
0.0
 20
0.0
 30
0.0
  9
$EXTMAX
 10
11850.0
 20
8190.0
 30
0.0
  9
$LIMMIN
 10
0.0
 20
0.0
  9
$LIMMAX
 10
11850.0
 20
8190.0
  9
$ORTHOMODE
 70
     0
  9
$REGENMODE
 70
     1
  9
$FILLMODE
 70
     1
  9
$QTEXTMODE
 70
     0
  9
$MIRRTEXT
 70
     0
  9
$DRAGMODE
 70
     2
  9
$LTSCALE
 40
150.0
  9
$OSMODE
 70
    33
  9
$ATTMODE
 70
     1
  9
$TEXTSIZE
 40
60.0
  9
$TRACEWID
 40
0.05
  9
$TEXTSTYLE
  7
K
  9
$CLAYER
  8
SUNPOU
  9
$CELTYPE
  6
BYLAYER
  9
$CECOLOR
 62
   256
  9
$DIMSCALE
 40
30.0
  9
$DIMASZ
 40
1.5
  9
$DIMEXO
 40
1.0
  9
$DIMDLI
 40
6.0
  9
$DIMRND
 40
0.0
  9
$DIMDLE
 40
0.0
  9
$DIMEXE
 40
1.0
  9
$DIMTP
 40
495.0
  9
$DIMTM
 40
0.0
  9
$DIMTXT
 40
3.0
  9
$DIMCEN
 40
0.0
  9
$DIMTSZ
 40
0.0
  9
$DIMTOL
 70
     0
  9
$DIMLIM
 70
     0
  9
$DIMTIH
 70
     0
  9
$DIMTOH
 70
     0
  9
$DIMSE1
 70
     0
  9
$DIMSE2
 70
     0
  9
$DIMTAD
 70
     1
  9
$DIMZIN
 70
     8
  9
$DIMBLK
  1

  9
$DIMASO
 70
     0
  9
$DIMSHO
 70
     0
  9
$DIMPOST
  1

  9
$DIMAPOST
  1

  9
$DIMALT
 70
     0
  9
$DIMALTD
 70
     2
  9
$DIMALTF
 40
25.4
  9
$DIMLFAC
 40
1.0
  9
$DIMTOFL
 70
     1
  9
$DIMTVP
 40
0.0
  9
$DIMTIX
 70
     1
  9
$DIMSOXD
 70
     0
  9
$DIMSAH
 70
     0
  9
$DIMBLK1
  1

  9
$DIMBLK2
  1

  9
$DIMSTYLE
  2
*UNNAMED
  9
$DIMCLRD
 70
     0
  9
$DIMCLRE
 70
     0
  9
$DIMCLRT
 70
     0
  9
$DIMTFAC
 40
1.0
  9
$DIMGAP
 40
0.09
  9
$LUNITS
 70
     2
  9
$LUPREC
 70
     2
  9
$AXISMODE
 70
     1
  9
$AXISUNIT
 10
100.0
 20
100.0
  9
$SKETCHINC
 40
0.1
  9
$FILLETRAD
 40
0.0
  9
$AUNITS
 70
     0
  9
$AUPREC
 70
     2
  9
$MENU
  1
d:stdgx5
  9
$ELEVATION
 40
0.0
  9
$PELEVATION
 40
0.0
  9
$THICKNESS
 40
0.0
  9
$LIMCHECK
 70
     0
  9
$BLIPMODE
 70
     1
  9
$CHAMFERA
 40
0.0
  9
$CHAMFERB
 40
0.0
  9
$SKPOLY
 70
     0
  9
$TDCREATE
 40
2450248.459004629
  9
$TDUPDATE
 40
2450255.680891203
  9
$TDINDWG
 40
0.0185995370
  9
$TDUSRTIMER
 40
0.0185995370
  9
$USRTIMER
 70
     1
  9
$ANGBASE
 50
0.0
  9
$ANGDIR
 70
     0
  9
$PDMODE
 70
     0
  9
$PDSIZE
 40
0.0
  9
$PLINEWID
 40
0.0
  9
$COORDS
 70
     2
  9
$SPLFRAME
 70
     0
  9
$SPLINETYPE
 70
     6
  9
$SPLINESEGS
 70
     8
  9
$ATTDIA
 70
     0
  9
$ATTREQ
 70
     1
  9
$HANDLING
 70
     0
  9
$HANDSEED
  5
0
  9
$SURFTAB1
 70
     6
  9
$SURFTAB2
 70
     6
  9
$SURFTYPE
 70
     6
  9
$SURFU
 70
     6
  9
$SURFV
 70
     6
  9
$UCSNAME
  2

  9
$UCSORG
 10
0.0
 20
0.0
 30
0.0
  9
$UCSXDIR
 10
1.0
 20
0.0
 30
0.0
  9
$UCSYDIR
 10
0.0
 20
1.0
 30
0.0
  9
$PUCSNAME
  2

  9
$PUCSORG
 10
0.0
 20
0.0
 30
0.0
  9
$PUCSXDIR
 10
1.0
 20
0.0
 30
0.0
  9
$PUCSYDIR
 10
0.0
 20
1.0
 30
0.0
  9
$USERI1
 70
     3
  9
$USERI2
 70
    33
  9
$USERI3
 70
     0
  9
$USERI4
 70
     1
  9
$USERI5
 70
     0
  9
$USERR1
 40
30.0
  9
$USERR2
 40
3.0
  9
$USERR3
 40
3.0
  9
$USERR4
 40
1.5
  9
$USERR5
 40
10.0
  9
$WORLDVIEW
 70
     1
  9
$SHADEDGE
 70
     3
  9
$SHADEDIF
 70
    70
  9
$TILEMODE
 70
     1
  9
$MAXACTVP
 70
    16
  9
$PINSBASE
 10
0.0
 20
0.0
 30
0.0
  9
$PLIMCHECK
 70
     0
  9
$PEXTMIN
 10
1.000000E+20
 20
1.000000E+20
 30
1.000000E+20
  9
$PEXTMAX
 10
-1.000000E+20
 20
-1.000000E+20
 30
-1.000000E+20
  9
$PLIMMIN
 10
0.0
 20
0.0
  9
$PLIMMAX
 10
12.0
 20
9.0
  9
$UNITMODE
 70
     0
  9
$VISRETAIN
 70
     0
  0
ENDSEC
  0
SECTION
  2
TABLES
  0
TABLE
  2
VPORT
 70
    10
  0
VPORT
  2
*ACTIVE
 70
     0
 10
0.0
 20
0.0
 11
1.0
 21
1.0
 12
6691.515737
 22
4095.0
 13
0.0
 23
0.0
 14
1.0
 24
1.0
 15
10.0
 25
10.0
 16
0.0
 26
0.0
 36
1.0
 17
0.0
 27
0.0
 37
0.0
 40
8190.0
 41
1.63407
 42
50.0
 43
0.0
 44
0.0
 50
0.0
 51
0.0
 71
     0
 72
   500
 73
     1
 74
     0
 75
     0
 76
     0
 77
     0
 78
     0
  0
VPORT
  2
2
 70
     0
 10
0.5
 20
0.0
 11
1.0
 21
1.0
 12
0.924031
 22
1.052651
 13
0.0
 23
0.0
 14
1.0
 24
1.0
 15
10.0
 25
10.0
 16
0.0
 26
0.0
 36
1.0
 17
0.0
 27
0.0
 37
0.0
 40
2.105302
 41
0.877814
 42
50.0
 43
0.0
 44
0.0
 50
0.0
 51
0.0
 71
     0
 72
   500
 73
     1
 74
     1
 75
     0
 76
     0
 77
     0
 78
     0
  0
VPORT
  2
2
 70
     0
 10
0.0
 20
0.0
 11
0.5
 21
1.0
 12
0.924031
 22
1.052651
 13
0.0
 23
0.0
 14
1.0
 24
1.0
 15
10.0
 25
10.0
 16
0.0
 26
0.0
 36
1.0
 17
0.0
 27
0.0
 37
0.0
 40
2.105302
 41
0.877814
 42
50.0
 43
0.0
 44
0.0
 50
0.0
 51
0.0
 71
     0
 72
   500
 73
     1
 74
     1
 75
     0
 76
     0
 77
     0
 78
     0
  0
VPORT
  2
3
 70
     0
 10
0.0
 20
0.5
 11
1.0
 21
1.0
 12
2.83217
 22
1.052651
 13
0.0
 23
0.0
 14
1.0
 24
1.0
 15
10.0
 25
10.0
 16
0.0
 26
0.0
 36
1.0
 17
0.0
 27
0.0
 37
0.0
 40
2.105302
 41
3.571429
 42
50.0
 43
0.0
 44
0.0
 50
0.0
 51
0.0
 71
     0
 72
   500
 73
     1
 74
     1
 75
     0
 76
     0
 77
     0
 78
     0
  0
VPORT
  2
3
 70
     0
 10
0.0
 20
0.0
 11
1.0
 21
0.5
 12
2.856742
 22
1.052651
 13
0.0
 23
0.0
 14
1.0
 24
1.0
 15
10.0
 25
10.0
 16
0.0
 26
0.0
 36
1.0
 17
0.0
 27
0.0
 37
0.0
 40
2.105302
 41
3.594771
 42
50.0
 43
0.0
 44
0.0
 50
0.0
 51
0.0
 71
     0
 72
   500
 73
     1
 74
     1
 75
     0
 76
     0
 77
     0
 78
     0
  0
VPORT
  2
4
 70
     0
 10
0.5
 20
0.0
 11
1.0
 21
0.5
 12
2.886858
 22
1.052651
 13
0.0
 23
0.0
 14
1.0
 24
1.0
 15
10.0
 25
10.0
 16
0.0
 26
0.0
 36
1.0
 17
0.0
 27
0.0
 37
0.0
 40
4.275207
 41
1.784314
 42
50.0
 43
0.0
 44
0.0
 50
0.0
 51
0.0
 71
     0
 72
   500
 73
     1
 74
     1
 75
     0
 76
     0
 77
     0
 78
     0
  0
VPORT
  2
4
 70
     0
 10
0.5
 20
0.5
 11
1.0
 21
1.0
 12
2.86209
 22
1.052651
 13
0.0
 23
0.0
 14
1.0
 24
1.0
 15
10.0
 25
10.0
 16
0.0
 26
0.0
 36
1.0
 17
0.0
 27
0.0
 37
0.0
 40
4.275207
 41
1.772727
 42
50.0
 43
0.0
 44
0.0
 50
0.0
 51
0.0
 71
     0
 72
   500
 73
     1
 74
     1
 75
     0
 76
     0
 77
     0
 78
     0
  0
VPORT
  2
4
 70
     0
 10
0.0
 20
0.5
 11
0.5
 21
1.0
 12
2.86209
 22
1.052651
 13
0.0
 23
0.0
 14
1.0
 24
1.0
 15
10.0
 25
10.0
 16
0.0
 26
0.0
 36
1.0
 17
0.0
 27
0.0
 37
0.0
 40
4.275207
 41
1.772727
 42
50.0
 43
0.0
 44
0.0
 50
0.0
 51
0.0
 71
     0
 72
   500
 73
     1
 74
     1
 75
     0
 76
     0
 77
     0
 78
     0
  0
VPORT
  2
4
 70
     0
 10
0.0
 20
0.0
 11
0.5
 21
0.5
 12
2.886858
 22
1.052651
 13
0.0
 23
0.0
 14
1.0
 24
1.0
 15
10.0
 25
10.0
 16
0.0
 26
0.0
 36
1.0
 17
0.0
 27
0.0
 37
0.0
 40
4.275207
 41
1.784314
 42
50.0
 43
0.0
 44
0.0
 50
0.0
 51
0.0
 71
     0
 72
   500
 73
     1
 74
     1
 75
     0
 76
     0
 77
     0
 78
     0
  0
ENDTAB
  0
TABLE
  2
LTYPE
 70
     5
  0
LTYPE
  2
CONTINUOUS
 70
    64
  3
実線
 72
    65
 73
     0
 40
0.0
  0
LTYPE
  2
DASHED
 70
    64
  3
__ __ __ __ __ __ __ __ __ __ __ __ __ __ __
 72
    65
 73
     2
 40
0.75
 49
0.5
 49
-0.25
  0
LTYPE
  2
CENTER
 70
    64
  3
____ _ ____ _ ____ _ ____ _ ____ _ ____ _ ____
 72
    65
 73
     4
 40
2.0
 49
1.25
 49
-0.25
 49
0.25
 49
-0.25
  0
LTYPE
  2
PHANTOM
 70
    64
  3
_____ _ _ _____ _ _ _____ _ _ _____ _ _ ____
 72
    65
 73
     6
 40
2.5
 49
1.25
 49
-0.25
 49
0.25
 49
-0.25
 49
0.25
 49
-0.25
  0
LTYPE
  2
HIDDEN
 70
    64
  3
_ _ _ _ _ _ _ _ _ _ _ _ _ _ _ _ _ _ _ _ _ _ _
 72
    65
 73
     2
 40
0.375
 49
0.25
 49
-0.125
  0
ENDTAB
  0
TABLE
  2
LAYER
 70
    14
  0
LAYER
  2
0
 70
     0
 62
     7
  6
CONTINUOUS
  0
LAYER
  2
HASEN
 70
    64
 62
     2
  6
DASHED
  0
LAYER
  2
ITTEN
 70
    64
 62
     1
  6
CENTER
  0
LAYER
  2
SUNPOU
 70
    64
 62
     3
  6
CONTINUOUS
  0
LAYER
  2
TEXT
 70
    64
 62
     3
  6
CONTINUOUS
  0
LAYER
  2
JISSEN
 70
    64
 62
     7
  6
CONTINUOUS
  0
LAYER
  2
WAKU
 70
    64
 62
    -5
  6
CONTINUOUS
  0
ENDTAB
  0
TABLE
  2
STYLE
 70
     2
  0
STYLE
  2
STANDARD
 70
     0
 40
0.0
 41
1.0
 50
0.0
 71
     0
 42
150.0
  3
ROMANS
  4
EXTFONT
  0
STYLE
  2
K
 70
    64
 40
0.0
 41
1.0
 50
0.0
 71
     0
 42
60.0
  3
ROMANS
  4
EXTFONT
  0
ENDTAB
  0
TABLE
  2
VIEW
 70
     0
  0
ENDTAB
  0
TABLE
  2
UCS
 70
     0
  0
ENDTAB
  0
TABLE
  2
APPID
 70
     1
  0
APPID
  2
ACAD
 70
    64
  0
ENDTAB
  0
TABLE
  2
DIMSTYLE
 70
     0
  0
ENDTAB
  0
ENDSEC
  0
SECTION
  2
BLOCKS
  0
BLOCK
  8
SUNPOU
  2
ARROWANG
 70
    64
 10
0.0
 20
0.0
 30
0.0
  3
ARROWANG
  0
LINE
  8
SUNPOU
 10
0.0
 20
0.0
 30
0.0
 11
-1.5
 21
0.401924
 31
0.0
  0
LINE
  8
SUNPOU
 10
0.0
 20
0.0
 30
0.0
 11
-1.5
 21
-0.401924
 31
0.0
  0
ENDBLK
  8
SUNPOU
  0
ENDSEC
  0
SECTION
  2
ENTITIES
  0
TEXT
  8
TEXT
 10
7614.612453
 20
4972.16627
 30
0.0
 40
100.0
  1
Ｍ１ＴＰ
  7
K
  0
TEXT
  8
TEXT
 10
7550.343845
 20
5264.174953
 30
0.0
 40
120.0
  1
床版斜壁
  7
K
  0
TEXT
  8
TEXT
 10
9421.451995
 20
5257.950707
 30
0.0
 40
120.0
  1
斜　　壁
  7
K
  0
TEXT
  8
TEXT
 10
9439.423549
 20
5040.139169
 30
0.0
 40
100.0
  1
Ｍ１Ｔ３９
  7
K
  0
TEXT
  8
TEXT
 10
5636.497729
 20
4838.14686
 30
0.0
 40
100.0
  1
Ｍ１Ｔ３０
  7
K
  0
TEXT
  8
TEXT
 10
3723.177157
 20
4847.397912
 30
0.0
 40
100.0
  1
Ｍ１Ｔ４５
  7
K
  0
TEXT
  8
TEXT
 10
1891.126197
 20
4866.903498
 30
0.0
 40
100.0
  1
Ｍ１Ｔ６０
  7
K
  0
TEXT
  8
TEXT
 10
3777.782757
 20
5234.509883
 30
0.0
 40
120.0
  1
斜　　壁
  7
K
  0
CIRCLE
  8
JISSEN
 10
10186.630894
 20
3069.358176
 30
0.0
 40
10.0
  0
CIRCLE
  8
JISSEN
 10
10186.630894
 20
2539.358176
 30
0.0
 40
10.0
  0
CIRCLE
  8
JISSEN
 10
9727.63743
 20
2274.358176
 30
0.0
 40
10.0
  0
CIRCLE
  8
JISSEN
 10
9268.643966
 20
2539.358176
 30
0.0
 40
10.0
  0
CIRCLE
  8
JISSEN
 10
9268.643966
 20
3069.358176
 30
0.0
 40
10.0
  0
CIRCLE
  8
JISSEN
 10
9727.63743
 20
3334.358176
 30
0.0
 40
10.0
  0
LINE
  8
JISSEN
 10
9303.373362
 20
2654.358176
 30
0.0
 11
9367.63743
 21
2654.358176
 31
0.0
  0
LINE
  8
JISSEN
 10
9377.63743
 20
2944.358176
 30
0.0
 11
9377.63743
 21
2664.358176
 31
0.0
  0
LINE
  8
JISSEN
 10
9367.63743
 20
2954.358176
 30
0.0
 11
9303.373362
 21
2954.358176
 31
0.0
  0
LINE
  8
JISSEN
 10
9296.824246
 20
2674.358176
 30
0.0
 11
9347.63743
 21
2674.358176
 31
0.0
  0
LINE
  8
JISSEN
 10
9357.63743
 20
2684.358176
 30
0.0
 11
9357.63743
 21
2924.358176
 31
0.0
  0
LINE
  8
JISSEN
 10
9347.63743
 20
2934.358176
 30
0.0
 11
9296.824246
 21
2934.358176
 31
0.0
  0
ARC
  8
JISSEN
 10
9367.63743
 20
2664.358176
 30
0.0
 40
10.0
 50
270.0
 51
0.0
  0
ARC
  8
JISSEN
 10
9347.63743
 20
2684.358176
 30
0.0
 40
10.0
 50
270.0
 51
0.0
  0
ARC
  8
JISSEN
 10
9347.63743
 20
2924.358176
 30
0.0
 40
10.0
 50
0.0
 51
90.0
  0
ARC
  8
JISSEN
 10
9367.63743
 20
2944.358176
 30
0.0
 40
10.0
 50
0.0
 51
90.0
  0
TEXT
  8
JISSEN
 10
2947.070726
 20
7436.928523
 30
0.0
 40
300.0
  1
組立マンホール構造図（内径９００ｍｍ）
  7
K
  0
TEXT
  8
SUNPOU
 10
9495.801106
 20
4115.596045
 30
0.0
 40
60.0
  1
150
 50
90.0
  7
K
 72
     1
 11
9495.801106
 21
4205.596045
 31
0.0
  0
INSERT
  8
SUNPOU
  2
ARROWANG
 10
9540.801106
 20
4280.596045
 30
0.0
 41
30.0
 42
30.0
 50
90.0
 43
30.0
  0
INSERT
  8
SUNPOU
  2
ARROWANG
 10
9540.801106
 20
4130.596045
 30
0.0
 41
30.0
 42
30.0
 50
270.0
 43
30.0
  0
LINE
  8
SUNPOU
 10
9540.801106
 20
4130.596045
 30
0.0
 11
9540.801106
 21
4280.596045
 31
0.0
  0
LINE
  8
SUNPOU
 10
9407.63743
 20
4280.596045
 30
0.0
 11
9570.801106
 21
4280.596045
 31
0.0
  0
LINE
  8
SUNPOU
 10
9407.63743
 20
4130.596045
 30
0.0
 11
9570.801106
 21
4130.596045
 31
0.0
  0
ARC
  8
JISSEN
 10
9367.63743
 20
4280.596045
 30
0.0
 40
10.0
 50
270.0
 51
90.0
  0
LINE
  8
JISSEN
 10
9367.63743
 20
4270.596045
 30
0.0
 11
9277.63743
 21
4270.596045
 31
0.0
  0
LINE
  8
JISSEN
 10
9367.63743
 20
4290.596045
 30
0.0
 11
9277.63743
 21
4290.596045
 31
0.0
  0
LINE
  8
ITTEN
 10
9242.63743
 20
4280.596045
 30
0.0
 11
9427.63743
 21
4280.596045
 31
0.0
  0
TEXT
  8
SUNPOU
 10
10179.220219
 20
3731.00805
 30
0.0
 40
60.0
  1
120
  7
K
 72
     1
 11
10269.220219
 21
3731.00805
 31
0.0
  0
INSERT
  8
SUNPOU
  2
ARROWANG
 10
10297.63743
 20
3696.671601
 30
0.0
 41
30.0
 42
30.0
 43
30.0
  0
INSERT
  8
SUNPOU
  2
ARROWANG
 10
10177.63743
 20
3696.671601
 30
0.0
 41
30.0
 42
30.0
 50
180.0
 43
30.0
  0
LINE
  8
SUNPOU
 10
10297.63743
 20
4155.596045
 30
0.0
 11
10297.63743
 21
3666.671601
 31
0.0
  0
LINE
  8
SUNPOU
 10
10177.63743
 20
3696.671601
 30
0.0
 11
10297.63743
 21
3696.671601
 31
0.0
  0
TEXT
  8
SUNPOU
 10
9641.923145
 20
3741.671601
 30
0.0
 40
60.0
  1
900
  7
K
 72
     1
 11
9727.63743
 21
3741.671601
 31
0.0
  0
INSERT
  8
SUNPOU
  2
ARROWANG
 10
10177.63743
 20
3696.671601
 30
0.0
 41
30.0
 42
30.0
 43
30.0
  0
INSERT
  8
SUNPOU
  2
ARROWANG
 10
9277.63743
 20
3696.671601
 30
0.0
 41
30.0
 42
30.0
 50
180.0
 43
30.0
  0
LINE
  8
SUNPOU
 10
10177.63743
 20
4100.596045
 30
0.0
 11
10177.63743
 21
3666.671601
 31
0.0
  0
LINE
  8
SUNPOU
 10
9277.63743
 20
3696.671601
 30
0.0
 11
10177.63743
 21
3696.671601
 31
0.0
  0
TEXT
  8
SUNPOU
 10
9159.220233
 20
3731.00805
 30
0.0
 40
60.0
  1
120
  7
K
 72
     1
 11
9249.220233
 21
3731.00805
 31
0.0
  0
INSERT
  8
SUNPOU
  2
ARROWANG
 10
9277.63743
 20
3696.671601
 30
0.0
 41
30.0
 42
30.0
 43
30.0
  0
INSERT
  8
SUNPOU
  2
ARROWANG
 10
9157.63743
 20
3696.671601
 30
0.0
 41
30.0
 42
30.0
 50
180.0
 43
30.0
  0
LINE
  8
SUNPOU
 10
9157.63743
 20
3696.671601
 30
0.0
 11
9277.63743
 21
3696.671601
 31
0.0
  0
LINE
  8
SUNPOU
 10
9277.63743
 20
4100.596045
 30
0.0
 11
9277.63743
 21
3666.671601
 31
0.0
  0
LINE
  8
SUNPOU
 10
9157.63743
 20
4155.596045
 30
0.0
 11
9157.63743
 21
3666.671601
 31
0.0
  0
TEXT
  8
SUNPOU
 10
9641.923159
 20
3886.962485
 30
0.0
 40
60.0
  1
968
  7
K
 72
     1
 11
9727.637445
 21
3886.962485
 31
0.0
  0
INSERT
  8
SUNPOU
  2
ARROWANG
 10
10212.63743
 20
3841.962485
 30
0.0
 41
30.0
 42
30.0
 43
30.0
  0
INSERT
  8
SUNPOU
  2
ARROWANG
 10
9242.63743
 20
3841.962485
 30
0.0
 41
30.0
 42
30.0
 50
180.0
 43
30.0
  0
LINE
  8
SUNPOU
 10
9242.63743
 20
3841.962485
 30
0.0
 11
10212.63743
 21
3841.962485
 31
0.0
  0
LINE
  8
SUNPOU
 10
10212.63743
 20
4115.596045
 30
0.0
 11
10212.63743
 21
3811.962485
 31
0.0
  0
LINE
  8
SUNPOU
 10
9242.63743
 20
4115.596045
 30
0.0
 11
9242.63743
 21
3811.962485
 31
0.0
  0
TEXT
  8
SUNPOU
 10
9650.642341
 20
4011.148425
 30
0.0
 40
60.0
  1
950
  7
K
 72
     1
 11
9736.356627
 21
4011.148425
 31
0.0
  0
INSERT
  8
SUNPOU
  2
ARROWANG
 10
9249.63743
 20
3966.148425
 30
0.0
 41
30.0
 42
30.0
 50
180.0
 43
30.0
  0
INSERT
  8
SUNPOU
  2
ARROWANG
 10
10205.63743
 20
3966.148425
 30
0.0
 41
30.0
 42
30.0
 43
30.0
  0
LINE
  8
SUNPOU
 10
9249.63743
 20
3966.148425
 30
0.0
 11
10205.63743
 21
3966.148425
 31
0.0
  0
LINE
  8
SUNPOU
 10
10205.63743
 20
4100.596045
 30
0.0
 11
10205.63743
 21
3936.148425
 31
0.0
  0
LINE
  8
SUNPOU
 10
9249.63743
 20
4100.596045
 30
0.0
 11
9249.63743
 21
3936.148425
 31
0.0
  0
TEXT
  8
SUNPOU
 10
10147.63743
 20
4833.130492
 30
0.0
 40
60.0
  1
120
  7
K
 72
     1
 11
10237.63743
 21
4833.130492
 31
0.0
  0
INSERT
  8
SUNPOU
  2
ARROWANG
 10
10297.63743
 20
4788.130492
 30
0.0
 41
30.0
 42
30.0
 43
30.0
  0
INSERT
  8
SUNPOU
  2
ARROWANG
 10
10177.63743
 20
4788.130492
 30
0.0
 41
30.0
 42
30.0
 50
180.0
 43
30.0
  0
LINE
  8
SUNPOU
 10
10297.63743
 20
4475.596045
 30
0.0
 11
10297.63743
 21
4818.130492
 31
0.0
  0
LINE
  8
SUNPOU
 10
10177.63743
 20
4788.130492
 30
0.0
 11
10297.63743
 21
4788.130492
 31
0.0
  0
TEXT
  8
SUNPOU
 10
9641.923145
 20
4833.130492
 30
0.0
 40
60.0
  1
900
  7
K
 72
     1
 11
9727.63743
 21
4833.130492
 31
0.0
  0
INSERT
  8
SUNPOU
  2
ARROWANG
 10
10177.63743
 20
4788.130492
 30
0.0
 41
30.0
 42
30.0
 43
30.0
  0
INSERT
  8
SUNPOU
  2
ARROWANG
 10
9277.63743
 20
4788.130492
 30
0.0
 41
30.0
 42
30.0
 50
180.0
 43
30.0
  0
LINE
  8
SUNPOU
 10
10177.63743
 20
4452.596045
 30
0.0
 11
10177.63743
 21
4818.130492
 31
0.0
  0
LINE
  8
SUNPOU
 10
9277.63743
 20
4788.130492
 30
0.0
 11
10177.63743
 21
4788.130492
 31
0.0
  0
TEXT
  8
SUNPOU
 10
9127.637445
 20
4833.130492
 30
0.0
 40
60.0
  1
120
  7
K
 72
     1
 11
9217.637445
 21
4833.130492
 31
0.0
  0
INSERT
  8
SUNPOU
  2
ARROWANG
 10
9277.63743
 20
4788.130492
 30
0.0
 41
30.0
 42
30.0
 43
30.0
  0
INSERT
  8
SUNPOU
  2
ARROWANG
 10
9157.63743
 20
4788.130492
 30
0.0
 41
30.0
 42
30.0
 50
180.0
 43
30.0
  0
LINE
  8
SUNPOU
 10
9157.63743
 20
4788.130492
 30
0.0
 11
9277.63743
 21
4788.130492
 31
0.0
  0
LINE
  8
SUNPOU
 10
9277.63743
 20
4452.596045
 30
0.0
 11
9277.63743
 21
4818.130492
 31
0.0
  0
LINE
  8
SUNPOU
 10
9157.63743
 20
4475.596045
 30
0.0
 11
9157.63743
 21
4818.130492
 31
0.0
  0
TEXT
  8
SUNPOU
 10
9641.923159
 20
4706.722979
 30
0.0
 40
60.0
  1
970
  7
K
 72
     1
 11
9727.637445
 21
4706.722979
 31
0.0
  0
INSERT
  8
SUNPOU
  2
ARROWANG
 10
10212.63743
 20
4661.722979
 30
0.0
 41
30.0
 42
30.0
 43
30.0
  0
INSERT
  8
SUNPOU
  2
ARROWANG
 10
9242.63743
 20
4661.722979
 30
0.0
 41
30.0
 42
30.0
 50
180.0
 43
30.0
  0
LINE
  8
SUNPOU
 10
9242.63743
 20
4661.722979
 30
0.0
 11
10212.63743
 21
4661.722979
 31
0.0
  0
LINE
  8
SUNPOU
 10
10212.63743
 20
4475.596045
 30
0.0
 11
10212.63743
 21
4691.722979
 31
0.0
  0
LINE
  8
SUNPOU
 10
9242.63743
 20
4475.596045
 30
0.0
 11
9242.63743
 21
4691.722979
 31
0.0
  0
TEXT
  8
SUNPOU
 10
9641.923159
 20
4576.094478
 30
0.0
 40
60.0
  1
956
  7
K
 72
     1
 11
9727.637445
 21
4576.094478
 31
0.0
  0
INSERT
  8
SUNPOU
  2
ARROWANG
 10
10205.63743
 20
4531.094478
 30
0.0
 41
30.0
 42
30.0
 43
30.0
  0
INSERT
  8
SUNPOU
  2
ARROWANG
 10
9249.63743
 20
4531.094478
 30
0.0
 41
30.0
 42
30.0
 50
180.0
 43
30.0
  0
LINE
  8
SUNPOU
 10
9249.63743
 20
4531.094478
 30
0.0
 11
10205.63743
 21
4531.094478
 31
0.0
  0
LINE
  8
SUNPOU
 10
10205.63743
 20
4452.596045
 30
0.0
 11
10205.63743
 21
4561.094478
 31
0.0
  0
LINE
  8
SUNPOU
 10
9249.63743
 20
4452.596045
 30
0.0
 11
9249.63743
 21
4561.094478
 31
0.0
  0
TEXT
  8
SUNPOU
 10
9070.591478
 20
4454.453188
 30
0.0
 40
60.0
  1
23
 50
90.0
  7
K
 72
     1
 11
9070.591478
 21
4511.596045
 31
0.0
  0
LINE
  8
SUNPOU
 10
9115.591478
 20
4422.596045
 30
0.0
 11
9115.591479
 21
4362.596045
 31
0.0
  0
LINE
  8
SUNPOU
 10
9115.591478
 20
4445.596045
 30
0.0
 11
9115.591478
 21
4577.596045
 31
0.0
  0
INSERT
  8
SUNPOU
  2
ARROWANG
 10
9115.591478
 20
4445.596045
 30
0.0
 41
30.0
 42
30.0
 50
270.0
 43
30.0
  0
INSERT
  8
SUNPOU
  2
ARROWANG
 10
9115.591478
 20
4422.596045
 30
0.0
 41
30.0
 42
30.0
 50
90.0
 43
30.0
  0
LINE
  8
SUNPOU
 10
9115.591478
 20
4422.596045
 30
0.0
 11
9115.591478
 21
4445.596045
 31
0.0
  0
LINE
  8
SUNPOU
 10
9127.63743
 20
4445.596045
 30
0.0
 11
9085.591478
 21
4445.596045
 31
0.0
  0
LINE
  8
SUNPOU
 10
9219.63743
 20
4422.596045
 30
0.0
 11
9085.591478
 21
4422.596045
 31
0.0
  0
LINE
  8
SUNPOU
 10
9003.781147
 20
4145.596045
 30
0.0
 11
9003.781147
 21
4205.596045
 31
0.0
  0
LINE
  8
SUNPOU
 10
9003.781147
 20
4130.596045
 30
0.0
 11
9003.781147
 21
4070.596045
 31
0.0
  0
TEXT
  8
SUNPOU
 10
8958.781147
 20
3964.881759
 30
0.0
 40
60.0
  1
15
 50
90.0
  7
K
 72
     2
 11
8958.781147
 21
4070.596045
 31
0.0
  0
LINE
  8
SUNPOU
 10
9003.781147
 20
4130.596045
 30
0.0
 11
9003.781147
 21
3998.596045
 31
0.0
  0
INSERT
  8
SUNPOU
  2
ARROWANG
 10
9003.781147
 20
4145.596045
 30
0.0
 41
30.0
 42
30.0
 50
270.0
 43
30.0
  0
INSERT
  8
SUNPOU
  2
ARROWANG
 10
9003.781147
 20
4130.596045
 30
0.0
 41
30.0
 42
30.0
 50
90.0
 43
30.0
  0
LINE
  8
SUNPOU
 10
9219.63743
 20
4130.596045
 30
0.0
 11
8973.781147
 21
4130.596045
 31
0.0
  0
LINE
  8
SUNPOU
 10
9003.781147
 20
4145.596045
 30
0.0
 11
9003.781147
 21
4130.596045
 31
0.0
  0
TEXT
  8
SUNPOU
 10
8958.781147
 20
4209.881759
 30
0.0
 40
60.0
  1
300
 50
90.0
  7
K
 72
     1
 11
8958.781147
 21
4295.596045
 31
0.0
  0
INSERT
  8
SUNPOU
  2
ARROWANG
 10
9003.781147
 20
4445.596045
 30
0.0
 41
30.0
 42
30.0
 50
90.0
 43
30.0
  0
INSERT
  8
SUNPOU
  2
ARROWANG
 10
9003.781147
 20
4145.596045
 30
0.0
 41
30.0
 42
30.0
 50
270.0
 43
30.0
  0
LINE
  8
SUNPOU
 10
9003.781147
 20
4145.596045
 30
0.0
 11
9003.781147
 21
4445.596045
 31
0.0
  0
LINE
  8
SUNPOU
 10
9127.63743
 20
4445.596045
 30
0.0
 11
8973.781147
 21
4445.596045
 31
0.0
  0
LINE
  8
SUNPOU
 10
9172.63743
 20
4145.596045
 30
0.0
 11
8973.781147
 21
4145.596045
 31
0.0
  0
LINE
  8
JISSEN
 10
9727.63743
 20
4145.596045
 30
0.0
 11
10212.63743
 21
4145.596045
 31
0.0
  0
LINE
  8
JISSEN
 10
10292.63743
 20
4185.596045
 30
0.0
 11
9727.63743
 21
4185.596045
 31
0.0
  0
LINE
  8
JISSEN
 10
10252.63743
 20
4145.596045
 30
0.0
 11
10212.63743
 21
4145.596045
 31
0.0
  0
LINE
  8
JISSEN
 10
10292.63743
 20
4185.596045
 30
0.0
 11
10252.63743
 21
4145.596045
 31
0.0
  0
LINE
  8
JISSEN
 10
10297.63743
 20
4185.596045
 30
0.0
 11
10292.63743
 21
4185.596045
 31
0.0
  0
LINE
  8
JISSEN
 10
10297.63743
 20
4445.596045
 30
0.0
 11
10297.63743
 21
4185.596045
 31
0.0
  0
LINE
  8
JISSEN
 10
9202.63743
 20
4145.596045
 30
0.0
 11
9242.63743
 21
4145.596045
 31
0.0
  0
LINE
  8
JISSEN
 10
9162.63743
 20
4185.596045
 30
0.0
 11
9202.63743
 21
4145.596045
 31
0.0
  0
LINE
  8
JISSEN
 10
9157.63743
 20
4185.596045
 30
0.0
 11
9162.63743
 21
4185.596045
 31
0.0
  0
LINE
  8
JISSEN
 10
9157.63743
 20
4445.596045
 30
0.0
 11
9157.63743
 21
4185.596045
 31
0.0
  0
LINE
  8
JISSEN
 10
10205.63743
 20
4130.596045
 30
0.0
 11
9727.63743
 21
4130.596045
 31
0.0
  0
LINE
  8
JISSEN
 10
10212.63743
 20
4145.596045
 30
0.0
 11
10205.63743
 21
4130.596045
 31
0.0
  0
LINE
  8
JISSEN
 10
9249.63743
 20
4130.596045
 30
0.0
 11
9727.63743
 21
4130.596045
 31
0.0
  0
LINE
  8
JISSEN
 10
9242.63743
 20
4145.596045
 30
0.0
 11
9249.63743
 21
4130.596045
 31
0.0
  0
LINE
  8
HASEN
 10
10177.63743
 20
4422.596045
 30
0.0
 11
10177.63743
 21
4130.596045
 31
0.0
  0
LINE
  8
JISSEN
 10
9277.63743
 20
4422.596045
 30
0.0
 11
9277.63743
 21
4130.596045
 31
0.0
  0
LINE
  8
HASEN
 10
9727.63743
 20
4422.596045
 30
0.0
 11
10205.63743
 21
4422.596045
 31
0.0
  0
LINE
  8
HASEN
 10
10212.63743
 20
4445.596045
 30
0.0
 11
10205.63743
 21
4422.596045
 31
0.0
  0
LINE
  8
JISSEN
 10
9727.63743
 20
4422.596045
 30
0.0
 11
9249.63743
 21
4422.596045
 31
0.0
  0
LINE
  8
JISSEN
 10
9242.63743
 20
4445.596045
 30
0.0
 11
9249.63743
 21
4422.596045
 31
0.0
  0
LINE
  8
JISSEN
 10
9157.63743
 20
4445.596045
 30
0.0
 11
10297.63743
 21
4445.596045
 31
0.0
  0
LINE
  8
ITTEN
 10
9727.63743
 20
4495.596045
 30
0.0
 11
9727.63743
 21
4080.596045
 31
0.0
  0
LINE
  8
ITTEN
 10
10347.63743
 20
2804.358176
 30
0.0
 11
9107.63743
 21
2804.358176
 31
0.0
  0
LINE
  8
ITTEN
 10
9727.63743
 20
3424.358176
 30
0.0
 11
9727.63743
 21
2184.358176
 31
0.0
  0
CIRCLE
  8
JISSEN
 10
9727.63743
 20
2804.358176
 30
0.0
 40
485.0
  0
CIRCLE
  8
JISSEN
 10
9727.63743
 20
2804.358176
 30
0.0
 40
478.0
  0
CIRCLE
  8
JISSEN
 10
9727.63743
 20
2804.358176
 30
0.0
 40
570.0
  0
CIRCLE
  8
JISSEN
 10
9727.63743
 20
2804.358176
 30
0.0
 40
450.0
  0
TEXT
  8
SUNPOU
 10
8154.423145
 20
4190.138253
 30
0.0
 40
60.0
  1
305
  7
K
 72
     1
 11
8240.13743
 21
4190.138253
 31
0.0
  0
INSERT
  8
SUNPOU
  2
ARROWANG
 10
8392.63743
 20
4145.138253
 30
0.0
 41
30.0
 42
30.0
 43
30.0
  0
INSERT
  8
SUNPOU
  2
ARROWANG
 10
8087.63743
 20
4145.138253
 30
0.0
 41
30.0
 42
30.0
 50
180.0
 43
30.0
  0
LINE
  8
SUNPOU
 10
8392.63743
 20
4270.596045
 30
0.0
 11
8392.63743
 21
4115.138253
 31
0.0
  0
LINE
  8
SUNPOU
 10
8087.63743
 20
4145.138253
 30
0.0
 11
8392.63743
 21
4145.138253
 31
0.0
  0
TEXT
  8
SUNPOU
 10
7665.494573
 20
4190.138253
 30
0.0
 40
60.0
  1
670
  7
K
 72
     1
 11
7752.63743
 21
4190.138253
 31
0.0
  0
INSERT
  8
SUNPOU
  2
ARROWANG
 10
8087.63743
 20
4145.138253
 30
0.0
 41
30.0
 42
30.0
 43
30.0
  0
INSERT
  8
SUNPOU
  2
ARROWANG
 10
7417.63743
 20
4145.138253
 30
0.0
 41
30.0
 42
30.0
 50
180.0
 43
30.0
  0
LINE
  8
SUNPOU
 10
8087.63743
 20
4255.596045
 30
0.0
 11
8087.63743
 21
4115.138253
 31
0.0
  0
LINE
  8
SUNPOU
 10
7417.63743
 20
4145.138253
 30
0.0
 11
8087.63743
 21
4145.138253
 31
0.0
  0
TEXT
  8
SUNPOU
 10
7322.994588
 20
4190.138253
 30
0.0
 40
60.0
  1
75
  7
K
 72
     1
 11
7380.137445
 21
4190.138253
 31
0.0
  0
INSERT
  8
SUNPOU
  2
ARROWANG
 10
7417.63743
 20
4145.138253
 30
0.0
 41
30.0
 42
30.0
 43
30.0
  0
INSERT
  8
SUNPOU
  2
ARROWANG
 10
7342.63743
 20
4145.138253
 30
0.0
 41
30.0
 42
30.0
 50
180.0
 43
30.0
  0
LINE
  8
SUNPOU
 10
7342.63743
 20
4145.138253
 30
0.0
 11
7417.63743
 21
4145.138253
 31
0.0
  0
LINE
  8
SUNPOU
 10
7417.63743
 20
4255.596045
 30
0.0
 11
7417.63743
 21
4115.138253
 31
0.0
  0
LINE
  8
SUNPOU
 10
7342.63743
 20
4270.596045
 30
0.0
 11
7342.63743
 21
4115.138253
 31
0.0
  0
TEXT
  8
SUNPOU
 10
8136.923145
 20
4645.43948
 30
0.0
 40
60.0
  1
340
  7
K
 72
     1
 11
8222.63743
 21
4645.43948
 31
0.0
  0
INSERT
  8
SUNPOU
  2
ARROWANG
 10
8392.63743
 20
4600.43948
 30
0.0
 41
30.0
 42
30.0
 43
30.0
  0
INSERT
  8
SUNPOU
  2
ARROWANG
 10
8052.63743
 20
4600.43948
 30
0.0
 41
30.0
 42
30.0
 50
180.0
 43
30.0
  0
LINE
  8
SUNPOU
 10
8392.63743
 20
4475.596045
 30
0.0
 11
8392.63743
 21
4630.43948
 31
0.0
  0
LINE
  8
SUNPOU
 10
8052.63743
 20
4600.43948
 30
0.0
 11
8392.63743
 21
4600.43948
 31
0.0
  0
TEXT
  8
SUNPOU
 10
7665.494588
 20
4645.43948
 30
0.0
 40
60.0
  1
600
  7
K
 72
     1
 11
7752.637445
 21
4645.43948
 31
0.0
  0
INSERT
  8
SUNPOU
  2
ARROWANG
 10
8052.63743
 20
4600.43948
 30
0.0
 41
30.0
 42
30.0
 43
30.0
  0
INSERT
  8
SUNPOU
  2
ARROWANG
 10
7452.63743
 20
4600.43948
 30
0.0
 41
30.0
 42
30.0
 50
180.0
 43
30.0
  0
LINE
  8
SUNPOU
 10
7452.63743
 20
4600.43948
 30
0.0
 11
8052.63743
 21
4600.43948
 31
0.0
  0
LINE
  8
SUNPOU
 10
8052.63743
 20
4460.596045
 30
0.0
 11
8052.63743
 21
4630.43948
 31
0.0
  0
LINE
  8
SUNPOU
 10
7452.63743
 20
4570.43948
 30
0.0
 11
7452.63743
 21
4570.43948
 31
0.0
  0
TEXT
  8
SUNPOU
 10
7307.637445
 20
4645.43948
 30
0.0
 40
60.0
  1
110
  7
K
 72
     1
 11
7397.637445
 21
4645.43948
 31
0.0
  0
INSERT
  8
SUNPOU
  2
ARROWANG
 10
7452.63743
 20
4600.43948
 30
0.0
 41
30.0
 42
30.0
 43
30.0
  0
INSERT
  8
SUNPOU
  2
ARROWANG
 10
7342.63743
 20
4600.43948
 30
0.0
 41
30.0
 42
30.0
 50
180.0
 43
30.0
  0
LINE
  8
SUNPOU
 10
7342.63743
 20
4600.43948
 30
0.0
 11
7452.63743
 21
4600.43948
 31
0.0
  0
LINE
  8
SUNPOU
 10
7452.63743
 20
4460.596045
 30
0.0
 11
7452.63743
 21
4630.43948
 31
0.0
  0
LINE
  8
SUNPOU
 10
7342.63743
 20
4475.596045
 30
0.0
 11
7342.63743
 21
4630.43948
 31
0.0
  0
TEXT
  8
SUNPOU
 10
7749.066017
 20
4786.952023
 30
0.0
 40
60.0
  1
1050
  7
K
 72
     1
 11
7867.637445
 21
4786.952023
 31
0.0
  0
INSERT
  8
SUNPOU
  2
ARROWANG
 10
8392.63743
 20
4741.952023
 30
0.0
 41
30.0
 42
30.0
 43
30.0
  0
INSERT
  8
SUNPOU
  2
ARROWANG
 10
7342.63743
 20
4741.952023
 30
0.0
 41
30.0
 42
30.0
 50
180.0
 43
30.0
  0
LINE
  8
SUNPOU
 10
7342.63743
 20
4741.952023
 30
0.0
 11
8392.63743
 21
4741.952023
 31
0.0
  0
LINE
  8
SUNPOU
 10
8392.63743
 20
4475.596045
 30
0.0
 11
8392.63743
 21
4771.952023
 31
0.0
  0
LINE
  8
SUNPOU
 10
7342.63743
 20
4475.596045
 30
0.0
 11
7342.63743
 21
4771.952023
 31
0.0
  0
TEXT
  8
SUNPOU
 10
7007.427817
 20
4283.096045
 30
0.0
 40
60.0
  1
145
 50
90.0
  7
K
 72
     1
 11
7007.427817
 21
4373.096045
 31
0.0
  0
INSERT
  8
SUNPOU
  2
ARROWANG
 10
7052.427817
 20
4445.596045
 30
0.0
 41
30.0
 42
30.0
 50
90.0
 43
30.0
  0
INSERT
  8
SUNPOU
  2
ARROWANG
 10
7052.427817
 20
4300.596045
 30
0.0
 41
30.0
 42
30.0
 50
270.0
 43
30.0
  0
LINE
  8
SUNPOU
 10
7052.427817
 20
4300.596045
 30
0.0
 11
7052.427817
 21
4445.596045
 31
0.0
  0
LINE
  8
SUNPOU
 10
7208.42631
 20
4445.596045
 30
0.0
 11
7022.427817
 21
4445.596045
 31
0.0
  0
LINE
  8
SUNPOU
 10
7210.101972
 20
4300.596045
 30
0.0
 11
7022.427817
 21
4300.596045
 31
0.0
  0
TEXT
  8
SUNPOU
 10
7195.101972
 20
4158.167473
 30
0.0
 40
60.0
  1
15
 50
90.0
  7
K
 72
     1
 11
7195.101972
 21
4219.596045
 31
0.0
  0
LINE
  8
SUNPOU
 10
7240.101972
 20
4300.596045
 30
0.0
 11
7240.101972
 21
4360.596045
 31
0.0
  0
LINE
  8
SUNPOU
 10
7240.101972
 20
4285.596045
 30
0.0
 11
7240.101972
 21
4153.596045
 31
0.0
  0
INSERT
  8
SUNPOU
  2
ARROWANG
 10
7240.101972
 20
4300.596045
 30
0.0
 41
30.0
 42
30.0
 50
270.0
 43
30.0
  0
INSERT
  8
SUNPOU
  2
ARROWANG
 10
7240.101972
 20
4285.596045
 30
0.0
 41
30.0
 42
30.0
 50
90.0
 43
30.0
  0
LINE
  8
SUNPOU
 10
7240.101972
 20
4285.596045
 30
0.0
 11
7240.101972
 21
4300.596045
 31
0.0
  0
LINE
  8
SUNPOU
 10
7312.63743
 20
4300.596045
 30
0.0
 11
7210.101972
 21
4300.596045
 31
0.0
  0
LINE
  8
SUNPOU
 10
7362.63743
 20
4285.596045
 30
0.0
 11
7210.101972
 21
4285.596045
 31
0.0
  0
TEXT
  8
SUNPOU
 10
7193.42631
 20
4450.167473
 30
0.0
 40
60.0
  1
15
 50
90.0
  7
K
 72
     1
 11
7193.42631
 21
4511.596045
 31
0.0
  0
LINE
  8
SUNPOU
 10
7238.42631
 20
4430.596045
 30
0.0
 11
7238.426312
 21
4370.596045
 31
0.0
  0
LINE
  8
SUNPOU
 10
7238.42631
 20
4445.596045
 30
0.0
 11
7238.42631
 21
4577.596045
 31
0.0
  0
INSERT
  8
SUNPOU
  2
ARROWANG
 10
7238.42631
 20
4445.596045
 30
0.0
 41
30.0
 42
30.0
 50
270.0
 43
30.0
  0
INSERT
  8
SUNPOU
  2
ARROWANG
 10
7238.42631
 20
4430.596045
 30
0.0
 41
30.0
 42
30.0
 50
90.0
 43
30.0
  0
LINE
  8
SUNPOU
 10
7238.42631
 20
4430.596045
 30
0.0
 11
7238.42631
 21
4445.596045
 31
0.0
  0
LINE
  8
SUNPOU
 10
7312.63743
 20
4445.596045
 30
0.0
 11
7208.42631
 21
4445.596045
 31
0.0
  0
LINE
  8
SUNPOU
 10
7396.63743
 20
4430.596045
 30
0.0
 11
7208.42631
 21
4430.596045
 31
0.0
  0
LINE
  8
HASEN
 10
8052.63743
 20
4410.596045
 30
0.0
 11
8087.63743
 21
4285.596045
 31
0.0
  0
LINE
  8
JISSEN
 10
7417.63743
 20
4285.596045
 30
0.0
 11
7452.63743
 21
4410.596045
 31
0.0
  0
LINE
  8
JISSEN
 10
7342.63743
 20
4445.596045
 30
0.0
 11
7342.63743
 21
4300.596045
 31
0.0
  0
LINE
  8
ITTEN
 10
7867.63743
 20
4495.596045
 30
0.0
 11
7867.63743
 21
4250.596045
 31
0.0
  0
LINE
  8
ITTEN
 10
7752.63743
 20
4495.596045
 30
0.0
 11
7752.63743
 21
4250.596045
 31
0.0
  0
TEXT
  8
SUNPOU
 10
8478.441998
 20
4349.453188
 30
0.0
 40
60.0
  1
40
 50
90.0
  7
K
 72
     1
 11
8478.441998
 21
4406.596045
 31
0.0
  0
LINE
  8
SUNPOU
 10
8523.441998
 20
4340.596045
 30
0.0
 11
8523.441998
 21
4472.596045
 31
0.0
  0
LINE
  8
JISSEN
 10
7342.63743
 20
4300.596045
 30
0.0
 11
7383.63743
 21
4300.596045
 31
0.0
  0
LINE
  8
JISSEN
 10
7383.63743
 20
4300.596045
 30
0.0
 11
7392.63743
 21
4285.596045
 31
0.0
  0
LINE
  8
JISSEN
 10
7392.63743
 20
4285.596045
 30
0.0
 11
7867.63743
 21
4285.596045
 31
0.0
  0
LINE
  8
JISSEN
 10
8392.63743
 20
4300.596045
 30
0.0
 11
8351.63743
 21
4300.596045
 31
0.0
  0
LINE
  8
JISSEN
 10
8351.63743
 20
4300.596045
 30
0.0
 11
8342.63743
 21
4285.596045
 31
0.0
  0
LINE
  8
JISSEN
 10
8342.63743
 20
4285.596045
 30
0.0
 11
7867.63743
 21
4285.596045
 31
0.0
  0
LINE
  8
JISSEN
 10
7867.63743
 20
4300.596045
 30
0.0
 11
8351.63743
 21
4300.596045
 31
0.0
  0
LINE
  8
JISSEN
 10
8392.63743
 20
4300.596045
 30
0.0
 11
8392.63743
 21
4445.596045
 31
0.0
  0
LINE
  8
SUNPOU
 10
8523.441998
 20
4300.596045
 30
0.0
 11
8523.441998
 21
4340.596045
 31
0.0
  0
INSERT
  8
SUNPOU
  2
ARROWANG
 10
8523.441998
 20
4300.596045
 30
0.0
 41
30.0
 42
30.0
 50
90.0
 43
30.0
  0
INSERT
  8
SUNPOU
  2
ARROWANG
 10
8523.441998
 20
4340.596045
 30
0.0
 41
30.0
 42
30.0
 50
270.0
 43
30.0
  0
LINE
  8
SUNPOU
 10
8523.441998
 20
4300.596045
 30
0.0
 11
8523.442
 21
4240.596045
 31
0.0
  0
LINE
  8
SUNPOU
 10
8261.730073
 20
4340.596045
 30
0.0
 11
8553.441998
 21
4340.596045
 31
0.0
  0
LINE
  8
SUNPOU
 10
8422.63743
 20
4300.596045
 30
0.0
 11
8553.441998
 21
4300.596045
 31
0.0
  0
CIRCLE
  8
JISSEN
 10
8231.730073
 20
4340.596045
 30
0.0
 40
10.0
  0
CIRCLE
  8
HASEN
 10
7503.544788
 20
4340.596045
 30
0.0
 40
10.0
  0
LINE
  8
HASEN
 10
8078.63743
 20
4430.596045
 30
0.0
 11
7752.63743
 21
4430.596045
 31
0.0
  0
LINE
  8
HASEN
 10
8084.63743
 20
4445.596045
 30
0.0
 11
8078.63743
 21
4430.596045
 31
0.0
  0
LINE
  8
JISSEN
 10
7426.63743
 20
4430.596045
 30
0.0
 11
7752.63743
 21
4430.596045
 31
0.0
  0
LINE
  8
JISSEN
 10
7420.63743
 20
4445.596045
 30
0.0
 11
7426.63743
 21
4430.596045
 31
0.0
  0
LINE
  8
JISSEN
 10
7342.63743
 20
4445.596045
 30
0.0
 11
8392.63743
 21
4445.596045
 31
0.0
  0
LINE
  8
HASEN
 10
8052.63743
 20
4430.596045
 30
0.0
 11
8052.63743
 21
4410.596045
 31
0.0
  0
LINE
  8
JISSEN
 10
7452.63743
 20
4430.596045
 30
0.0
 11
7452.63743
 21
4410.596045
 31
0.0
  0
LINE
  8
ITTEN
 10
7752.63743
 20
3264.358176
 30
0.0
 11
7752.63743
 21
2344.358176
 31
0.0
  0
LINE
  8
ITTEN
 10
7292.63743
 20
2804.358176
 30
0.0
 11
8212.63743
 21
2804.358176
 31
0.0
  0
LINE
  8
ITTEN
 10
8134.554634
 20
2583.858176
 30
0.0
 11
8028.899534
 21
2644.858176
 31
0.0
  0
CIRCLE
  8
JISSEN
 10
8081.727084
 20
2614.358176
 30
0.0
 40
11.0
  0
LINE
  8
ITTEN
 10
8112.227084
 20
2667.185726
 30
0.0
 11
8051.227084
 21
2561.530627
 31
0.0
  0
LINE
  8
ITTEN
 10
7370.720227
 20
2583.858176
 30
0.0
 11
7476.375327
 21
2644.858176
 31
0.0
  0
CIRCLE
  8
JISSEN
 10
7423.547777
 20
2614.358176
 30
0.0
 40
11.0
  0
LINE
  8
ITTEN
 10
7454.047777
 20
2561.530627
 30
0.0
 11
7393.047777
 21
2667.185726
 31
0.0
  0
POINT
  8
JISSEN
 10
7752.63743
 20
2805.358176
 30
0.0
  0
LINE
  8
ITTEN
 10
7752.63743
 20
3245.358176
 30
0.0
 11
7752.63743
 21
3123.358176
 31
0.0
  0
LINE
  8
ITTEN
 10
7691.63743
 20
3184.358176
 30
0.0
 11
7813.63743
 21
3184.358176
 31
0.0
  0
CIRCLE
  8
JISSEN
 10
7752.63743
 20
3184.358176
 30
0.0
 40
11.0
  0
CIRCLE
  8
JISSEN
 10
7752.63743
 20
2804.358176
 30
0.0
 40
326.0
  0
CIRCLE
  8
JISSEN
 10
7752.63743
 20
2804.358176
 30
0.0
 40
300.0
  0
CIRCLE
  8
JISSEN
 10
7752.63743
 20
2804.358176
 30
0.0
 40
332.0
  0
CIRCLE
  8
JISSEN
 10
7867.63743
 20
2804.358176
 30
0.0
 40
525.0
  0
LINE
  8
ITTEN
 10
8168.157812
 20
2503.837794
 30
0.0
 11
8274.22383
 21
2397.771777
 31
0.0
  0
LINE
  8
HASEN
 10
8196.442084
 20
2461.411387
 30
0.0
 11
8231.730073
 21
2426.123398
 31
0.0
  0
LINE
  8
HASEN
 10
8196.442084
 20
2461.411387
 30
0.0
 11
8210.584219
 21
2475.553523
 31
0.0
  0
LINE
  8
HASEN
 10
8245.872209
 20
2440.265533
 30
0.0
 11
8210.584219
 21
2475.553523
 31
0.0
  0
LINE
  8
HASEN
 10
7489.402652
 20
3168.450819
 30
0.0
 11
7524.690642
 21
3133.162829
 31
0.0
  0
LINE
  8
HASEN
 10
7538.832777
 20
3147.304965
 30
0.0
 11
7524.690642
 21
3133.162829
 31
0.0
  0
LINE
  8
HASEN
 10
7538.832777
 20
3147.304965
 30
0.0
 11
7503.544788
 21
3182.592954
 31
0.0
  0
LINE
  8
ITTEN
 10
7567.117048
 20
3104.878558
 30
0.0
 11
7461.051031
 21
3210.944575
 31
0.0
  0
LINE
  8
ITTEN
 10
7867.63743
 20
3379.358176
 30
0.0
 11
7867.63743
 21
2229.358176
 31
0.0
  0
TEXT
  8
SUNPOU
 10
5244.635673
 20
4212.381759
 30
0.0
 40
60.0
  1
295
 50
90.0
  7
K
 72
     1
 11
5244.635673
 21
4298.096045
 31
0.0
  0
INSERT
  8
SUNPOU
  2
ARROWANG
 10
5289.635673
 20
4445.596045
 30
0.0
 41
30.0
 42
30.0
 50
90.0
 43
30.0
  0
INSERT
  8
SUNPOU
  2
ARROWANG
 10
5289.635673
 20
4150.596045
 30
0.0
 41
30.0
 42
30.0
 50
270.0
 43
30.0
  0
LINE
  8
SUNPOU
 10
5289.635673
 20
4150.596045
 30
0.0
 11
5289.635673
 21
4445.596045
 31
0.0
  0
LINE
  8
SUNPOU
 10
5452.63743
 20
4445.596045
 30
0.0
 11
5259.635673
 21
4445.596045
 31
0.0
  0
LINE
  8
SUNPOU
 10
5452.63743
 20
4150.596045
 30
0.0
 11
5259.635673
 21
4150.596045
 31
0.0
  0
CIRCLE
  8
HASEN
 10
5643.544788
 20
4190.596045
 30
0.0
 40
10.0
  0
CIRCLE
  8
JISSEN
 10
6371.730073
 20
4190.596045
 30
0.0
 40
10.0
  0
LINE
  8
SUNPOU
 10
6562.63743
 20
4150.596045
 30
0.0
 11
6802.360035
 21
4150.596045
 31
0.0
  0
LINE
  8
SUNPOU
 10
6562.63743
 20
4210.596045
 30
0.0
 11
6802.360035
 21
4210.596045
 31
0.0
  0
LINE
  8
SUNPOU
 10
6562.63743
 20
4150.596045
 30
0.0
 11
6693.441998
 21
4150.596045
 31
0.0
  0
LINE
  8
SUNPOU
 10
6401.730073
 20
4190.596045
 30
0.0
 11
6693.441998
 21
4190.596045
 31
0.0
  0
TEXT
  8
SUNPOU
 10
6618.441998
 20
4199.453188
 30
0.0
 40
60.0
  1
40
 50
90.0
  7
K
 72
     1
 11
6618.441998
 21
4256.596045
 31
0.0
  0
TEXT
  8
SUNPOU
 10
6727.360035
 20
4026.024616
 30
0.0
 40
60.0
  1
60
 50
90.0
  7
K
 72
     1
 11
6727.360035
 21
4084.596045
 31
0.0
  0
LINE
  8
SUNPOU
 10
6772.360035
 20
4210.596045
 30
0.0
 11
6772.360035
 21
4270.596045
 31
0.0
  0
LINE
  8
SUNPOU
 10
6772.360035
 20
4150.596045
 30
0.0
 11
6772.360035
 21
4018.596045
 31
0.0
  0
INSERT
  8
SUNPOU
  2
ARROWANG
 10
6772.360035
 20
4210.596045
 30
0.0
 41
30.0
 42
30.0
 50
270.0
 43
30.0
  0
INSERT
  8
SUNPOU
  2
ARROWANG
 10
6772.360035
 20
4150.596045
 30
0.0
 41
30.0
 42
30.0
 50
90.0
 43
30.0
  0
LINE
  8
SUNPOU
 10
6772.360035
 20
4150.596045
 30
0.0
 11
6772.360035
 21
4210.596045
 31
0.0
  0
LINE
  8
SUNPOU
 10
6663.441998
 20
4150.596045
 30
0.0
 11
6663.442
 21
4090.596045
 31
0.0
  0
LINE
  8
SUNPOU
 10
6663.441998
 20
4190.596045
 30
0.0
 11
6663.441998
 21
4322.596045
 31
0.0
  0
INSERT
  8
SUNPOU
  2
ARROWANG
 10
6663.441998
 20
4190.596045
 30
0.0
 41
30.0
 42
30.0
 50
270.0
 43
30.0
  0
INSERT
  8
SUNPOU
  2
ARROWANG
 10
6663.441998
 20
4150.596045
 30
0.0
 41
30.0
 42
30.0
 50
90.0
 43
30.0
  0
LINE
  8
SUNPOU
 10
6663.441998
 20
4150.596045
 30
0.0
 11
6663.441998
 21
4190.596045
 31
0.0
  0
TEXT
  8
SUNPOU
 10
6437.994573
 20
4057.396997
 30
0.0
 40
60.0
  1
75
  7
K
 72
     1
 11
6495.13743
 21
4057.396997
 31
0.0
  0
TEXT
  8
SUNPOU
 10
5921.923145
 20
4057.396997
 30
0.0
 40
60.0
  1
900
  7
K
 72
     1
 11
6007.63743
 21
4057.396997
 31
0.0
  0
TEXT
  8
SUNPOU
 10
5462.994588
 20
4057.396997
 30
0.0
 40
60.0
  1
75
  7
K
 72
     1
 11
5520.137445
 21
4057.396997
 31
0.0
  0
INSERT
  8
SUNPOU
  2
ARROWANG
 10
6532.63743
 20
4012.396997
 30
0.0
 41
30.0
 42
30.0
 43
30.0
  0
INSERT
  8
SUNPOU
  2
ARROWANG
 10
6457.63743
 20
4012.396997
 30
0.0
 41
30.0
 42
30.0
 50
180.0
 43
30.0
  0
LINE
  8
SUNPOU
 10
6532.63743
 20
4120.596045
 30
0.0
 11
6532.63743
 21
3982.396997
 31
0.0
  0
LINE
  8
SUNPOU
 10
6457.63743
 20
4012.396997
 30
0.0
 11
6532.63743
 21
4012.396997
 31
0.0
  0
INSERT
  8
SUNPOU
  2
ARROWANG
 10
6457.63743
 20
4012.396997
 30
0.0
 41
30.0
 42
30.0
 43
30.0
  0
INSERT
  8
SUNPOU
  2
ARROWANG
 10
5557.63743
 20
4012.396997
 30
0.0
 41
30.0
 42
30.0
 50
180.0
 43
30.0
  0
LINE
  8
SUNPOU
 10
6457.63743
 20
4105.596045
 30
0.0
 11
6457.63743
 21
3982.396997
 31
0.0
  0
LINE
  8
SUNPOU
 10
5557.63743
 20
4012.396997
 30
0.0
 11
6457.63743
 21
4012.396997
 31
0.0
  0
INSERT
  8
SUNPOU
  2
ARROWANG
 10
5557.63743
 20
4012.396997
 30
0.0
 41
30.0
 42
30.0
 43
30.0
  0
INSERT
  8
SUNPOU
  2
ARROWANG
 10
5482.63743
 20
4012.396997
 30
0.0
 41
30.0
 42
30.0
 50
180.0
 43
30.0
  0
LINE
  8
SUNPOU
 10
5482.63743
 20
4012.396997
 30
0.0
 11
5557.63743
 21
4012.396997
 31
0.0
  0
LINE
  8
SUNPOU
 10
5557.63743
 20
4105.596045
 30
0.0
 11
5557.63743
 21
3982.396997
 31
0.0
  0
LINE
  8
SUNPOU
 10
5482.63743
 20
4120.596045
 30
0.0
 11
5482.63743
 21
3982.396997
 31
0.0
  0
TEXT
  8
SUNPOU
 10
5889.066017
 20
3918.448086
 30
0.0
 40
60.0
  1
1050
  7
K
 72
     1
 11
6007.637445
 21
3918.448086
 31
0.0
  0
INSERT
  8
SUNPOU
  2
ARROWANG
 10
6532.63743
 20
3873.448086
 30
0.0
 41
30.0
 42
30.0
 43
30.0
  0
INSERT
  8
SUNPOU
  2
ARROWANG
 10
5482.63743
 20
3873.448086
 30
0.0
 41
30.0
 42
30.0
 50
180.0
 43
30.0
  0
LINE
  8
SUNPOU
 10
5482.63743
 20
3873.448086
 30
0.0
 11
6532.63743
 21
3873.448086
 31
0.0
  0
LINE
  8
SUNPOU
 10
6532.63743
 20
4120.596045
 30
0.0
 11
6532.63743
 21
3843.448086
 31
0.0
  0
LINE
  8
SUNPOU
 10
5482.63743
 20
4120.596045
 30
0.0
 11
5482.63743
 21
3843.448086
 31
0.0
  0
TEXT
  8
SUNPOU
 10
6157.63743
 20
4613.65043
 30
0.0
 40
60.0
  1
110
  7
K
 72
     1
 11
6247.63743
 21
4613.65043
 31
0.0
  0
INSERT
  8
SUNPOU
  2
ARROWANG
 10
6302.63743
 20
4568.65043
 30
0.0
 41
30.0
 42
30.0
 43
30.0
  0
INSERT
  8
SUNPOU
  2
ARROWANG
 10
6192.63743
 20
4568.65043
 30
0.0
 41
30.0
 42
30.0
 50
180.0
 43
30.0
  0
LINE
  8
SUNPOU
 10
6302.63743
 20
4475.596045
 30
0.0
 11
6302.63743
 21
4598.65043
 31
0.0
  0
LINE
  8
SUNPOU
 10
6192.63743
 20
4568.65043
 30
0.0
 11
6302.63743
 21
4568.65043
 31
0.0
  0
TEXT
  8
SUNPOU
 10
5805.494573
 20
4613.65043
 30
0.0
 40
60.0
  1
600
  7
K
 72
     1
 11
5892.63743
 21
4613.65043
 31
0.0
  0
INSERT
  8
SUNPOU
  2
ARROWANG
 10
6192.63743
 20
4568.65043
 30
0.0
 41
30.0
 42
30.0
 43
30.0
  0
INSERT
  8
SUNPOU
  2
ARROWANG
 10
5592.63743
 20
4568.65043
 30
0.0
 41
30.0
 42
30.0
 50
180.0
 43
30.0
  0
LINE
  8
SUNPOU
 10
6192.63743
 20
4460.596045
 30
0.0
 11
6192.63743
 21
4598.65043
 31
0.0
  0
LINE
  8
SUNPOU
 10
5592.63743
 20
4568.65043
 30
0.0
 11
6192.63743
 21
4568.65043
 31
0.0
  0
TEXT
  8
SUNPOU
 10
5447.637445
 20
4613.65043
 30
0.0
 40
60.0
  1
110
  7
K
 72
     1
 11
5537.637445
 21
4613.65043
 31
0.0
  0
INSERT
  8
SUNPOU
  2
ARROWANG
 10
5592.63743
 20
4568.65043
 30
0.0
 41
30.0
 42
30.0
 43
30.0
  0
INSERT
  8
SUNPOU
  2
ARROWANG
 10
5482.63743
 20
4568.65043
 30
0.0
 41
30.0
 42
30.0
 50
180.0
 43
30.0
  0
LINE
  8
SUNPOU
 10
5482.63743
 20
4568.65043
 30
0.0
 11
5592.63743
 21
4568.65043
 31
0.0
  0
LINE
  8
SUNPOU
 10
5592.63743
 20
4460.596045
 30
0.0
 11
5592.63743
 21
4598.65043
 31
0.0
  0
LINE
  8
SUNPOU
 10
5482.63743
 20
4475.596045
 30
0.0
 11
5482.63743
 21
4598.65043
 31
0.0
  0
TEXT
  8
SUNPOU
 10
5806.923159
 20
4736.192089
 30
0.0
 40
60.0
  1
820
  7
K
 72
     1
 11
5892.637445
 21
4736.192089
 31
0.0
  0
INSERT
  8
SUNPOU
  2
ARROWANG
 10
6302.63743
 20
4691.192089
 30
0.0
 41
30.0
 42
30.0
 43
30.0
  0
INSERT
  8
SUNPOU
  2
ARROWANG
 10
5482.63743
 20
4691.192089
 30
0.0
 41
30.0
 42
30.0
 50
180.0
 43
30.0
  0
LINE
  8
SUNPOU
 10
5482.63743
 20
4691.192089
 30
0.0
 11
6302.63743
 21
4691.192089
 31
0.0
  0
LINE
  8
SUNPOU
 10
6302.63743
 20
4475.596045
 30
0.0
 11
6302.63743
 21
4721.192089
 31
0.0
  0
LINE
  8
SUNPOU
 10
5482.63743
 20
4475.596045
 30
0.0
 11
5482.63743
 21
4721.192089
 31
0.0
  0
TEXT
  8
SUNPOU
 10
4045.984989
 20
4122.381759
 30
0.0
 40
60.0
  1
445
 50
90.0
  7
K
 72
     1
 11
4045.984989
 21
4208.096045
 31
0.0
  0
INSERT
  8
SUNPOU
  2
ARROWANG
 10
4090.984989
 20
4430.596045
 30
0.0
 41
30.0
 42
30.0
 50
90.0
 43
30.0
  0
INSERT
  8
SUNPOU
  2
ARROWANG
 10
4090.984989
 20
3985.596045
 30
0.0
 41
30.0
 42
30.0
 50
270.0
 43
30.0
  0
LINE
  8
SUNPOU
 10
4090.984989
 20
3985.596045
 30
0.0
 11
4090.984989
 21
4430.596045
 31
0.0
  0
LINE
  8
SUNPOU
 10
4066.38743
 20
4430.596045
 30
0.0
 11
4120.984989
 21
4430.596045
 31
0.0
  0
LINE
  8
SUNPOU
 10
3956.770102
 20
3985.596045
 30
0.0
 11
4120.984989
 21
3985.596045
 31
0.0
  0
TEXT
  8
SUNPOU
 10
3881.770102
 20
4164.881759
 30
0.0
 40
60.0
  1
230
 50
90.0
  7
K
 72
     1
 11
3881.770102
 21
4250.596045
 31
0.0
  0
INSERT
  8
SUNPOU
  2
ARROWANG
 10
3926.770102
 20
4365.596045
 30
0.0
 41
30.0
 42
30.0
 50
90.0
 43
30.0
  0
INSERT
  8
SUNPOU
  2
ARROWANG
 10
3926.770102
 20
4135.596045
 30
0.0
 41
30.0
 42
30.0
 50
270.0
 43
30.0
  0
LINE
  8
SUNPOU
 10
3858.931548
 20
4365.596045
 30
0.0
 11
3956.770102
 21
4365.596045
 31
0.0
  0
LINE
  8
SUNPOU
 10
3926.770102
 20
4135.596045
 30
0.0
 11
3926.770102
 21
4365.596045
 31
0.0
  0
TEXT
  8
SUNPOU
 10
3881.770102
 20
3970.596045
 30
0.0
 40
60.0
  1
150
 50
90.0
  7
K
 72
     1
 11
3881.770102
 21
4060.596045
 31
0.0
  0
INSERT
  8
SUNPOU
  2
ARROWANG
 10
3926.770102
 20
4135.596045
 30
0.0
 41
30.0
 42
30.0
 50
90.0
 43
30.0
  0
INSERT
  8
SUNPOU
  2
ARROWANG
 10
3926.770102
 20
3985.596045
 30
0.0
 41
30.0
 42
30.0
 50
270.0
 43
30.0
  0
LINE
  8
SUNPOU
 10
3926.770102
 20
3985.596045
 30
0.0
 11
3926.770102
 21
4135.596045
 31
0.0
  0
LINE
  8
SUNPOU
 10
3858.931548
 20
4135.596045
 30
0.0
 11
3956.770102
 21
4135.596045
 31
0.0
  0
LINE
  8
SUNPOU
 10
3858.931548
 20
3985.596045
 30
0.0
 11
3956.770102
 21
3985.596045
 31
0.0
  0
LINE
  8
ITTEN
 10
3693.931548
 20
4365.596045
 30
0.0
 11
3878.931548
 21
4365.596045
 31
0.0
  0
ARC
  8
JISSEN
 10
3818.931548
 20
4365.596045
 30
0.0
 40
10.0
 50
270.0
 51
90.0
  0
LINE
  8
JISSEN
 10
3818.931548
 20
4355.596045
 30
0.0
 11
3728.931548
 21
4355.596045
 31
0.0
  0
LINE
  8
JISSEN
 10
3818.931548
 20
4375.596045
 30
0.0
 11
3728.931548
 21
4375.596045
 31
0.0
  0
LINE
  8
ITTEN
 10
3674.990372
 20
4135.596045
 30
0.0
 11
3859.990372
 21
4135.596045
 31
0.0
  0
ARC
  8
JISSEN
 10
3799.990372
 20
4135.596045
 30
0.0
 40
10.0
 50
270.0
 51
90.0
  0
LINE
  8
JISSEN
 10
3799.990372
 20
4125.596045
 30
0.0
 11
3709.990372
 21
4125.596045
 31
0.0
  0
LINE
  8
JISSEN
 10
3799.990372
 20
4145.596045
 30
0.0
 11
3709.990372
 21
4145.596045
 31
0.0
  0
TEXT
  8
SUNPOU
 10
3390.801106
 20
4137.381759
 30
0.0
 40
60.0
  1
445
 50
90.0
  7
K
 72
     1
 11
3390.801106
 21
4223.096045
 31
0.0
  0
INSERT
  8
SUNPOU
  2
ARROWANG
 10
3435.801106
 20
4445.596045
 30
0.0
 41
30.0
 42
30.0
 50
90.0
 43
30.0
  0
INSERT
  8
SUNPOU
  2
ARROWANG
 10
3435.801106
 20
4000.596045
 30
0.0
 41
30.0
 42
30.0
 50
270.0
 43
30.0
  0
LINE
  8
SUNPOU
 10
3435.801106
 20
4000.596045
 30
0.0
 11
3435.801106
 21
4445.596045
 31
0.0
  0
LINE
  8
SUNPOU
 10
3592.63743
 20
4445.596045
 30
0.0
 11
3405.801106
 21
4445.596045
 31
0.0
  0
LINE
  8
SUNPOU
 10
3592.63743
 20
4000.596045
 30
0.0
 11
3405.801106
 21
4000.596045
 31
0.0
  0
TEXT
  8
SUNPOU
 10
2142.718389
 20
4047.381759
 30
0.0
 40
60.0
  1
595
 50
90.0
  7
K
 72
     1
 11
2142.718389
 21
4133.096045
 31
0.0
  0
INSERT
  8
SUNPOU
  2
ARROWANG
 10
2187.718389
 20
4430.596045
 30
0.0
 41
30.0
 42
30.0
 50
90.0
 43
30.0
  0
INSERT
  8
SUNPOU
  2
ARROWANG
 10
2187.718389
 20
3835.596045
 30
0.0
 41
30.0
 42
30.0
 50
270.0
 43
30.0
  0
LINE
  8
SUNPOU
 10
2187.718389
 20
3835.596045
 30
0.0
 11
2187.718389
 21
4430.596045
 31
0.0
  0
LINE
  8
SUNPOU
 10
1995.028735
 20
4430.596045
 30
0.0
 11
2217.718389
 21
4430.596045
 31
0.0
  0
LINE
  8
SUNPOU
 10
2087.016745
 20
3835.596045
 30
0.0
 11
2217.718389
 21
3835.596045
 31
0.0
  0
TEXT
  8
SUNPOU
 10
2012.016745
 20
4049.881759
 30
0.0
 40
60.0
  1
300
 50
90.0
  7
K
 72
     1
 11
2012.016745
 21
4135.596045
 31
0.0
  0
INSERT
  8
SUNPOU
  2
ARROWANG
 10
2057.016745
 20
4285.596045
 30
0.0
 41
30.0
 42
30.0
 50
90.0
 43
30.0
  0
INSERT
  8
SUNPOU
  2
ARROWANG
 10
2057.016745
 20
3985.596045
 30
0.0
 41
30.0
 42
30.0
 50
270.0
 43
30.0
  0
LINE
  8
SUNPOU
 10
1995.028735
 20
4285.596045
 30
0.0
 11
2087.016745
 21
4285.596045
 31
0.0
  0
LINE
  8
SUNPOU
 10
2057.016745
 20
3985.596045
 30
0.0
 11
2057.016745
 21
4285.596045
 31
0.0
  0
TEXT
  8
SUNPOU
 10
2012.016745
 20
3820.596045
 30
0.0
 40
60.0
  1
150
 50
90.0
  7
K
 72
     1
 11
2012.016745
 21
3910.596045
 31
0.0
  0
INSERT
  8
SUNPOU
  2
ARROWANG
 10
2057.016745
 20
3985.596045
 30
0.0
 41
30.0
 42
30.0
 50
90.0
 43
30.0
  0
INSERT
  8
SUNPOU
  2
ARROWANG
 10
2057.016745
 20
3835.596045
 30
0.0
 41
30.0
 42
30.0
 50
270.0
 43
30.0
  0
LINE
  8
SUNPOU
 10
2057.016745
 20
3835.596045
 30
0.0
 11
2057.016745
 21
3985.596045
 31
0.0
  0
LINE
  8
SUNPOU
 10
1995.028735
 20
3985.596045
 30
0.0
 11
2087.016745
 21
3985.596045
 31
0.0
  0
LINE
  8
SUNPOU
 10
1995.028735
 20
3835.596045
 30
0.0
 11
2087.016745
 21
3835.596045
 31
0.0
  0
ARC
  8
JISSEN
 10
1955.028735
 20
4285.596045
 30
0.0
 40
10.0
 50
270.0
 51
90.0
  0
LINE
  8
JISSEN
 10
1955.028735
 20
4275.596045
 30
0.0
 11
1865.028735
 21
4275.596045
 31
0.0
  0
LINE
  8
JISSEN
 10
1955.028735
 20
4295.596045
 30
0.0
 11
1865.028735
 21
4295.596045
 31
0.0
  0
LINE
  8
ITTEN
 10
1830.028735
 20
4285.596045
 30
0.0
 11
2015.028735
 21
4285.596045
 31
0.0
  0
LINE
  8
ITTEN
 10
1811.767865
 20
3985.596045
 30
0.0
 11
1996.767865
 21
3985.596045
 31
0.0
  0
ARC
  8
JISSEN
 10
1936.767865
 20
3985.596045
 30
0.0
 40
10.0
 50
270.0
 51
90.0
  0
LINE
  8
JISSEN
 10
1936.767865
 20
3975.596045
 30
0.0
 11
1846.767865
 21
3975.596045
 31
0.0
  0
LINE
  8
JISSEN
 10
1936.767865
 20
3995.596045
 30
0.0
 11
1846.767865
 21
3995.596045
 31
0.0
  0
LINE
  8
ITTEN
 10
5541.72834
 20
4285.596045
 30
0.0
 11
5726.72834
 21
4285.596045
 31
0.0
  0
LINE
  8
JISSEN
 10
5666.72834
 20
4295.596045
 30
0.0
 11
5576.72834
 21
4295.596045
 31
0.0
  0
LINE
  8
JISSEN
 10
5666.72834
 20
4275.596045
 30
0.0
 11
5576.72834
 21
4275.596045
 31
0.0
  0
ARC
  8
JISSEN
 10
5666.72834
 20
4285.596045
 30
0.0
 40
10.0
 50
270.0
 51
90.0
  0
CIRCLE
  8
HASEN
 10
3783.544788
 20
4040.596045
 30
0.0
 40
10.0
  0
CIRCLE
  8
JISSEN
 10
4511.730073
 20
4040.596045
 30
0.0
 40
10.0
  0
LINE
  8
SUNPOU
 10
4702.63743
 20
4000.596045
 30
0.0
 11
4833.441998
 21
4000.596045
 31
0.0
  0
LINE
  8
SUNPOU
 10
4541.730073
 20
4040.596045
 30
0.0
 11
4833.441998
 21
4040.596045
 31
0.0
  0
LINE
  8
SUNPOU
 10
4803.441998
 20
4000.596045
 30
0.0
 11
4803.441998
 21
4040.596045
 31
0.0
  0
INSERT
  8
SUNPOU
  2
ARROWANG
 10
4803.441998
 20
4000.596045
 30
0.0
 41
30.0
 42
30.0
 50
90.0
 43
30.0
  0
INSERT
  8
SUNPOU
  2
ARROWANG
 10
4803.441998
 20
4040.596045
 30
0.0
 41
30.0
 42
30.0
 50
270.0
 43
30.0
  0
LINE
  8
SUNPOU
 10
4803.441998
 20
4040.596045
 30
0.0
 11
4803.441998
 21
4172.596045
 31
0.0
  0
LINE
  8
SUNPOU
 10
4803.441998
 20
4000.596045
 30
0.0
 11
4803.442
 21
3940.596045
 31
0.0
  0
TEXT
  8
SUNPOU
 10
4758.441998
 20
4049.453188
 30
0.0
 40
60.0
  1
40
 50
90.0
  7
K
 72
     1
 11
4758.441998
 21
4106.596045
 31
0.0
  0
LINE
  8
SUNPOU
 10
4702.63743
 20
4000.596045
 30
0.0
 11
4942.360035
 21
4000.596045
 31
0.0
  0
LINE
  8
SUNPOU
 10
4702.63743
 20
4060.596045
 30
0.0
 11
4942.360035
 21
4060.596045
 31
0.0
  0
LINE
  8
SUNPOU
 10
4912.360035
 20
4000.596045
 30
0.0
 11
4912.360035
 21
4060.596045
 31
0.0
  0
INSERT
  8
SUNPOU
  2
ARROWANG
 10
4912.360035
 20
4000.596045
 30
0.0
 41
30.0
 42
30.0
 50
90.0
 43
30.0
  0
INSERT
  8
SUNPOU
  2
ARROWANG
 10
4912.360035
 20
4060.596045
 30
0.0
 41
30.0
 42
30.0
 50
270.0
 43
30.0
  0
LINE
  8
SUNPOU
 10
4912.360035
 20
4000.596045
 30
0.0
 11
4912.360035
 21
3868.596045
 31
0.0
  0
LINE
  8
SUNPOU
 10
4912.360035
 20
4060.596045
 30
0.0
 11
4912.360035
 21
4120.596045
 31
0.0
  0
TEXT
  8
SUNPOU
 10
4867.360035
 20
3876.024616
 30
0.0
 40
60.0
  1
60
 50
90.0
  7
K
 72
     1
 11
4867.360035
 21
3934.596045
 31
0.0
  0
TEXT
  8
SUNPOU
 10
3007.360035
 20
3726.024616
 30
0.0
 40
60.0
  1
60
 50
90.0
  7
K
 72
     1
 11
3007.360035
 21
3784.596045
 31
0.0
  0
LINE
  8
SUNPOU
 10
3052.360035
 20
3910.596045
 30
0.0
 11
3052.360035
 21
3970.596045
 31
0.0
  0
LINE
  8
SUNPOU
 10
3052.360035
 20
3850.596045
 30
0.0
 11
3052.360035
 21
3718.596045
 31
0.0
  0
INSERT
  8
SUNPOU
  2
ARROWANG
 10
3052.360035
 20
3910.596045
 30
0.0
 41
30.0
 42
30.0
 50
270.0
 43
30.0
  0
INSERT
  8
SUNPOU
  2
ARROWANG
 10
3052.360035
 20
3850.596045
 30
0.0
 41
30.0
 42
30.0
 50
90.0
 43
30.0
  0
LINE
  8
SUNPOU
 10
3052.360035
 20
3850.596045
 30
0.0
 11
3052.360035
 21
3910.596045
 31
0.0
  0
LINE
  8
SUNPOU
 10
2842.63743
 20
3910.596045
 30
0.0
 11
3082.360035
 21
3910.596045
 31
0.0
  0
LINE
  8
SUNPOU
 10
2842.63743
 20
3850.596045
 30
0.0
 11
3082.360035
 21
3850.596045
 31
0.0
  0
TEXT
  8
SUNPOU
 10
2898.441998
 20
3899.453188
 30
0.0
 40
60.0
  1
40
 50
90.0
  7
K
 72
     1
 11
2898.441998
 21
3956.596045
 31
0.0
  0
LINE
  8
SUNPOU
 10
2943.441998
 20
3850.596045
 30
0.0
 11
2943.442
 21
3790.596045
 31
0.0
  0
LINE
  8
SUNPOU
 10
2943.441998
 20
3890.596045
 30
0.0
 11
2943.441998
 21
4022.596045
 31
0.0
  0
INSERT
  8
SUNPOU
  2
ARROWANG
 10
2943.441998
 20
3890.596045
 30
0.0
 41
30.0
 42
30.0
 50
270.0
 43
30.0
  0
INSERT
  8
SUNPOU
  2
ARROWANG
 10
2943.441998
 20
3850.596045
 30
0.0
 41
30.0
 42
30.0
 50
90.0
 43
30.0
  0
LINE
  8
SUNPOU
 10
2943.441998
 20
3850.596045
 30
0.0
 11
2943.441998
 21
3890.596045
 31
0.0
  0
LINE
  8
SUNPOU
 10
2681.730073
 20
3890.596045
 30
0.0
 11
2973.441998
 21
3890.596045
 31
0.0
  0
LINE
  8
SUNPOU
 10
2842.63743
 20
3850.596045
 30
0.0
 11
2973.441998
 21
3850.596045
 31
0.0
  0
CIRCLE
  8
JISSEN
 10
2651.730073
 20
3890.596045
 30
0.0
 40
10.0
  0
CIRCLE
  8
HASEN
 10
1923.544788
 20
3890.596045
 30
0.0
 40
10.0
  0
LINE
  8
SUNPOU
 10
3622.63743
 20
3970.596045
 30
0.0
 11
3622.63743
 21
3693.448086
 31
0.0
  0
LINE
  8
SUNPOU
 10
4672.63743
 20
3970.596045
 30
0.0
 11
4672.63743
 21
3693.448086
 31
0.0
  0
LINE
  8
SUNPOU
 10
3622.63743
 20
3723.448086
 30
0.0
 11
4672.63743
 21
3723.448086
 31
0.0
  0
INSERT
  8
SUNPOU
  2
ARROWANG
 10
3622.63743
 20
3723.448086
 30
0.0
 41
30.0
 42
30.0
 50
180.0
 43
30.0
  0
INSERT
  8
SUNPOU
  2
ARROWANG
 10
4672.63743
 20
3723.448086
 30
0.0
 41
30.0
 42
30.0
 43
30.0
  0
TEXT
  8
SUNPOU
 10
4029.066017
 20
3768.448086
 30
0.0
 40
60.0
  1
1050
  7
K
 72
     1
 11
4147.637445
 21
3768.448086
 31
0.0
  0
LINE
  8
SUNPOU
 10
3622.63743
 20
3970.596045
 30
0.0
 11
3622.63743
 21
3832.396997
 31
0.0
  0
LINE
  8
SUNPOU
 10
3697.63743
 20
3955.596045
 30
0.0
 11
3697.63743
 21
3832.396997
 31
0.0
  0
LINE
  8
SUNPOU
 10
3622.63743
 20
3862.396997
 30
0.0
 11
3697.63743
 21
3862.396997
 31
0.0
  0
INSERT
  8
SUNPOU
  2
ARROWANG
 10
3622.63743
 20
3862.396997
 30
0.0
 41
30.0
 42
30.0
 50
180.0
 43
30.0
  0
INSERT
  8
SUNPOU
  2
ARROWANG
 10
3697.63743
 20
3862.396997
 30
0.0
 41
30.0
 42
30.0
 43
30.0
  0
TEXT
  8
SUNPOU
 10
3602.994588
 20
3907.396997
 30
0.0
 40
60.0
  1
75
  7
K
 72
     1
 11
3660.137445
 21
3907.396997
 31
0.0
  0
LINE
  8
SUNPOU
 10
3697.63743
 20
3862.396997
 30
0.0
 11
4597.63743
 21
3862.396997
 31
0.0
  0
LINE
  8
SUNPOU
 10
4597.63743
 20
3955.596045
 30
0.0
 11
4597.63743
 21
3832.396997
 31
0.0
  0
INSERT
  8
SUNPOU
  2
ARROWANG
 10
3697.63743
 20
3862.396997
 30
0.0
 41
30.0
 42
30.0
 50
180.0
 43
30.0
  0
INSERT
  8
SUNPOU
  2
ARROWANG
 10
4597.63743
 20
3862.396997
 30
0.0
 41
30.0
 42
30.0
 43
30.0
  0
TEXT
  8
SUNPOU
 10
4061.923145
 20
3907.396997
 30
0.0
 40
60.0
  1
900
  7
K
 72
     1
 11
4147.63743
 21
3907.396997
 31
0.0
  0
LINE
  8
SUNPOU
 10
4597.63743
 20
3862.396997
 30
0.0
 11
4672.63743
 21
3862.396997
 31
0.0
  0
LINE
  8
SUNPOU
 10
4672.63743
 20
3970.596045
 30
0.0
 11
4672.63743
 21
3832.396997
 31
0.0
  0
INSERT
  8
SUNPOU
  2
ARROWANG
 10
4597.63743
 20
3862.396997
 30
0.0
 41
30.0
 42
30.0
 50
180.0
 43
30.0
  0
INSERT
  8
SUNPOU
  2
ARROWANG
 10
4672.63743
 20
3862.396997
 30
0.0
 41
30.0
 42
30.0
 43
30.0
  0
TEXT
  8
SUNPOU
 10
4577.994573
 20
3907.396997
 30
0.0
 40
60.0
  1
75
  7
K
 72
     1
 11
4635.13743
 21
3907.396997
 31
0.0
  0
TEXT
  8
SUNPOU
 10
2717.994573
 20
3757.396997
 30
0.0
 40
60.0
  1
75
  7
K
 72
     1
 11
2775.13743
 21
3757.396997
 31
0.0
  0
INSERT
  8
SUNPOU
  2
ARROWANG
 10
2812.63743
 20
3712.396997
 30
0.0
 41
30.0
 42
30.0
 43
30.0
  0
INSERT
  8
SUNPOU
  2
ARROWANG
 10
2737.63743
 20
3712.396997
 30
0.0
 41
30.0
 42
30.0
 50
180.0
 43
30.0
  0
LINE
  8
SUNPOU
 10
2812.63743
 20
3820.596045
 30
0.0
 11
2812.63743
 21
3682.396997
 31
0.0
  0
LINE
  8
SUNPOU
 10
2737.63743
 20
3712.396997
 30
0.0
 11
2812.63743
 21
3712.396997
 31
0.0
  0
TEXT
  8
SUNPOU
 10
2201.923145
 20
3757.396997
 30
0.0
 40
60.0
  1
900
  7
K
 72
     1
 11
2287.63743
 21
3757.396997
 31
0.0
  0
INSERT
  8
SUNPOU
  2
ARROWANG
 10
2737.63743
 20
3712.396997
 30
0.0
 41
30.0
 42
30.0
 43
30.0
  0
INSERT
  8
SUNPOU
  2
ARROWANG
 10
1837.63743
 20
3712.396997
 30
0.0
 41
30.0
 42
30.0
 50
180.0
 43
30.0
  0
LINE
  8
SUNPOU
 10
2737.63743
 20
3805.596045
 30
0.0
 11
2737.63743
 21
3682.396997
 31
0.0
  0
LINE
  8
SUNPOU
 10
1837.63743
 20
3712.396997
 30
0.0
 11
2737.63743
 21
3712.396997
 31
0.0
  0
TEXT
  8
SUNPOU
 10
1742.994588
 20
3757.396997
 30
0.0
 40
60.0
  1
75
  7
K
 72
     1
 11
1800.137445
 21
3757.396997
 31
0.0
  0
INSERT
  8
SUNPOU
  2
ARROWANG
 10
1837.63743
 20
3712.396997
 30
0.0
 41
30.0
 42
30.0
 43
30.0
  0
INSERT
  8
SUNPOU
  2
ARROWANG
 10
1762.63743
 20
3712.396997
 30
0.0
 41
30.0
 42
30.0
 50
180.0
 43
30.0
  0
LINE
  8
SUNPOU
 10
1762.63743
 20
3712.396997
 30
0.0
 11
1837.63743
 21
3712.396997
 31
0.0
  0
LINE
  8
SUNPOU
 10
1837.63743
 20
3805.596045
 30
0.0
 11
1837.63743
 21
3682.396997
 31
0.0
  0
LINE
  8
SUNPOU
 10
1762.63743
 20
3820.596045
 30
0.0
 11
1762.63743
 21
3682.396997
 31
0.0
  0
TEXT
  8
SUNPOU
 10
2169.066017
 20
3618.448086
 30
0.0
 40
60.0
  1
1050
  7
K
 72
     1
 11
2287.637445
 21
3618.448086
 31
0.0
  0
INSERT
  8
SUNPOU
  2
ARROWANG
 10
2812.63743
 20
3573.448086
 30
0.0
 41
30.0
 42
30.0
 43
30.0
  0
INSERT
  8
SUNPOU
  2
ARROWANG
 10
1762.63743
 20
3573.448086
 30
0.0
 41
30.0
 42
30.0
 50
180.0
 43
30.0
  0
LINE
  8
SUNPOU
 10
1762.63743
 20
3573.448086
 30
0.0
 11
2812.63743
 21
3573.448086
 31
0.0
  0
LINE
  8
SUNPOU
 10
2812.63743
 20
3820.596045
 30
0.0
 11
2812.63743
 21
3543.448086
 31
0.0
  0
LINE
  8
SUNPOU
 10
1762.63743
 20
3820.596045
 30
0.0
 11
1762.63743
 21
3543.448086
 31
0.0
  0
LINE
  8
SUNPOU
 10
3622.63743
 20
4475.596045
 30
0.0
 11
3622.63743
 21
4721.192089
 31
0.0
  0
LINE
  8
SUNPOU
 10
4442.63743
 20
4475.596045
 30
0.0
 11
4442.63743
 21
4721.192089
 31
0.0
  0
LINE
  8
SUNPOU
 10
3622.63743
 20
4691.192089
 30
0.0
 11
4442.63743
 21
4691.192089
 31
0.0
  0
INSERT
  8
SUNPOU
  2
ARROWANG
 10
3622.63743
 20
4691.192089
 30
0.0
 41
30.0
 42
30.0
 50
180.0
 43
30.0
  0
INSERT
  8
SUNPOU
  2
ARROWANG
 10
4442.63743
 20
4691.192089
 30
0.0
 41
30.0
 42
30.0
 43
30.0
  0
TEXT
  8
SUNPOU
 10
3946.923159
 20
4736.192089
 30
0.0
 40
60.0
  1
820
  7
K
 72
     1
 11
4032.637445
 21
4736.192089
 31
0.0
  0
LINE
  8
SUNPOU
 10
3622.63743
 20
4475.596045
 30
0.0
 11
3622.63743
 21
4598.65043
 31
0.0
  0
LINE
  8
SUNPOU
 10
3732.63743
 20
4460.596045
 30
0.0
 11
3732.63743
 21
4598.65043
 31
0.0
  0
LINE
  8
SUNPOU
 10
3622.63743
 20
4568.65043
 30
0.0
 11
3732.63743
 21
4568.65043
 31
0.0
  0
INSERT
  8
SUNPOU
  2
ARROWANG
 10
3622.63743
 20
4568.65043
 30
0.0
 41
30.0
 42
30.0
 50
180.0
 43
30.0
  0
INSERT
  8
SUNPOU
  2
ARROWANG
 10
3732.63743
 20
4568.65043
 30
0.0
 41
30.0
 42
30.0
 43
30.0
  0
TEXT
  8
SUNPOU
 10
3587.637445
 20
4613.65043
 30
0.0
 40
60.0
  1
110
  7
K
 72
     1
 11
3677.637445
 21
4613.65043
 31
0.0
  0
LINE
  8
SUNPOU
 10
3732.63743
 20
4568.65043
 30
0.0
 11
4332.63743
 21
4568.65043
 31
0.0
  0
LINE
  8
SUNPOU
 10
4332.63743
 20
4460.596045
 30
0.0
 11
4332.63743
 21
4598.65043
 31
0.0
  0
INSERT
  8
SUNPOU
  2
ARROWANG
 10
3732.63743
 20
4568.65043
 30
0.0
 41
30.0
 42
30.0
 50
180.0
 43
30.0
  0
INSERT
  8
SUNPOU
  2
ARROWANG
 10
4332.63743
 20
4568.65043
 30
0.0
 41
30.0
 42
30.0
 43
30.0
  0
TEXT
  8
SUNPOU
 10
3945.494573
 20
4613.65043
 30
0.0
 40
60.0
  1
600
  7
K
 72
     1
 11
4032.63743
 21
4613.65043
 31
0.0
  0
LINE
  8
SUNPOU
 10
4332.63743
 20
4568.65043
 30
0.0
 11
4442.63743
 21
4568.65043
 31
0.0
  0
LINE
  8
SUNPOU
 10
4442.63743
 20
4475.596045
 30
0.0
 11
4442.63743
 21
4598.65043
 31
0.0
  0
INSERT
  8
SUNPOU
  2
ARROWANG
 10
4332.63743
 20
4568.65043
 30
0.0
 41
30.0
 42
30.0
 50
180.0
 43
30.0
  0
INSERT
  8
SUNPOU
  2
ARROWANG
 10
4442.63743
 20
4568.65043
 30
0.0
 41
30.0
 42
30.0
 43
30.0
  0
TEXT
  8
SUNPOU
 10
4297.63743
 20
4613.65043
 30
0.0
 40
60.0
  1
110
  7
K
 72
     1
 11
4387.63743
 21
4613.65043
 31
0.0
  0
TEXT
  8
SUNPOU
 10
2437.63743
 20
4613.65043
 30
0.0
 40
60.0
  1
110
  7
K
 72
     1
 11
2527.63743
 21
4613.65043
 31
0.0
  0
INSERT
  8
SUNPOU
  2
ARROWANG
 10
2582.63743
 20
4568.65043
 30
0.0
 41
30.0
 42
30.0
 43
30.0
  0
INSERT
  8
SUNPOU
  2
ARROWANG
 10
2472.63743
 20
4568.65043
 30
0.0
 41
30.0
 42
30.0
 50
180.0
 43
30.0
  0
LINE
  8
SUNPOU
 10
2582.63743
 20
4475.596045
 30
0.0
 11
2582.63743
 21
4598.65043
 31
0.0
  0
LINE
  8
SUNPOU
 10
2472.63743
 20
4568.65043
 30
0.0
 11
2582.63743
 21
4568.65043
 31
0.0
  0
TEXT
  8
SUNPOU
 10
2085.494573
 20
4613.65043
 30
0.0
 40
60.0
  1
600
  7
K
 72
     1
 11
2172.63743
 21
4613.65043
 31
0.0
  0
INSERT
  8
SUNPOU
  2
ARROWANG
 10
2472.63743
 20
4568.65043
 30
0.0
 41
30.0
 42
30.0
 43
30.0
  0
INSERT
  8
SUNPOU
  2
ARROWANG
 10
1872.63743
 20
4568.65043
 30
0.0
 41
30.0
 42
30.0
 50
180.0
 43
30.0
  0
LINE
  8
SUNPOU
 10
2472.63743
 20
4460.596045
 30
0.0
 11
2472.63743
 21
4598.65043
 31
0.0
  0
LINE
  8
SUNPOU
 10
1872.63743
 20
4568.65043
 30
0.0
 11
2472.63743
 21
4568.65043
 31
0.0
  0
TEXT
  8
SUNPOU
 10
1727.637445
 20
4613.65043
 30
0.0
 40
60.0
  1
110
  7
K
 72
     1
 11
1817.637445
 21
4613.65043
 31
0.0
  0
INSERT
  8
SUNPOU
  2
ARROWANG
 10
1872.63743
 20
4568.65043
 30
0.0
 41
30.0
 42
30.0
 43
30.0
  0
INSERT
  8
SUNPOU
  2
ARROWANG
 10
1762.63743
 20
4568.65043
 30
0.0
 41
30.0
 42
30.0
 50
180.0
 43
30.0
  0
LINE
  8
SUNPOU
 10
1762.63743
 20
4568.65043
 30
0.0
 11
1872.63743
 21
4568.65043
 31
0.0
  0
LINE
  8
SUNPOU
 10
1872.63743
 20
4460.596045
 30
0.0
 11
1872.63743
 21
4598.65043
 31
0.0
  0
LINE
  8
SUNPOU
 10
1762.63743
 20
4475.596045
 30
0.0
 11
1762.63743
 21
4598.65043
 31
0.0
  0
TEXT
  8
SUNPOU
 10
2086.923159
 20
4736.192089
 30
0.0
 40
60.0
  1
820
  7
K
 72
     1
 11
2172.637445
 21
4736.192089
 31
0.0
  0
INSERT
  8
SUNPOU
  2
ARROWANG
 10
2582.63743
 20
4691.192089
 30
0.0
 41
30.0
 42
30.0
 43
30.0
  0
INSERT
  8
SUNPOU
  2
ARROWANG
 10
1762.63743
 20
4691.192089
 30
0.0
 41
30.0
 42
30.0
 50
180.0
 43
30.0
  0
LINE
  8
SUNPOU
 10
1762.63743
 20
4691.192089
 30
0.0
 11
2582.63743
 21
4691.192089
 31
0.0
  0
LINE
  8
SUNPOU
 10
2582.63743
 20
4475.596045
 30
0.0
 11
2582.63743
 21
4721.192089
 31
0.0
  0
LINE
  8
SUNPOU
 10
1762.63743
 20
4475.596045
 30
0.0
 11
1762.63743
 21
4721.192089
 31
0.0
  0
TEXT
  8
SUNPOU
 10
1539.480032
 20
4062.381759
 30
0.0
 40
60.0
  1
595
 50
90.0
  7
K
 72
     1
 11
1539.480032
 21
4148.096045
 31
0.0
  0
INSERT
  8
SUNPOU
  2
ARROWANG
 10
1584.480032
 20
4445.596045
 30
0.0
 41
30.0
 42
30.0
 50
90.0
 43
30.0
  0
INSERT
  8
SUNPOU
  2
ARROWANG
 10
1584.480032
 20
3850.596045
 30
0.0
 41
30.0
 42
30.0
 50
270.0
 43
30.0
  0
LINE
  8
SUNPOU
 10
1584.480032
 20
3850.596045
 30
0.0
 11
1584.480032
 21
4445.596045
 31
0.0
  0
LINE
  8
SUNPOU
 10
1732.63743
 20
4445.596045
 30
0.0
 11
1554.480032
 21
4445.596045
 31
0.0
  0
LINE
  8
SUNPOU
 10
1732.63743
 20
3850.596045
 30
0.0
 11
1554.480032
 21
3850.596045
 31
0.0
  0
LINE
  8
ITTEN
 10
5875.247089
 20
4492.474356
 30
0.0
 11
6025.027772
 21
4088.717734
 31
0.0
  0
LINE
  8
JISSEN
 10
5592.63743
 20
4410.596045
 30
0.0
 11
5557.63743
 21
4135.596045
 31
0.0
  0
LINE
  8
JISSEN
 10
6302.63743
 20
4445.596045
 30
0.0
 11
6532.63743
 21
4210.596045
 31
0.0
  0
LINE
  8
HASEN
 10
6457.63743
 20
4135.596045
 30
0.0
 11
6192.63743
 21
4410.596045
 31
0.0
  0
LINE
  8
JISSEN
 10
6532.63743
 20
4150.596045
 30
0.0
 11
6532.63743
 21
4210.596045
 31
0.0
  0
LINE
  8
JISSEN
 10
5482.63743
 20
4445.596045
 30
0.0
 11
5482.63743
 21
4150.596045
 31
0.0
  0
LINE
  8
JISSEN
 10
6007.63743
 20
4150.596045
 30
0.0
 11
6491.63743
 21
4150.596045
 31
0.0
  0
LINE
  8
JISSEN
 10
6482.63743
 20
4135.596045
 30
0.0
 11
6007.63743
 21
4135.596045
 31
0.0
  0
LINE
  8
JISSEN
 10
6491.63743
 20
4150.596045
 30
0.0
 11
6482.63743
 21
4135.596045
 31
0.0
  0
LINE
  8
JISSEN
 10
6532.63743
 20
4150.596045
 30
0.0
 11
6491.63743
 21
4150.596045
 31
0.0
  0
LINE
  8
JISSEN
 10
5532.63743
 20
4135.596045
 30
0.0
 11
6007.63743
 21
4135.596045
 31
0.0
  0
LINE
  8
JISSEN
 10
5523.63743
 20
4150.596045
 30
0.0
 11
5532.63743
 21
4135.596045
 31
0.0
  0
LINE
  8
JISSEN
 10
5482.63743
 20
4150.596045
 30
0.0
 11
5523.63743
 21
4150.596045
 31
0.0
  0
LINE
  8
JISSEN
 10
5592.63743
 20
4430.596045
 30
0.0
 11
5592.63743
 21
4410.596045
 31
0.0
  0
LINE
  8
HASEN
 10
6192.63743
 20
4430.596045
 30
0.0
 11
6192.63743
 21
4410.596045
 31
0.0
  0
LINE
  8
JISSEN
 10
5482.63743
 20
4445.596045
 30
0.0
 11
6302.63743
 21
4445.596045
 31
0.0
  0
LINE
  8
JISSEN
 10
5560.63743
 20
4445.596045
 30
0.0
 11
5566.63743
 21
4430.596045
 31
0.0
  0
LINE
  8
JISSEN
 10
5566.63743
 20
4430.596045
 30
0.0
 11
5892.63743
 21
4430.596045
 31
0.0
  0
LINE
  8
HASEN
 10
6224.63743
 20
4445.596045
 30
0.0
 11
6218.63743
 21
4430.596045
 31
0.0
  0
LINE
  8
HASEN
 10
6218.63743
 20
4430.596045
 30
0.0
 11
5892.63743
 21
4430.596045
 31
0.0
  0
LINE
  8
ITTEN
 10
4020.510649
 20
4494.10317
 30
0.0
 11
4159.764212
 21
3937.08892
 31
0.0
  0
LINE
  8
HASEN
 10
4332.63743
 20
4410.596045
 30
0.0
 11
4597.63743
 21
3985.596045
 31
0.0
  0
LINE
  8
JISSEN
 10
3732.63743
 20
4410.596045
 30
0.0
 11
3697.63743
 21
3985.596045
 31
0.0
  0
LINE
  8
JISSEN
 10
4442.63743
 20
4445.596045
 30
0.0
 11
4672.63743
 21
4060.596045
 31
0.0
  0
LINE
  8
HASEN
 10
4358.63743
 20
4430.596045
 30
0.0
 11
4032.63743
 21
4430.596045
 31
0.0
  0
LINE
  8
HASEN
 10
4364.63743
 20
4445.596045
 30
0.0
 11
4358.63743
 21
4430.596045
 31
0.0
  0
LINE
  8
JISSEN
 10
3706.63743
 20
4430.596045
 30
0.0
 11
4032.63743
 21
4430.596045
 31
0.0
  0
LINE
  8
JISSEN
 10
3700.63743
 20
4445.596045
 30
0.0
 11
3706.63743
 21
4430.596045
 31
0.0
  0
LINE
  8
JISSEN
 10
3622.63743
 20
4445.596045
 30
0.0
 11
4442.63743
 21
4445.596045
 31
0.0
  0
LINE
  8
HASEN
 10
4332.63743
 20
4430.596045
 30
0.0
 11
4332.63743
 21
4410.596045
 31
0.0
  0
LINE
  8
JISSEN
 10
3732.63743
 20
4430.596045
 30
0.0
 11
3732.63743
 21
4410.596045
 31
0.0
  0
LINE
  8
JISSEN
 10
3622.63743
 20
4000.596045
 30
0.0
 11
3663.63743
 21
4000.596045
 31
0.0
  0
LINE
  8
JISSEN
 10
3663.63743
 20
4000.596045
 30
0.0
 11
3672.63743
 21
3985.596045
 31
0.0
  0
LINE
  8
JISSEN
 10
3672.63743
 20
3985.596045
 30
0.0
 11
4147.63743
 21
3985.596045
 31
0.0
  0
LINE
  8
JISSEN
 10
4672.63743
 20
4000.596045
 30
0.0
 11
4631.63743
 21
4000.596045
 31
0.0
  0
LINE
  8
JISSEN
 10
4631.63743
 20
4000.596045
 30
0.0
 11
4622.63743
 21
3985.596045
 31
0.0
  0
LINE
  8
JISSEN
 10
4622.63743
 20
3985.596045
 30
0.0
 11
4147.63743
 21
3985.596045
 31
0.0
  0
LINE
  8
JISSEN
 10
4147.63743
 20
4000.596045
 30
0.0
 11
4631.63743
 21
4000.596045
 31
0.0
  0
LINE
  8
JISSEN
 10
3622.63743
 20
4445.596045
 30
0.0
 11
3622.63743
 21
4000.596045
 31
0.0
  0
LINE
  8
JISSEN
 10
4672.63743
 20
4000.596045
 30
0.0
 11
4672.63743
 21
4060.596045
 31
0.0
  0
ARC
  8
JISSEN
 10
1927.63743
 20
2944.358176
 30
0.0
 40
10.0
 50
0.0
 51
90.0
  0
ARC
  8
JISSEN
 10
1907.63743
 20
2924.358176
 30
0.0
 40
10.0
 50
0.0
 51
90.0
  0
ARC
  8
JISSEN
 10
1907.63743
 20
2684.358176
 30
0.0
 40
10.0
 50
270.0
 51
0.0
  0
ARC
  8
JISSEN
 10
1927.63743
 20
2664.358176
 30
0.0
 40
10.0
 50
270.0
 51
0.0
  0
LINE
  8
JISSEN
 10
1907.63743
 20
2934.358176
 30
0.0
 11
1902.267314
 21
2934.358176
 31
0.0
  0
LINE
  8
JISSEN
 10
1917.63743
 20
2684.358176
 30
0.0
 11
1917.63743
 21
2924.358176
 31
0.0
  0
LINE
  8
JISSEN
 10
1902.267314
 20
2674.358176
 30
0.0
 11
1907.63743
 21
2674.358176
 31
0.0
  0
LINE
  8
JISSEN
 10
1927.63743
 20
2954.358176
 30
0.0
 11
1912.829809
 21
2954.358176
 31
0.0
  0
LINE
  8
JISSEN
 10
1937.63743
 20
2944.358176
 30
0.0
 11
1937.63743
 21
2664.358176
 31
0.0
  0
LINE
  8
JISSEN
 10
1912.829809
 20
2654.358176
 30
0.0
 11
1927.63743
 21
2654.358176
 31
0.0
  0
LINE
  8
ITTEN
 10
2287.63743
 20
3379.358176
 30
0.0
 11
2287.63743
 21
2229.358176
 31
0.0
  0
LINE
  8
ITTEN
 10
1987.117048
 20
3104.878558
 30
0.0
 11
1881.051031
 21
3210.944575
 31
0.0
  0
LINE
  8
HASEN
 10
1958.832777
 20
3147.304965
 30
0.0
 11
1923.544788
 21
3182.592954
 31
0.0
  0
LINE
  8
HASEN
 10
1958.832777
 20
3147.304965
 30
0.0
 11
1944.690642
 21
3133.162829
 31
0.0
  0
LINE
  8
HASEN
 10
1909.402652
 20
3168.450819
 30
0.0
 11
1944.690642
 21
3133.162829
 31
0.0
  0
LINE
  8
HASEN
 10
2665.872209
 20
2440.265533
 30
0.0
 11
2630.584219
 21
2475.553523
 31
0.0
  0
LINE
  8
HASEN
 10
2616.442084
 20
2461.411387
 30
0.0
 11
2630.584219
 21
2475.553523
 31
0.0
  0
LINE
  8
HASEN
 10
2616.442084
 20
2461.411387
 30
0.0
 11
2651.730073
 21
2426.123398
 31
0.0
  0
LINE
  8
ITTEN
 10
2588.157812
 20
2503.837794
 30
0.0
 11
2694.22383
 21
2397.771777
 31
0.0
  0
CIRCLE
  8
HASEN
 10
2287.63743
 20
2804.358176
 30
0.0
 40
450.0
  0
CIRCLE
  8
JISSEN
 10
2287.63743
 20
2804.358176
 30
0.0
 40
525.0
  0
LINE
  8
ITTEN
 10
2163.374375
 20
4494.730511
 30
0.0
 11
2296.900486
 21
3786.461578
 31
0.0
  0
LINE
  8
HASEN
 10
2472.63743
 20
4410.596045
 30
0.0
 11
2737.63743
 21
3835.596045
 31
0.0
  0
LINE
  8
JISSEN
 10
2812.63743
 20
3910.596045
 30
0.0
 11
2582.63743
 21
4445.596045
 31
0.0
  0
LINE
  8
JISSEN
 10
2812.63743
 20
3850.596045
 30
0.0
 11
2812.63743
 21
3910.596045
 31
0.0
  0
LINE
  8
JISSEN
 10
1837.63743
 20
3835.596045
 30
0.0
 11
1872.63743
 21
4410.596045
 31
0.0
  0
LINE
  8
JISSEN
 10
1762.63743
 20
4445.596045
 30
0.0
 11
1762.63743
 21
3850.596045
 31
0.0
  0
LINE
  8
JISSEN
 10
2287.63743
 20
3850.596045
 30
0.0
 11
2771.63743
 21
3850.596045
 31
0.0
  0
LINE
  8
JISSEN
 10
2762.63743
 20
3835.596045
 30
0.0
 11
2287.63743
 21
3835.596045
 31
0.0
  0
LINE
  8
JISSEN
 10
2771.63743
 20
3850.596045
 30
0.0
 11
2762.63743
 21
3835.596045
 31
0.0
  0
LINE
  8
JISSEN
 10
2812.63743
 20
3850.596045
 30
0.0
 11
2771.63743
 21
3850.596045
 31
0.0
  0
LINE
  8
JISSEN
 10
1812.63743
 20
3835.596045
 30
0.0
 11
2287.63743
 21
3835.596045
 31
0.0
  0
LINE
  8
JISSEN
 10
1803.63743
 20
3850.596045
 30
0.0
 11
1812.63743
 21
3835.596045
 31
0.0
  0
LINE
  8
JISSEN
 10
1762.63743
 20
3850.596045
 30
0.0
 11
1803.63743
 21
3850.596045
 31
0.0
  0
LINE
  8
JISSEN
 10
1872.63743
 20
4430.596045
 30
0.0
 11
1872.63743
 21
4410.596045
 31
0.0
  0
LINE
  8
HASEN
 10
2472.63743
 20
4430.596045
 30
0.0
 11
2472.63743
 21
4410.596045
 31
0.0
  0
LINE
  8
JISSEN
 10
1762.63743
 20
4445.596045
 30
0.0
 11
2582.63743
 21
4445.596045
 31
0.0
  0
LINE
  8
JISSEN
 10
1840.63743
 20
4445.596045
 30
0.0
 11
1846.63743
 21
4430.596045
 31
0.0
  0
LINE
  8
JISSEN
 10
1846.63743
 20
4430.596045
 30
0.0
 11
2172.63743
 21
4430.596045
 31
0.0
  0
LINE
  8
HASEN
 10
2504.63743
 20
4445.596045
 30
0.0
 11
2498.63743
 21
4430.596045
 31
0.0
  0
LINE
  8
HASEN
 10
2498.63743
 20
4430.596045
 30
0.0
 11
2172.63743
 21
4430.596045
 31
0.0
  0
CIRCLE
  8
JISSEN
 10
2172.63743
 20
2804.358176
 30
0.0
 40
332.0
  0
CIRCLE
  8
JISSEN
 10
2172.63743
 20
2804.358176
 30
0.0
 40
300.0
  0
CIRCLE
  8
JISSEN
 10
2172.63743
 20
2804.358176
 30
0.0
 40
326.0
  0
CIRCLE
  8
JISSEN
 10
2172.63743
 20
2804.358176
 30
0.0
 40
410.0
  0
CIRCLE
  8
JISSEN
 10
2172.63743
 20
3184.358176
 30
0.0
 40
11.0
  0
LINE
  8
ITTEN
 10
2111.63743
 20
3184.358176
 30
0.0
 11
2233.63743
 21
3184.358176
 31
0.0
  0
LINE
  8
ITTEN
 10
2172.63743
 20
3245.358176
 30
0.0
 11
2172.63743
 21
3123.358176
 31
0.0
  0
POINT
  8
JISSEN
 10
2172.63743
 20
2805.358176
 30
0.0
  0
LINE
  8
ITTEN
 10
1874.047777
 20
2561.530627
 30
0.0
 11
1813.047777
 21
2667.185726
 31
0.0
  0
CIRCLE
  8
JISSEN
 10
1843.547777
 20
2614.358176
 30
0.0
 40
11.0
  0
LINE
  8
ITTEN
 10
1790.720227
 20
2583.858176
 30
0.0
 11
1896.375327
 21
2644.858176
 31
0.0
  0
LINE
  8
ITTEN
 10
2532.227084
 20
2667.185726
 30
0.0
 11
2471.227084
 21
2561.530627
 31
0.0
  0
CIRCLE
  8
JISSEN
 10
2501.727084
 20
2614.358176
 30
0.0
 40
11.0
  0
LINE
  8
ITTEN
 10
2554.554634
 20
2583.858176
 30
0.0
 11
2448.899534
 21
2644.858176
 31
0.0
  0
LINE
  8
ITTEN
 10
1712.63743
 20
2804.358176
 30
0.0
 11
2632.63743
 21
2804.358176
 31
0.0
  0
LINE
  8
ITTEN
 10
2172.63743
 20
3264.358176
 30
0.0
 11
2172.63743
 21
2344.358176
 31
0.0
  0
POLYLINE
  8
WAKU
 66
     1
 10
0.0
 20
0.0
 30
0.0
 70
     1
  0
VERTEX
  8
WAKU
 10
0.0
 20
0.0
 30
0.0
  0
VERTEX
  8
WAKU
 10
11850.0
 20
0.0
 30
0.0
  0
VERTEX
  8
WAKU
 10
11850.0
 20
8190.0
 30
0.0
  0
VERTEX
  8
WAKU
 10
0.0
 20
8190.0
 30
0.0
  0
SEQEND
  8
WAKU
  0
TEXT
  8
TEXT
 10
11272.181518
 20
699.955772
 30
0.0
 40
120.0
  1
1/30
  7
K
  0
ENDSEC
  0
EOF
