  0
SECTION
  2
HEADER
  9
$ACADVER
  1
AC1014
  9
$ACADMAINTVER
 70
     9
  9
$DWGCODEPAGE
  3
ANSI_932
  9
$INSBASE
 10
0.0
 20
0.0
 30
0.0
  9
$EXTMIN
 10
0.0
 20
0.0
 30
0.0
  9
$EXTMAX
 10
11850.0
 20
8190.0
 30
0.0
  9
$LIMMIN
 10
0.0
 20
0.0
  9
$LIMMAX
 10
11850.0
 20
8190.0
  9
$ORTHOMODE
 70
     0
  9
$REGENMODE
 70
     1
  9
$FILLMODE
 70
     1
  9
$QTEXTMODE
 70
     0
  9
$MIRRTEXT
 70
     0
  9
$DRAGMODE
 70
     2
  9
$LTSCALE
 40
150.0
  9
$OSMODE
 70
    37
  9
$ATTMODE
 70
     1
  9
$TEXTSIZE
 40
350.0
  9
$TRACEWID
 40
0.05
  9
$TEXTSTYLE
  7
K
  9
$CLAYER
  8
TEXT
  9
$CELTYPE
  6
BYLAYER
  9
$CECOLOR
 62
   256
  9
$CELTSCALE
 40
1.0
  9
$DELOBJ
 70
     1
  9
$DISPSILH
 70
     0
  9
$DIMSCALE
 40
30.0
  9
$DIMASZ
 40
1.5
  9
$DIMEXO
 40
1.0
  9
$DIMDLI
 40
6.0
  9
$DIMRND
 40
0.0
  9
$DIMDLE
 40
0.0
  9
$DIMEXE
 40
1.0
  9
$DIMTP
 40
495.0
  9
$DIMTM
 40
0.0
  9
$DIMTXT
 40
3.0
  9
$DIMCEN
 40
0.0
  9
$DIMTSZ
 40
0.0
  9
$DIMTOL
 70
     0
  9
$DIMLIM
 70
     0
  9
$DIMTIH
 70
     0
  9
$DIMTOH
 70
     0
  9
$DIMSE1
 70
     0
  9
$DIMSE2
 70
     0
  9
$DIMTAD
 70
     1
  9
$DIMZIN
 70
     8
  9
$DIMBLK
  1

  9
$DIMASO
 70
     0
  9
$DIMSHO
 70
     0
  9
$DIMPOST
  1

  9
$DIMAPOST
  1

  9
$DIMALT
 70
     0
  9
$DIMALTD
 70
     2
  9
$DIMALTF
 40
25.4
  9
$DIMLFAC
 40
1.0
  9
$DIMTOFL
 70
     1
  9
$DIMTVP
 40
0.0
  9
$DIMTIX
 70
     1
  9
$DIMSOXD
 70
     0
  9
$DIMSAH
 70
     0
  9
$DIMBLK1
  1

  9
$DIMBLK2
  1

  9
$DIMSTYLE
  2
STANDARD
  9
$DIMCLRD
 70
     0
  9
$DIMCLRE
 70
     0
  9
$DIMCLRT
 70
     0
  9
$DIMTFAC
 40
1.0
  9
$DIMGAP
 40
0.09
  9
$DIMJUST
 70
     0
  9
$DIMSD1
 70
     0
  9
$DIMSD2
 70
     0
  9
$DIMTOLJ
 70
     1
  9
$DIMTZIN
 70
     8
  9
$DIMALTZ
 70
     8
  9
$DIMALTTZ
 70
     8
  9
$DIMFIT
 70
     5
  9
$DIMUPT
 70
     0
  9
$DIMUNIT
 70
     2
  9
$DIMDEC
 70
     2
  9
$DIMTDEC
 70
     2
  9
$DIMALTU
 70
     2
  9
$DIMALTTD
 70
     2
  9
$DIMTXSTY
  7
K
  9
$DIMAUNIT
 70
     0
  9
$LUNITS
 70
     2
  9
$LUPREC
 70
     2
  9
$SKETCHINC
 40
0.1
  9
$FILLETRAD
 40
10.0
  9
$AUNITS
 70
     0
  9
$AUPREC
 70
     2
  9
$MENU
  1
d:stdgx5
  9
$ELEVATION
 40
0.0
  9
$PELEVATION
 40
0.0
  9
$THICKNESS
 40
0.0
  9
$LIMCHECK
 70
     0
  9
$BLIPMODE
 70
     0
  9
$CHAMFERA
 40
0.0
  9
$CHAMFERB
 40
0.0
  9
$CHAMFERC
 40
0.0
  9
$CHAMFERD
 40
0.0
  9
$SKPOLY
 70
     0
  9
$TDCREATE
 40
2450246.742256944
  9
$TDUPDATE
 40
2453602.629098136
  9
$TDINDWG
 40
0.0073193287
  9
$TDUSRTIMER
 40
0.0073193287
  9
$USRTIMER
 70
     1
  9
$ANGBASE
 50
0.0
  9
$ANGDIR
 70
     0
  9
$PDMODE
 70
     0
  9
$PDSIZE
 40
0.0
  9
$PLINEWID
 40
0.0
  9
$COORDS
 70
     1
  9
$SPLFRAME
 70
     0
  9
$SPLINETYPE
 70
     6
  9
$SPLINESEGS
 70
     8
  9
$ATTDIA
 70
     0
  9
$ATTREQ
 70
     1
  9
$HANDLING
 70
-16383
  9
$HANDSEED
  5
25B
  9
$SURFTAB1
 70
     6
  9
$SURFTAB2
 70
     6
  9
$SURFTYPE
 70
     6
  9
$SURFU
 70
     6
  9
$SURFV
 70
     6
  9
$UCSNAME
  2

  9
$UCSORG
 10
0.0
 20
0.0
 30
0.0
  9
$UCSXDIR
 10
1.0
 20
0.0
 30
0.0
  9
$UCSYDIR
 10
0.0
 20
1.0
 30
0.0
  9
$PUCSNAME
  2

  9
$PUCSORG
 10
0.0
 20
0.0
 30
0.0
  9
$PUCSXDIR
 10
1.0
 20
0.0
 30
0.0
  9
$PUCSYDIR
 10
0.0
 20
1.0
 30
0.0
  9
$USERI1
 70
     3
  9
$USERI2
 70
    33
  9
$USERI3
 70
     0
  9
$USERI4
 70
     1
  9
$USERI5
 70
     0
  9
$USERR1
 40
30.0
  9
$USERR2
 40
3.0
  9
$USERR3
 40
3.0
  9
$USERR4
 40
1.5
  9
$USERR5
 40
10.0
  9
$WORLDVIEW
 70
     1
  9
$SHADEDGE
 70
     3
  9
$SHADEDIF
 70
    70
  9
$TILEMODE
 70
     1
  9
$MAXACTVP
 70
    16
  9
$PINSBASE
 10
0.0
 20
0.0
 30
0.0
  9
$PLIMCHECK
 70
     0
  9
$PEXTMIN
 10
1.000000000000000E+20
 20
1.000000000000000E+20
 30
1.000000000000000E+20
  9
$PEXTMAX
 10
-1.000000000000000E+20
 20
-1.000000000000000E+20
 30
-1.000000000000000E+20
  9
$PLIMMIN
 10
0.0
 20
0.0
  9
$PLIMMAX
 10
12.0
 20
9.0
  9
$UNITMODE
 70
     0
  9
$VISRETAIN
 70
     0
  9
$PLINEGEN
 70
     0
  9
$PSLTSCALE
 70
     0
  9
$TREEDEPTH
 70
  3020
  9
$PICKSTYLE
 70
     1
  9
$CMLSTYLE
  2
STANDARD
  9
$CMLJUST
 70
     0
  9
$CMLSCALE
 40
1.0
  9
$PROXYGRAPHICS
 70
     1
  9
$MEASUREMENT
 70
     0
  0
ENDSEC
  0
SECTION
  2
CLASSES
  0
CLASS
  1
LWPOLYLINE
  2
AcDbPolyline
  3
AutoCAD 2000
 90
        0
280
     0
281
     1
  0
CLASS
  1
ACDBDICTIONARYWDFLT
  2
AcDbDictionaryWithDefault
  3
AutoCAD 2000
 90
        0
280
     0
281
     0
  0
CLASS
  1
ACDBPLACEHOLDER
  2
AcDbPlaceHolder
  3
AutoCAD 2000
 90
        0
280
     0
281
     0
  0
CLASS
  1
LAYOUT
  2
AcDbLayout
  3
AutoCAD 2000
 90
        0
280
     0
281
     0
  0
CLASS
  1
LONG_TRANSACTION
  2
AcDbLongTransaction
  3
AutoCAD 2000
 90
        0
280
     0
281
     0
  0
CLASS
  1
LWPOLYLINE
  2
AcDbPolyline
  3
AutoCAD 2000
 90
        0
280
     0
281
     1
  0
CLASS
  1
HATCH
  2
AcDbHatch
  3
AutoCAD 2000
 90
        0
280
     0
281
     1
  0
CLASS
  1
XRECORD
  2
AcDbXrecord
  3
AutoCAD 2000
 90
        0
280
     0
281
     0
  0
ENDSEC
  0
SECTION
  2
TABLES
  0
TABLE
  2
VPORT
  5
8
330
0
100
AcDbSymbolTable
 70
    10
  0
VPORT
  5
22
330
8
100
AcDbSymbolTableRecord
100
AcDbViewportTableRecord
  2
2
 70
     0
 10
0.5
 20
0.0
 11
1.0
 21
1.0
 12
0.9240312421264802
 22
1.052650975462766
 13
0.0
 23
0.0
 14
1.0
 24
1.0
 15
10.0
 25
10.0
 16
0.0
 26
0.0
 36
1.0
 17
0.0
 27
0.0
 37
0.0
 40
2.105301950925533
 41
0.8778135048231511
 42
50.0
 43
0.0
 44
0.0
 50
0.0
 51
0.0
 71
     0
 72
   500
 73
     1
 74
     1
 75
     0
 76
     0
 77
     0
 78
     0
  0
VPORT
  5
23
330
8
100
AcDbSymbolTableRecord
100
AcDbViewportTableRecord
  2
2
 70
     0
 10
0.0
 20
0.0
 11
0.5
 21
1.0
 12
0.9240312421264802
 22
1.052650975462766
 13
0.0
 23
0.0
 14
1.0
 24
1.0
 15
10.0
 25
10.0
 16
0.0
 26
0.0
 36
1.0
 17
0.0
 27
0.0
 37
0.0
 40
2.105301950925533
 41
0.8778135048231511
 42
50.0
 43
0.0
 44
0.0
 50
0.0
 51
0.0
 71
     0
 72
   500
 73
     1
 74
     1
 75
     0
 76
     0
 77
     0
 78
     0
  0
VPORT
  5
24
330
8
100
AcDbSymbolTableRecord
100
AcDbViewportTableRecord
  2
3
 70
     0
 10
0.0
 20
0.5
 11
1.0
 21
1.0
 12
2.832169994473273
 22
1.052650975462766
 13
0.0
 23
0.0
 14
1.0
 24
1.0
 15
10.0
 25
10.0
 16
0.0
 26
0.0
 36
1.0
 17
0.0
 27
0.0
 37
0.0
 40
2.105301950925533
 41
3.571428571428571
 42
50.0
 43
0.0
 44
0.0
 50
0.0
 51
0.0
 71
     0
 72
   500
 73
     1
 74
     1
 75
     0
 76
     0
 77
     0
 78
     0
  0
VPORT
  5
25
330
8
100
AcDbSymbolTableRecord
100
AcDbViewportTableRecord
  2
3
 70
     0
 10
0.0
 20
0.0
 11
1.0
 21
0.5
 12
2.856741679241311
 22
1.052650975462766
 13
0.0
 23
0.0
 14
1.0
 24
1.0
 15
10.0
 25
10.0
 16
0.0
 26
0.0
 36
1.0
 17
0.0
 27
0.0
 37
0.0
 40
2.105301950925533
 41
3.594771241830065
 42
50.0
 43
0.0
 44
0.0
 50
0.0
 51
0.0
 71
     0
 72
   500
 73
     1
 74
     1
 75
     0
 76
     0
 77
     0
 78
     0
  0
VPORT
  5
26
330
8
100
AcDbSymbolTableRecord
100
AcDbViewportTableRecord
  2
4
 70
     0
 10
0.5
 20
0.0
 11
1.0
 21
0.5
 12
2.886857516709719
 22
1.052650975462766
 13
0.0
 23
0.0
 14
1.0
 24
1.0
 15
10.0
 25
10.0
 16
0.0
 26
0.0
 36
1.0
 17
0.0
 27
0.0
 37
0.0
 40
4.27520703030907
 41
1.784313725490195
 42
50.0
 43
0.0
 44
0.0
 50
0.0
 51
0.0
 71
     0
 72
   500
 73
     1
 74
     1
 75
     0
 76
     0
 77
     0
 78
     0
  0
VPORT
  5
27
330
8
100
AcDbSymbolTableRecord
100
AcDbViewportTableRecord
  2
4
 70
     0
 10
0.5
 20
0.5
 11
1.0
 21
1.0
 12
2.862090274555523
 22
1.052650975462766
 13
0.0
 23
0.0
 14
1.0
 24
1.0
 15
10.0
 25
10.0
 16
0.0
 26
0.0
 36
1.0
 17
0.0
 27
0.0
 37
0.0
 40
4.27520703030907
 41
1.772727272727272
 42
50.0
 43
0.0
 44
0.0
 50
0.0
 51
0.0
 71
     0
 72
   500
 73
     1
 74
     1
 75
     0
 76
     0
 77
     0
 78
     0
  0
VPORT
  5
28
330
8
100
AcDbSymbolTableRecord
100
AcDbViewportTableRecord
  2
4
 70
     0
 10
0.0
 20
0.5
 11
0.5
 21
1.0
 12
2.862090274555523
 22
1.052650975462766
 13
0.0
 23
0.0
 14
1.0
 24
1.0
 15
10.0
 25
10.0
 16
0.0
 26
0.0
 36
1.0
 17
0.0
 27
0.0
 37
0.0
 40
4.27520703030907
 41
1.772727272727272
 42
50.0
 43
0.0
 44
0.0
 50
0.0
 51
0.0
 71
     0
 72
   500
 73
     1
 74
     1
 75
     0
 76
     0
 77
     0
 78
     0
  0
VPORT
  5
29
330
8
100
AcDbSymbolTableRecord
100
AcDbViewportTableRecord
  2
4
 70
     0
 10
0.0
 20
0.0
 11
0.5
 21
0.5
 12
2.886857516709719
 22
1.052650975462766
 13
0.0
 23
0.0
 14
1.0
 24
1.0
 15
10.0
 25
10.0
 16
0.0
 26
0.0
 36
1.0
 17
0.0
 27
0.0
 37
0.0
 40
4.27520703030907
 41
1.784313725490195
 42
50.0
 43
0.0
 44
0.0
 50
0.0
 51
0.0
 71
     0
 72
   500
 73
     1
 74
     1
 75
     0
 76
     0
 77
     0
 78
     0
  0
VPORT
  5
235
330
8
100
AcDbSymbolTableRecord
100
AcDbViewportTableRecord
  2
*ACTIVE
 70
     0
 10
0.0
 20
0.0
 11
1.0
 21
1.0
 12
6221.429374278254
 22
4095.0
 13
0.0
 23
0.0
 14
1.0
 24
1.0
 15
10.0
 25
10.0
 16
0.0
 26
0.0
 36
1.0
 17
0.0
 27
0.0
 37
0.0
 40
8621.052631578947
 41
1.628719275549805
 42
50.0
 43
0.0
 44
0.0
 50
0.0
 51
0.0
 71
     0
 72
   500
 73
     1
 74
     0
 75
     0
 76
     0
 77
     0
 78
     0
  0
ENDTAB
  0
TABLE
  2
LTYPE
  5
5
330
0
100
AcDbSymbolTable
 70
     5
  0
LTYPE
  5
11
330
5
100
AcDbSymbolTableRecord
100
AcDbLinetypeTableRecord
  2
BYBLOCK
 70
     0
  3

 72
    65
 73
     0
 40
0.0
  0
LTYPE
  5
12
330
5
100
AcDbSymbolTableRecord
100
AcDbLinetypeTableRecord
  2
BYLAYER
 70
     0
  3

 72
    65
 73
     0
 40
0.0
  0
LTYPE
  5
13
330
5
100
AcDbSymbolTableRecord
100
AcDbLinetypeTableRecord
  2
CONTINUOUS
 70
     0
  3
実線
 72
    65
 73
     0
 40
0.0
  0
LTYPE
  5
1E
330
5
100
AcDbSymbolTableRecord
100
AcDbLinetypeTableRecord
  2
DASHED
 70
     0
  3
__ __ __ __ __ __ __ __ __ __ __ __ __ __ __
 72
    65
 73
     2
 40
0.75
 49
0.5
 74
     0
 49
-0.25
 74
     0
  0
LTYPE
  5
1F
330
5
100
AcDbSymbolTableRecord
100
AcDbLinetypeTableRecord
  2
CENTER
 70
     0
  3
____ _ ____ _ ____ _ ____ _ ____ _ ____ _ ____
 72
    65
 73
     4
 40
2.0
 49
1.25
 74
     0
 49
-0.25
 74
     0
 49
0.25
 74
     0
 49
-0.25
 74
     0
  0
LTYPE
  5
20
330
5
100
AcDbSymbolTableRecord
100
AcDbLinetypeTableRecord
  2
PHANTOM
 70
     0
  3
_____ _ _ _____ _ _ _____ _ _ _____ _ _ ____
 72
    65
 73
     6
 40
2.5
 49
1.25
 74
     0
 49
-0.25
 74
     0
 49
0.25
 74
     0
 49
-0.25
 74
     0
 49
0.25
 74
     0
 49
-0.25
 74
     0
  0
LTYPE
  5
21
330
5
100
AcDbSymbolTableRecord
100
AcDbLinetypeTableRecord
  2
HIDDEN
 70
     0
  3
_ _ _ _ _ _ _ _ _ _ _ _ _ _ _ _ _ _ _ _ _ _ _
 72
    65
 73
     2
 40
0.375
 49
0.25
 74
     0
 49
-0.125
 74
     0
  0
ENDTAB
  0
TABLE
  2
LAYER
  5
2
330
0
100
AcDbSymbolTable
 70
     8
  0
LAYER
  5
E
330
2
100
AcDbSymbolTableRecord
100
AcDbLayerTableRecord
  2
0
 70
     0
 62
     7
  6
CONTINUOUS
  0
LAYER
  5
2C
330
2
100
AcDbSymbolTableRecord
100
AcDbLayerTableRecord
  2
HASEN
 70
     0
 62
     2
  6
DASHED
  0
LAYER
  5
2D
330
2
100
AcDbSymbolTableRecord
100
AcDbLayerTableRecord
  2
ITTEN
 70
     0
 62
     1
  6
CENTER
  0
LAYER
  5
30
330
2
100
AcDbSymbolTableRecord
100
AcDbLayerTableRecord
  2
SUNPOU
 70
     0
 62
     3
  6
CONTINUOUS
  0
LAYER
  5
31
330
2
100
AcDbSymbolTableRecord
100
AcDbLayerTableRecord
  2
TEXT
 70
     0
 62
     3
  6
CONTINUOUS
  0
LAYER
  5
32
330
2
100
AcDbSymbolTableRecord
100
AcDbLayerTableRecord
  2
SAISEN
 70
     0
 62
     4
  6
CONTINUOUS
  0
LAYER
  5
33
330
2
100
AcDbSymbolTableRecord
100
AcDbLayerTableRecord
  2
JISSEN
 70
     0
 62
     7
  6
CONTINUOUS
  0
LAYER
  5
37
330
2
100
AcDbSymbolTableRecord
100
AcDbLayerTableRecord
  2
WAKU
 70
     0
 62
    -5
  6
CONTINUOUS
  0
ENDTAB
  0
TABLE
  2
STYLE
  5
3
330
0
100
AcDbSymbolTable
 70
     2
  0
STYLE
  5
F
330
3
100
AcDbSymbolTableRecord
100
AcDbTextStyleTableRecord
  2
STANDARD
 70
     0
 40
0.0
 41
1.0
 50
0.0
 71
     0
 42
0.2
  3
ROMANS
  4
EXTFONT
  0
STYLE
  5
1D
330
3
100
AcDbSymbolTableRecord
100
AcDbTextStyleTableRecord
  2
K
 70
     0
 40
0.0
 41
1.0
 50
0.0
 71
     0
 42
350.0
  3
ROMANS
  4
EXTFONT
  0
ENDTAB
  0
TABLE
  2
VIEW
  5
6
330
0
100
AcDbSymbolTable
 70
     0
  0
ENDTAB
  0
TABLE
  2
UCS
  5
7
330
0
100
AcDbSymbolTable
 70
     0
  0
ENDTAB
  0
TABLE
  2
APPID
  5
9
330
0
100
AcDbSymbolTable
 70
     1
  0
APPID
  5
10
330
9
100
AcDbSymbolTableRecord
100
AcDbRegAppTableRecord
  2
ACAD
 70
     0
  0
ENDTAB
  0
TABLE
  2
DIMSTYLE
  5
A
330
0
100
AcDbSymbolTable
 70
     1
  0
DIMSTYLE
105
21F
330
A
100
AcDbSymbolTableRecord
100
AcDbDimStyleTableRecord
  2
STANDARD
 70
     0
  3

  4

  5

  6

  7

 40
1.0
 41
0.18
 42
0.0625
 43
0.38
 44
0.18
 45
0.0
 46
0.0
 47
0.0
 48
0.0
140
0.18
141
0.09
142
0.0
143
25.4
144
1.0
145
0.0
146
1.0
147
0.09
 71
     0
 72
     0
 73
     1
 74
     1
 75
     0
 76
     0
 77
     0
 78
     0
170
     0
171
     2
172
     0
173
     0
174
     0
175
     0
176
     0
177
     0
178
     0
270
     2
271
     4
272
     4
273
     2
274
     2
340
F
275
     0
280
     0
281
     0
282
     0
283
     1
284
     0
285
     0
286
     0
287
     3
288
     0
  0
ENDTAB
  0
TABLE
  2
BLOCK_RECORD
  5
1
330
0
100
AcDbSymbolTable
 70
     1
  0
BLOCK_RECORD
  5
17
102
{ACAD_XDICTIONARY
360
259
102
}
330
1
100
AcDbSymbolTableRecord
100
AcDbBlockTableRecord
  2
*MODEL_SPACE
  0
BLOCK_RECORD
  5
14
102
{ACAD_XDICTIONARY
360
257
102
}
330
1
100
AcDbSymbolTableRecord
100
AcDbBlockTableRecord
  2
*PAPER_SPACE
  0
BLOCK_RECORD
  5
1C
330
1
100
AcDbSymbolTableRecord
100
AcDbBlockTableRecord
  2
ARROWANG
  0
ENDTAB
  0
ENDSEC
  0
SECTION
  2
BLOCKS
  0
BLOCK
  5
3B
330
17
100
AcDbEntity
  8
0
100
AcDbBlockBegin
  2
*MODEL_SPACE
 70
     0
 10
0.0
 20
0.0
 30
0.0
  3
*MODEL_SPACE
  1

  0
ENDBLK
  5
3C
330
17
100
AcDbEntity
  8
0
100
AcDbBlockEnd
  0
BLOCK
  5
39
330
14
100
AcDbEntity
 67
     1
  8
0
100
AcDbBlockBegin
  2
*PAPER_SPACE
 70
     0
 10
0.0
 20
0.0
 30
0.0
  3
*PAPER_SPACE
  1

  0
ENDBLK
  5
3A
330
14
100
AcDbEntity
 67
     1
  8
0
100
AcDbBlockEnd
  0
BLOCK
  5
3D
330
1C
100
AcDbEntity
  8
SUNPOU
100
AcDbBlockBegin
  2
ARROWANG
 70
     0
 10
0.0
 20
0.0
 30
0.0
  3
ARROWANG
  1

  0
LINE
  5
3E
330
1C
100
AcDbEntity
  8
SUNPOU
100
AcDbLine
 10
0.0
 20
0.0
 30
0.0
 11
-1.499999999999957
 21
0.4019237886467409
 31
0.0
  0
LINE
  5
3F
330
1C
100
AcDbEntity
  8
SUNPOU
100
AcDbLine
 10
0.0
 20
0.0
 30
0.0
 11
-1.500000000000028
 21
-0.4019237886467124
 31
0.0
  0
ENDBLK
  5
40
330
1C
100
AcDbEntity
  8
SUNPOU
100
AcDbBlockEnd
  0
ENDSEC
  0
SECTION
  2
ENTITIES
  0
TEXT
  5
41
330
17
100
AcDbEntity
  8
JISSEN
100
AcDbText
 10
2873.02715660533
 20
7666.831416189904
 30
0.0
 40
300.0
  1
組立マンホール構造図（内径１２００ｍｍ）
  7
K
100
AcDbText
  0
TEXT
  5
44
330
17
100
AcDbEntity
  8
TEXT
100
AcDbText
 10
6080.286429926387
 20
2722.134181090571
 30
0.0
 40
90.0
  1
Ｍ２ＳＣ３０
  7
K
100
AcDbText
  0
TEXT
  5
45
330
17
100
AcDbEntity
  8
TEXT
100
AcDbText
 10
8123.258336074751
 20
5750.311520327148
 30
0.0
 40
90.0
  1
Ｍ２ＳＳＦ６０
  7
K
100
AcDbText
  0
TEXT
  5
46
330
17
100
AcDbEntity
  8
TEXT
100
AcDbText
 10
3995.331437205697
 20
5841.504040168167
 30
0.0
 40
90.0
  1
Ｍ２ＳＦ６０
  7
K
100
AcDbText
  0
TEXT
  5
47
330
17
100
AcDbEntity
  8
SUNPOU
100
AcDbText
 10
9893.284002287366
 20
5564.911959807093
 30
0.0
 40
60.0
  1
125
  7
K
 72
     1
 11
9983.284002287367
 21
5564.911959807093
 31
0.0
100
AcDbText
  0
INSERT
  5
48
330
17
100
AcDbEntity
  8
SUNPOU
100
AcDbBlockReference
  2
ARROWANG
 10
10045.78400228736
 20
5519.911959807092
 30
0.0
 41
45.0
 42
45.0
 43
45.0
  0
INSERT
  5
49
330
17
100
AcDbEntity
  8
SUNPOU
100
AcDbBlockReference
  2
ARROWANG
 10
9920.784002287367
 20
5519.911959807092
 30
0.0
 41
45.0
 42
45.0
 43
45.0
 50
180.0
  0
LINE
  5
4A
330
17
100
AcDbEntity
  8
SUNPOU
100
AcDbLine
 10
10045.78400228736
 20
5192.500862938389
 30
0.0
 11
10045.78400228736
 21
5549.911959807094
 31
0.0
  0
LINE
  5
4B
330
17
100
AcDbEntity
  8
SUNPOU
100
AcDbLine
 10
9920.784002287367
 20
5519.911959807092
 30
0.0
 11
10045.78400228736
 21
5519.911959807092
 31
0.0
  0
TEXT
  5
4C
330
17
100
AcDbEntity
  8
SUNPOU
100
AcDbText
 10
9202.212573715938
 20
5564.911959807093
 30
0.0
 40
60.0
  1
1200
  7
K
 72
     1
 11
9320.784002287366
 21
5564.911959807093
 31
0.0
100
AcDbText
  0
INSERT
  5
4D
330
17
100
AcDbEntity
  8
SUNPOU
100
AcDbBlockReference
  2
ARROWANG
 10
9920.784002287367
 20
5519.911959807092
 30
0.0
 41
45.0
 42
45.0
 43
45.0
  0
INSERT
  5
4E
330
17
100
AcDbEntity
  8
SUNPOU
100
AcDbBlockReference
  2
ARROWANG
 10
8720.784002287366
 20
5519.911959807092
 30
0.0
 41
45.0
 42
45.0
 43
45.0
 50
180.0
  0
LINE
  5
4F
330
17
100
AcDbEntity
  8
SUNPOU
100
AcDbLine
 10
9920.784002287367
 20
5169.500862938389
 30
0.0
 11
9920.784002287367
 21
5549.911959807094
 31
0.0
  0
LINE
  5
50
330
17
100
AcDbEntity
  8
SUNPOU
100
AcDbLine
 10
8720.784002287366
 20
5519.911959807092
 30
0.0
 11
9920.784002287367
 21
5519.911959807092
 31
0.0
  0
TEXT
  5
51
330
17
100
AcDbEntity
  8
SUNPOU
100
AcDbText
 10
8568.284016993136
 20
5564.91195980709
 30
0.0
 40
60.0
  1
125
  7
K
 72
     1
 11
8658.284016993135
 21
5564.91195980709
 31
0.0
100
AcDbText
  0
INSERT
  5
52
330
17
100
AcDbEntity
  8
SUNPOU
100
AcDbBlockReference
  2
ARROWANG
 10
8720.784002287366
 20
5519.911959807092
 30
0.0
 41
45.0
 42
45.0
 43
45.0
  0
INSERT
  5
53
330
17
100
AcDbEntity
  8
SUNPOU
100
AcDbBlockReference
  2
ARROWANG
 10
8595.784002287366
 20
5519.911959807092
 30
0.0
 41
45.0
 42
45.0
 43
45.0
 50
180.0
  0
LINE
  5
54
330
17
100
AcDbEntity
  8
SUNPOU
100
AcDbLine
 10
8595.784002287366
 20
5519.911959807092
 30
0.0
 11
8720.784002287366
 21
5519.911959807092
 31
0.0
  0
LINE
  5
55
330
17
100
AcDbEntity
  8
SUNPOU
100
AcDbLine
 10
8720.784002287366
 20
5169.500862938389
 30
0.0
 11
8720.784002287366
 21
5549.911959807094
 31
0.0
  0
LINE
  5
56
330
17
100
AcDbEntity
  8
SUNPOU
100
AcDbLine
 10
8595.784002287366
 20
5192.500862938389
 30
0.0
 11
8595.784002287366
 21
5549.911959807094
 31
0.0
  0
LINE
  5
57
330
17
100
AcDbEntity
  8
JISSEN
100
AcDbLine
 10
10045.78400228736
 20
5162.500862938391
 30
0.0
 11
10045.78400228736
 21
4562.500862938388
 31
0.0
  0
LINE
  5
58
330
17
100
AcDbEntity
  8
JISSEN
100
AcDbLine
 10
8595.784002287366
 20
4562.500862938388
 30
0.0
 11
8595.784002287366
 21
5162.500862938391
 31
0.0
  0
LINE
  5
59
330
17
100
AcDbEntity
  8
JISSEN
100
AcDbLine
 10
8681.784002287367
 20
4562.500862938388
 30
0.0
 11
8595.784002287366
 21
4562.500862938388
 31
0.0
  0
TEXT
  5
5A
330
17
100
AcDbEntity
  8
SUNPOU
100
AcDbText
 10
7869.620765738578
 20
5175.414102335313
 30
0.0
 40
60.0
  1
125
 50
30.00000000001117
  7
K
 72
     1
 11
7947.56305207917
 21
5220.414102335329
 31
0.0
100
AcDbText
  0
INSERT
  5
5B
330
17
100
AcDbEntity
  8
SUNPOU
100
AcDbBlockReference
  2
ARROWANG
 10
7970.063052079176
 20
5181.442959165032
 30
0.0
 41
45.0
 42
45.0
 43
45.0
 50
210.0000000000111
  0
INSERT
  5
5C
330
17
100
AcDbEntity
  8
SUNPOU
100
AcDbBlockReference
  2
ARROWANG
 10
7861.809876606137
 20
5118.942959165014
 30
0.0
 41
45.0
 42
45.0
 43
45.0
 50
30.00000000001117
  0
LINE
  5
5D
330
17
100
AcDbEntity
  8
SUNPOU
100
AcDbLine
 10
7985.06305207918
 20
5155.462197051503
 30
0.0
 11
7985.06305207918
 21
5155.462197051503
 31
0.0
  0
LINE
  5
5E
330
17
100
AcDbEntity
  8
SUNPOU
100
AcDbLine
 10
7876.80987660614
 20
5092.962197051483
 30
0.0
 11
7876.80987660614
 21
5092.962197051483
 31
0.0
  0
LINE
  5
5F
330
17
100
AcDbEntity
  8
HASEN
100
AcDbLine
 10
7861.918118507635
 20
4313.361610616535
 30
0.0
 11
7826.630129060641
 21
4348.64960006353
 31
0.0
  0
LINE
  5
60
330
17
100
AcDbEntity
  8
HASEN
100
AcDbLine
 10
7812.487993436914
 20
4334.507464439801
 30
0.0
 11
7826.630129060641
 21
4348.64960006353
 31
0.0
  0
LINE
  5
61
330
17
100
AcDbEntity
  8
HASEN
100
AcDbLine
 10
7812.487993436914
 20
4334.507464439801
 30
0.0
 11
7847.775982883907
 21
4299.219474992805
 31
0.0
  0
LINE
  5
62
330
17
100
AcDbEntity
  8
ITTEN
100
AcDbLine
 10
7784.203722189449
 20
4376.933871310994
 30
0.0
 11
7890.269739367433
 21
4270.867854133012
 31
0.0
  0
LINE
  5
63
330
17
100
AcDbEntity
  8
HASEN
100
AcDbLine
 10
6836.613285787141
 20
4299.21947499281
 30
0.0
 11
6871.901275234136
 21
4334.507464439805
 31
0.0
  0
LINE
  5
64
330
17
100
AcDbEntity
  8
HASEN
100
AcDbLine
 10
6857.759139610405
 20
4348.649600063533
 30
0.0
 11
6871.901275234136
 21
4334.507464439805
 31
0.0
  0
LINE
  5
65
330
17
100
AcDbEntity
  8
HASEN
100
AcDbLine
 10
6857.759139610405
 20
4348.649600063533
 30
0.0
 11
6822.47115016341
 21
4313.361610616541
 31
0.0
  0
LINE
  5
66
330
17
100
AcDbEntity
  8
ITTEN
100
AcDbLine
 10
6900.185546481599
 20
4376.933871310997
 30
0.0
 11
6794.119529303616
 21
4270.867854133014
 31
0.0
  0
LINE
  5
67
330
17
100
AcDbEntity
  8
HASEN
100
AcDbLine
 10
6822.471150163413
 20
5324.524307713304
 30
0.0
 11
6857.75913961041
 21
5289.23631826631
 31
0.0
  0
LINE
  5
68
330
17
100
AcDbEntity
  8
HASEN
100
AcDbLine
 10
6871.901275234136
 20
5303.378453890039
 30
0.0
 11
6857.75913961041
 21
5289.23631826631
 31
0.0
  0
LINE
  5
69
330
17
100
AcDbEntity
  8
HASEN
100
AcDbLine
 10
6871.901275234136
 20
5303.378453890039
 30
0.0
 11
6836.613285787144
 21
5338.666443337034
 31
0.0
  0
LINE
  5
6A
330
17
100
AcDbEntity
  8
ITTEN
100
AcDbLine
 10
6900.185546481601
 20
5260.952047018847
 30
0.0
 11
6794.119529303616
 21
5367.018064196828
 31
0.0
  0
CIRCLE
  5
6B
330
17
100
AcDbEntity
  8
JISSEN
100
AcDbCircle
 10
7342.194634335524
 20
4818.942959164921
 30
0.0
 40
725.0
  0
ARC
  5
6C
330
17
100
AcDbEntity
  8
JISSEN
100
AcDbCircle
 10
6862.194634335525
 20
5008.942959164922
 30
0.0
 40
10.0
100
AcDbArc
 50
0.0
 51
90.00000000000069
  0
ARC
  5
6D
330
17
100
AcDbEntity
  8
JISSEN
100
AcDbCircle
 10
6842.194634335524
 20
4988.942959164923
 30
0.0
 40
10.0
100
AcDbArc
 50
0.0
 51
90.0
  0
LINE
  5
6E
330
17
100
AcDbEntity
  8
JISSEN
100
AcDbLine
 10
6842.194634335524
 20
4998.942959164923
 30
0.0
 11
6769.831113485359
 21
4998.942959164921
 31
0.0
  0
LINE
  5
6F
330
17
100
AcDbEntity
  8
JISSEN
100
AcDbLine
 10
6862.194634335525
 20
5018.942959164922
 30
0.0
 11
6797.930565623598
 21
5018.94295916492
 31
0.0
  0
LINE
  5
70
330
17
100
AcDbEntity
  8
JISSEN
100
AcDbLine
 10
6872.194634335525
 20
5008.942959164922
 30
0.0
 11
6872.194634335525
 21
4868.942959164921
 31
0.0
  0
LINE
  5
71
330
17
100
AcDbEntity
  8
ITTEN
100
AcDbLine
 10
7784.203722189452
 20
5260.952047018847
 30
0.0
 11
7890.269739367433
 21
5367.018064196828
 31
0.0
  0
LINE
  5
72
330
17
100
AcDbEntity
  8
HASEN
100
AcDbLine
 10
7826.630129060645
 20
5289.23631826631
 30
0.0
 11
7861.91811850764
 21
5324.524307713301
 31
0.0
  0
LINE
  5
73
330
17
100
AcDbEntity
  8
HASEN
100
AcDbLine
 10
7826.630129060645
 20
5289.23631826631
 30
0.0
 11
7812.487993436914
 21
5303.378453890039
 31
0.0
  0
LINE
  5
74
330
17
100
AcDbEntity
  8
HASEN
100
AcDbLine
 10
7847.775982883909
 20
5338.666443337032
 30
0.0
 11
7812.487993436914
 21
5303.378453890039
 31
0.0
  0
CIRCLE
  5
75
330
17
100
AcDbEntity
  8
JISSEN
100
AcDbCircle
 10
7342.194634335524
 20
4818.942959164921
 30
0.0
 40
600.0
  0
CIRCLE
  5
76
330
17
100
AcDbEntity
  8
JISSEN
100
AcDbCircle
 10
7342.194634335524
 20
4818.942959164921
 30
0.0
 40
633.0
  0
CIRCLE
  5
77
330
17
100
AcDbEntity
  8
JISSEN
100
AcDbCircle
 10
7342.194634335524
 20
4818.942959164921
 30
0.0
 40
640.0
  0
LINE
  5
78
330
17
100
AcDbEntity
  8
ITTEN
100
AcDbLine
 10
7342.194634335524
 20
5568.942959164921
 30
0.0
 11
7342.194634335524
 21
4068.942959164921
 31
0.0
  0
LINE
  5
79
330
17
100
AcDbEntity
  8
ITTEN
100
AcDbLine
 10
8092.194634335525
 20
4818.942959164921
 30
0.0
 11
7068.132072189031
 21
4818.942959164921
 31
0.0
  0
POINT
  5
7A
330
17
100
AcDbEntity
  8
JISSEN
100
AcDbPoint
 10
7343.194634335524
 20
4818.942959164921
 30
0.0
  0
POINT
  5
7B
330
17
100
AcDbEntity
  8
JISSEN
100
AcDbPoint
 10
7342.194634335524
 20
4819.942959164921
 30
0.0
  0
LINE
  5
7C
330
17
100
AcDbEntity
  8
ITTEN
100
AcDbLine
 10
7068.132072189031
 20
4818.942959164921
 30
0.0
 11
6592.194634335524
 21
4818.942959164921
 31
0.0
  0
LINE
  5
7D
330
17
100
AcDbEntity
  8
JISSEN
100
AcDbLine
 10
6852.194634335525
 20
4818.942959164921
 30
0.0
 11
6852.194634335525
 21
4988.942959164923
 31
0.0
  0
LINE
  5
7E
330
17
100
AcDbEntity
  8
JISSEN
100
AcDbLine
 10
6872.194634335525
 20
5008.942959164922
 30
0.0
 11
6872.194634335525
 21
4818.942959164921
 31
0.0
  0
LINE
  5
7F
330
17
100
AcDbEntity
  8
JISSEN
100
AcDbLine
 10
6862.194634335525
 20
5018.942959164922
 30
0.0
 11
6776.509209386286
 21
5018.94295916492
 31
0.0
  0
LINE
  5
80
330
17
100
AcDbEntity
  8
JISSEN
100
AcDbLine
 10
6862.194634335525
 20
4618.942959164921
 30
0.0
 11
6776.509209386286
 21
4618.942959164922
 31
0.0
  0
LINE
  5
81
330
17
100
AcDbEntity
  8
JISSEN
100
AcDbLine
 10
6842.194634335524
 20
4638.94295916492
 30
0.0
 11
6769.831113485359
 21
4638.94295916492
 31
0.0
  0
ARC
  5
82
330
17
100
AcDbEntity
  8
JISSEN
100
AcDbCircle
 10
6842.194634335524
 20
4648.94295916492
 30
0.0
 40
10.0
100
AcDbArc
 50
270.0
 51
0.0
  0
ARC
  5
83
330
17
100
AcDbEntity
  8
JISSEN
100
AcDbCircle
 10
6862.194634335525
 20
4628.94295916492
 30
0.0
 40
10.0
100
AcDbArc
 50
269.9999999999992
 51
0.0
  0
LINE
  5
84
330
17
100
AcDbEntity
  8
JISSEN
100
AcDbLine
 10
6872.194634335525
 20
4628.94295916492
 30
0.0
 11
6872.194634335525
 21
4818.942959164921
 31
0.0
  0
LINE
  5
85
330
17
100
AcDbEntity
  8
JISSEN
100
AcDbLine
 10
6852.194634335525
 20
4818.942959164921
 30
0.0
 11
6852.194634335525
 21
4648.94295916492
 31
0.0
  0
LINE
  5
86
330
17
100
AcDbEntity
  8
SUNPOU
100
AcDbLine
 10
8680.784002287365
 20
5365.10111930174
 30
0.0
 11
9960.784002287367
 21
5365.10111930174
 31
0.0
  0
INSERT
  5
87
330
17
100
AcDbEntity
  8
SUNPOU
100
AcDbBlockReference
  2
ARROWANG
 10
8680.784002287365
 20
5365.10111930174
 30
0.0
 41
45.0
 42
45.0
 43
45.0
 50
180.0
  0
INSERT
  5
88
330
17
100
AcDbEntity
  8
SUNPOU
100
AcDbBlockReference
  2
ARROWANG
 10
9960.784002287367
 20
5365.10111930174
 30
0.0
 41
45.0
 42
45.0
 43
45.0
  0
TEXT
  5
89
330
17
100
AcDbEntity
  8
SUNPOU
100
AcDbText
 10
9202.212588421708
 20
5410.101119301735
 30
0.0
 40
60.0
  1
1280
  7
K
 72
     1
 11
9320.784016993139
 21
5410.101119301735
 31
0.0
100
AcDbText
  0
LINE
  5
8A
330
17
100
AcDbEntity
  8
ITTEN
100
AcDbLine
 10
9320.784002287366
 20
5212.500862938389
 30
0.0
 11
9320.784002287366
 21
4197.500862938388
 31
0.0
  0
LINE
  5
8B
330
17
100
AcDbEntity
  8
JISSEN
100
AcDbLine
 10
8681.784002287367
 20
4562.500862938388
 30
0.0
 11
8692.784002287366
 21
4547.500862938388
 31
0.0
  0
LINE
  5
8C
330
17
100
AcDbEntity
  8
JISSEN
100
AcDbLine
 10
8692.784002287366
 20
4547.500862938388
 30
0.0
 11
9320.784002287366
 21
4547.500862938388
 31
0.0
  0
LINE
  5
8D
330
17
100
AcDbEntity
  8
JISSEN
100
AcDbLine
 10
10045.78400228736
 20
4562.500862938389
 30
0.0
 11
9959.784002287371
 21
4562.500862938388
 31
0.0
  0
LINE
  5
8E
330
17
100
AcDbEntity
  8
JISSEN
100
AcDbLine
 10
9959.784002287371
 20
4562.500862938388
 30
0.0
 11
9948.78400228737
 21
4547.500862938388
 31
0.0
  0
LINE
  5
8F
330
17
100
AcDbEntity
  8
JISSEN
100
AcDbLine
 10
9948.78400228737
 20
4547.500862938388
 30
0.0
 11
9320.784002287366
 21
4547.500862938388
 31
0.0
  0
LINE
  5
90
330
17
100
AcDbEntity
  8
JISSEN
100
AcDbLine
 10
8595.784002287366
 20
5162.500862938389
 30
0.0
 11
8680.784002287365
 21
5162.500862938389
 31
0.0
  0
LINE
  5
91
330
17
100
AcDbEntity
  8
JISSEN
100
AcDbLine
 10
8680.784002287365
 20
5162.500862938389
 30
0.0
 11
8687.784002287365
 21
5139.50086293839
 31
0.0
  0
LINE
  5
92
330
17
100
AcDbEntity
  8
JISSEN
100
AcDbLine
 10
8687.784002287365
 20
5139.50086293839
 30
0.0
 11
9320.784002287366
 21
5139.50086293839
 31
0.0
  0
LINE
  5
93
330
17
100
AcDbEntity
  8
JISSEN
100
AcDbLine
 10
8680.784002287365
 20
5162.500862938389
 30
0.0
 11
9320.784002287366
 21
5162.500862938389
 31
0.0
  0
LINE
  5
94
330
17
100
AcDbEntity
  8
JISSEN
100
AcDbLine
 10
9960.784002287367
 20
5162.500862938389
 30
0.0
 11
9320.784002287366
 21
5162.500862938389
 31
0.0
  0
LINE
  5
95
330
17
100
AcDbEntity
  8
JISSEN
100
AcDbLine
 10
9953.784002287367
 20
5139.50086293839
 30
0.0
 11
9320.784002287366
 21
5139.50086293839
 31
0.0
  0
LINE
  5
96
330
17
100
AcDbEntity
  8
JISSEN
100
AcDbLine
 10
9960.784002287367
 20
5162.500862938389
 30
0.0
 11
9953.784002287367
 21
5139.50086293839
 31
0.0
  0
LINE
  5
97
330
17
100
AcDbEntity
  8
JISSEN
100
AcDbLine
 10
10045.78400228736
 20
5162.500862938389
 30
0.0
 11
9960.784002287367
 21
5162.500862938389
 31
0.0
  0
LINE
  5
98
330
17
100
AcDbEntity
  8
JISSEN
100
AcDbLine
 10
8720.784002287366
 20
5139.50086293839
 30
0.0
 11
8720.78400228737
 21
4547.500862938388
 31
0.0
  0
LINE
  5
99
330
17
100
AcDbEntity
  8
JISSEN
100
AcDbLine
 10
9920.784002287367
 20
5139.50086293839
 30
0.0
 11
9920.784002287367
 21
4897.500862938387
 31
0.0
  0
ARC
  5
9A
330
17
100
AcDbEntity
  8
JISSEN
100
AcDbCircle
 10
8840.784002287366
 20
4997.500862938388
 30
0.0
 40
10.0
100
AcDbArc
 50
270.0
 51
90.0
  0
LINE
  5
9B
330
17
100
AcDbEntity
  8
JISSEN
100
AcDbLine
 10
8720.784002287366
 20
5007.500862938389
 30
0.0
 11
8840.784002287366
 21
5007.500862938389
 31
0.0
  0
LINE
  5
9C
330
17
100
AcDbEntity
  8
JISSEN
100
AcDbLine
 10
8720.784002287366
 20
4987.500862938389
 30
0.0
 11
8840.784002287366
 21
4987.500862938389
 31
0.0
  0
LINE
  5
9D
330
17
100
AcDbEntity
  8
ITTEN
100
AcDbLine
 10
8670.784002287367
 20
4997.500862938389
 30
0.0
 11
8900.784002287366
 21
4997.500862938389
 31
0.0
  0
LINE
  5
9E
330
17
100
AcDbEntity
  8
SUNPOU
100
AcDbLine
 10
8687.784002287365
 20
5169.500862938389
 30
0.0
 11
8687.784002287365
 21
5262.817654734807
 31
0.0
  0
LINE
  5
9F
330
17
100
AcDbEntity
  8
SUNPOU
100
AcDbLine
 10
9953.784002287367
 20
5169.500862938389
 30
0.0
 11
9953.784002287367
 21
5262.817654734807
 31
0.0
  0
LINE
  5
A0
330
17
100
AcDbEntity
  8
SUNPOU
100
AcDbLine
 10
8687.784002287365
 20
5232.817654734808
 30
0.0
 11
9953.784002287367
 21
5232.817654734808
 31
0.0
  0
INSERT
  5
A1
330
17
100
AcDbEntity
  8
SUNPOU
100
AcDbBlockReference
  2
ARROWANG
 10
8687.784002287365
 20
5232.817654734808
 30
0.0
 41
45.0
 42
45.0
 43
45.0
 50
180.0
  0
INSERT
  5
A2
330
17
100
AcDbEntity
  8
SUNPOU
100
AcDbBlockReference
  2
ARROWANG
 10
9953.784002287367
 20
5232.817654734808
 30
0.0
 41
45.0
 42
45.0
 43
45.0
  0
TEXT
  5
A3
330
17
100
AcDbEntity
  8
SUNPOU
100
AcDbText
 10
9202.212588421708
 20
5277.817654734803
 30
0.0
 40
60.0
  1
1266
  7
K
 72
     1
 11
9320.784016993139
 21
5277.817654734803
 31
0.0
100
AcDbText
  0
LINE
  5
A4
330
17
100
AcDbEntity
  8
SUNPOU
100
AcDbLine
 10
8680.784002287365
 20
5192.500862938389
 30
0.0
 11
8680.784002287365
 21
5395.101119301739
 31
0.0
  0
LINE
  5
A5
330
17
100
AcDbEntity
  8
SUNPOU
100
AcDbLine
 10
9960.784002287367
 20
5192.500862938389
 30
0.0
 11
9960.784002287367
 21
5395.101119301739
 31
0.0
  0
LINE
  5
A6
330
17
100
AcDbEntity
  8
SUNPOU
100
AcDbLine
 10
8692.784002287366
 20
4517.500862938388
 30
0.0
 11
8692.784002287366
 21
4358.173816609875
 31
0.0
  0
LINE
  5
A7
330
17
100
AcDbEntity
  8
SUNPOU
100
AcDbLine
 10
9948.78400228737
 20
4517.500862938388
 30
0.0
 11
9948.78400228737
 21
4358.173816609875
 31
0.0
  0
LINE
  5
A8
330
17
100
AcDbEntity
  8
SUNPOU
100
AcDbLine
 10
8692.784002287366
 20
4388.173816609874
 30
0.0
 11
9948.78400228737
 21
4388.173816609874
 31
0.0
  0
INSERT
  5
A9
330
17
100
AcDbEntity
  8
SUNPOU
100
AcDbBlockReference
  2
ARROWANG
 10
9948.78400228737
 20
4388.173816609874
 30
0.0
 41
45.0
 42
45.0
 43
45.0
  0
INSERT
  5
AA
330
17
100
AcDbEntity
  8
SUNPOU
100
AcDbBlockReference
  2
ARROWANG
 10
8692.784002287366
 20
4388.173816609874
 30
0.0
 41
45.0
 42
45.0
 43
45.0
 50
180.0
  0
TEXT
  5
AB
330
17
100
AcDbEntity
  8
SUNPOU
100
AcDbText
 10
9202.212573715938
 20
4433.173816609873
 30
0.0
 40
60.0
  1
1256
  7
K
 72
     1
 11
9320.784002287366
 21
4433.173816609873
 31
0.0
100
AcDbText
  0
CIRCLE
  5
AC
330
17
100
AcDbEntity
  8
SAISEN
100
AcDbCircle
 10
8825.809255456787
 20
4662.500862938389
 30
0.0
 40
12.5
  0
CIRCLE
  5
AD
330
17
100
AcDbEntity
  8
SAISEN
100
AcDbCircle
 10
9815.758749117954
 20
4662.500862938389
 30
0.0
 40
12.5
  0
CIRCLE
  5
AE
330
17
100
AcDbEntity
  8
SAISEN
100
AcDbCircle
 10
9815.758749117954
 20
5062.500862938391
 30
0.0
 40
12.5
  0
CIRCLE
  5
AF
330
17
100
AcDbEntity
  8
SAISEN
100
AcDbCircle
 10
8825.809255456787
 20
5062.500862938391
 30
0.0
 40
12.5
  0
LINE
  5
B0
330
17
100
AcDbEntity
  8
SUNPOU
100
AcDbLine
 10
8681.784002287367
 20
4532.500862938388
 30
0.0
 11
8681.784002287367
 21
4222.451787677423
 31
0.0
  0
LINE
  5
B1
330
17
100
AcDbEntity
  8
SUNPOU
100
AcDbLine
 10
9959.784002287371
 20
4532.500862938388
 30
0.0
 11
9959.784002287371
 21
4222.451787677423
 31
0.0
  0
LINE
  5
B2
330
17
100
AcDbEntity
  8
SUNPOU
100
AcDbLine
 10
8681.784002287367
 20
4252.451787677422
 30
0.0
 11
9959.784002287371
 21
4252.451787677422
 31
0.0
  0
INSERT
  5
B3
330
17
100
AcDbEntity
  8
SUNPOU
100
AcDbBlockReference
  2
ARROWANG
 10
8681.784002287367
 20
4252.451787677422
 30
0.0
 41
45.0
 42
45.0
 43
45.0
 50
180.0
  0
INSERT
  5
B4
330
17
100
AcDbEntity
  8
SUNPOU
100
AcDbBlockReference
  2
ARROWANG
 10
9959.784002287371
 20
4252.451787677422
 30
0.0
 41
45.0
 42
45.0
 43
45.0
  0
TEXT
  5
B5
330
17
100
AcDbEntity
  8
SUNPOU
100
AcDbText
 10
9202.212588421708
 20
4297.451787677419
 30
0.0
 40
60.0
  1
1278
  7
K
 72
     1
 11
9320.784016993139
 21
4297.451787677419
 31
0.0
100
AcDbText
  0
LINE
  5
B6
330
17
100
AcDbEntity
  8
ITTEN
100
AcDbLine
 10
8670.784002287369
 20
4697.500862938389
 30
0.0
 11
8900.78400228737
 21
4697.500862938389
 31
0.0
  0
LINE
  5
B7
330
17
100
AcDbEntity
  8
JISSEN
100
AcDbLine
 10
8720.78400228737
 20
4687.500862938389
 30
0.0
 11
8840.784002287369
 21
4687.500862938389
 31
0.0
  0
LINE
  5
B8
330
17
100
AcDbEntity
  8
JISSEN
100
AcDbLine
 10
8720.78400228737
 20
4707.500862938389
 30
0.0
 11
8840.784002287369
 21
4707.500862938389
 31
0.0
  0
ARC
  5
B9
330
17
100
AcDbEntity
  8
JISSEN
100
AcDbCircle
 10
8840.784002287369
 20
4697.500862938388
 30
0.0
 40
10.0
100
AcDbArc
 50
270.0
 51
90.0
  0
LINE
  5
BA
330
17
100
AcDbEntity
  8
SUNPOU
100
AcDbLine
 10
8880.78400228737
 20
4697.500862938389
 30
0.0
 11
9034.432305822955
 21
4697.500862938389
 31
0.0
  0
LINE
  5
BB
330
17
100
AcDbEntity
  8
SUNPOU
100
AcDbLine
 10
9004.432305822955
 20
4697.500862938389
 30
0.0
 11
9004.432305822955
 21
4997.500862938389
 31
0.0
  0
LINE
  5
BC
330
17
100
AcDbEntity
  8
SUNPOU
100
AcDbLine
 10
8880.784002287366
 20
4997.500862938389
 30
0.0
 11
9034.432305822955
 21
4997.500862938389
 31
0.0
  0
INSERT
  5
BD
330
17
100
AcDbEntity
  8
SUNPOU
100
AcDbBlockReference
  2
ARROWANG
 10
9004.432305822955
 20
4697.500862938389
 30
0.0
 41
45.0
 42
45.0
 43
45.0
 50
270.0
  0
INSERT
  5
BE
330
17
100
AcDbEntity
  8
SUNPOU
100
AcDbBlockReference
  2
ARROWANG
 10
9004.432305822955
 20
4997.500862938389
 30
0.0
 41
45.0
 42
45.0
 43
45.0
 50
90.0
  0
TEXT
  5
BF
330
17
100
AcDbEntity
  8
SUNPOU
100
AcDbText
 10
8959.432305822955
 20
4761.786577224103
 30
0.0
 40
60.0
  1
300
 50
90.0
  7
K
 72
     1
 11
8959.432305822955
 21
4847.500862938389
 31
0.0
100
AcDbText
  0
LINE
  5
C0
330
17
100
AcDbEntity
  8
JISSEN
100
AcDbLine
 10
6822.579392064863
 20
5118.942959164922
 30
0.0
 11
7092.194634335524
 21
5118.942959164923
 31
0.0
  0
LINE
  5
C1
330
17
100
AcDbEntity
  8
JISSEN
100
AcDbLine
 10
6822.579392064863
 20
4518.942959164921
 30
0.0
 11
7092.194634335524
 21
4518.94295916492
 31
0.0
  0
ARC
  5
C2
330
17
100
AcDbEntity
  8
JISSEN
100
AcDbCircle
 10
7092.194634335524
 20
4818.942959164921
 30
0.0
 40
300.0000000000009
100
AcDbArc
 50
270.0000000000002
 51
89.99999999999982
  0
LINE
  5
C3
330
17
100
AcDbEntity
  8
SUNPOU
100
AcDbLine
 10
6837.579392065085
 20
4492.96219705139
 30
0.0
 11
6837.579392065085
 21
4492.96219705139
 31
0.0
  0
LINE
  5
C4
330
17
100
AcDbEntity
  8
SUNPOU
100
AcDbLine
 10
6822.579392065077
 20
4518.942959164921
 30
0.0
 11
8047.853541385363
 21
5226.35531910637
 31
0.0
  0
INSERT
  5
C5
330
17
100
AcDbEntity
  8
SUNPOU
100
AcDbBlockReference
  2
ARROWANG
 10
6822.579392065077
 20
4518.942959164921
 30
0.0
 41
45.0
 42
45.0
 43
45.0
 50
210.0000000000103
  0
INSERT
  5
C6
330
17
100
AcDbEntity
  8
SUNPOU
100
AcDbBlockReference
  2
ARROWANG
 10
7861.809876606137
 20
5118.942959165014
 30
0.0
 41
45.0
 42
45.0
 43
45.0
 50
30.00000000001032
  0
TEXT
  5
C7
330
17
100
AcDbEntity
  8
SUNPOU
100
AcDbText
 10
7217.008765029738
 20
4798.628388049531
 30
0.0
 40
60.0
  1
1200
 50
30.00000000001032
  7
K
 72
     1
 11
7319.694634335597
 21
4857.914102335263
 31
0.0
100
AcDbText
  0
POINT
  5
C8
330
17
100
AcDbEntity
  8
SUNPOU
100
AcDbPoint
 10
7947.412416984569
 20
5168.942959165029
 30
0.0
  0
LINE
  5
C9
330
17
100
AcDbEntity
  8
SUNPOU
100
AcDbLine
 10
7258.618802311243
 20
5068.548640818185
 30
0.0
 11
7092.194634335524
 21
4818.942959164921
 31
0.0
  0
INSERT
  5
CA
330
17
100
AcDbEntity
  8
SUNPOU
100
AcDbBlockReference
  2
ARROWANG
 10
7258.618802311243
 20
5068.548640818185
 30
0.0
 41
45.0
 42
45.0
 43
45.0
 50
56.30669385736804
  0
TEXT
  5
CB
330
17
100
AcDbEntity
  8
SUNPOU
100
AcDbText
 10
7072.981190961066
 20
4871.244349494732
 30
0.0
 40
60.0
  1
R300
 50
56.30669385736804
  7
K
 72
     1
 11
7137.965866075394
 21
4968.709425187912
 31
0.0
100
AcDbText
  0
LINE
  5
CC
330
17
100
AcDbEntity
  8
JISSEN
100
AcDbLine
 10
9920.784002287367
 20
4797.500862938388
 30
0.0
 11
8800.78400228737
 21
4797.500862938388
 31
0.0
  0
LINE
  5
CD
330
17
100
AcDbEntity
  8
JISSEN
100
AcDbLine
 10
8800.78400228737
 20
4797.500862938388
 30
0.0
 11
8800.78400228737
 21
4897.500862938389
 31
0.0
  0
LINE
  5
CE
330
17
100
AcDbEntity
  8
JISSEN
100
AcDbLine
 10
8800.78400228737
 20
4897.500862938389
 30
0.0
 11
9920.784002287367
 21
4897.500862938389
 31
0.0
  0
LINE
  5
CF
330
17
100
AcDbEntity
  8
JISSEN
100
AcDbLine
 10
9370.78400228737
 20
4897.500862938389
 30
0.0
 11
9370.78400228737
 21
4797.500862938388
 31
0.0
  0
LINE
  5
D0
330
17
100
AcDbEntity
  8
JISSEN
100
AcDbLine
 10
9920.784002287367
 20
4797.500862938388
 30
0.0
 11
9920.784002287367
 21
4547.500862938388
 31
0.0
  0
LINE
  5
D1
330
17
100
AcDbEntity
  8
SUNPOU
100
AcDbLine
 10
8720.784002287366
 20
5027.500862938389
 30
0.0
 11
8720.784002287366
 21
5046.708117918607
 31
0.0
  0
LINE
  5
D2
330
17
100
AcDbEntity
  8
SUNPOU
100
AcDbLine
 10
9370.78400228737
 20
4927.500862938388
 30
0.0
 11
9370.78400228737
 21
5046.708117918607
 31
0.0
  0
LINE
  5
D3
330
17
100
AcDbEntity
  8
SUNPOU
100
AcDbLine
 10
8720.784002287366
 20
5016.708117918607
 30
0.0
 11
9370.78400228737
 21
5016.708117918607
 31
0.0
  0
INSERT
  5
D4
330
17
100
AcDbEntity
  8
SUNPOU
100
AcDbBlockReference
  2
ARROWANG
 10
8720.784002287366
 20
5016.708117918607
 30
0.0
 41
45.0
 42
45.0
 43
45.0
 50
180.0
  0
INSERT
  5
D5
330
17
100
AcDbEntity
  8
SUNPOU
100
AcDbBlockReference
  2
ARROWANG
 10
9370.78400228737
 20
5016.708117918607
 30
0.0
 41
45.0
 42
45.0
 43
45.0
  0
TEXT
  5
D6
330
17
100
AcDbEntity
  8
SUNPOU
100
AcDbText
 10
8958.641159850282
 20
5061.708117918605
 30
0.0
 40
60.0
  1
650
  7
K
 72
     1
 11
9045.784016993138
 21
5061.708117918605
 31
0.0
100
AcDbText
  0
LINE
  5
D7
330
17
100
AcDbEntity
  8
SUNPOU
100
AcDbLine
 10
9400.78400228737
 20
4797.500862938388
 30
0.0
 11
9632.123231918564
 21
4797.500862938388
 31
0.0
  0
LINE
  5
D8
330
17
100
AcDbEntity
  8
SUNPOU
100
AcDbLine
 10
9400.78400228737
 20
4897.500862938389
 30
0.0
 11
9632.123231918564
 21
4897.500862938389
 31
0.0
  0
LINE
  5
D9
330
17
100
AcDbEntity
  8
SUNPOU
100
AcDbLine
 10
9602.123231918564
 20
4797.500862938388
 30
0.0
 11
9602.123231918564
 21
4897.500862938389
 31
0.0
  0
INSERT
  5
DA
330
17
100
AcDbEntity
  8
SUNPOU
100
AcDbBlockReference
  2
ARROWANG
 10
9602.123231918564
 20
4797.500862938388
 30
0.0
 41
45.0
 42
45.0
 43
45.0
 50
90.0
  0
INSERT
  5
DB
330
17
100
AcDbEntity
  8
SUNPOU
100
AcDbBlockReference
  2
ARROWANG
 10
9602.123231918564
 20
4897.500862938389
 30
0.0
 41
45.0
 42
45.0
 43
45.0
 50
270.0
  0
LINE
  5
DC
330
17
100
AcDbEntity
  8
SUNPOU
100
AcDbLine
 10
9602.123231918564
 20
4897.500862938389
 30
0.0
 11
9602.123231918564
 21
5095.500862938387
 31
0.0
  0
LINE
  5
DD
330
17
100
AcDbEntity
  8
SUNPOU
100
AcDbLine
 10
9602.123231918564
 20
4797.500862938388
 30
0.0
 11
9602.12323368394
 21
4707.500862938387
 31
0.0
  0
TEXT
  5
DE
330
17
100
AcDbEntity
  8
SUNPOU
100
AcDbText
 10
9557.123231918565
 20
4906.500862938388
 30
0.0
 40
60.0
  1
100
 50
90.0
  7
K
 72
     1
 11
9557.123231918565
 21
4996.500862938388
 31
0.0
100
AcDbText
  0
LINE
  5
DF
330
17
100
AcDbEntity
  8
SUNPOU
100
AcDbLine
 10
8590.784002287366
 20
4562.500862938389
 30
0.0
 11
8378.739755791256
 21
4562.500862938389
 31
0.0
  0
LINE
  5
E0
330
17
100
AcDbEntity
  8
SUNPOU
100
AcDbLine
 10
8590.784002287366
 20
5162.500862938389
 30
0.0
 11
8378.739755791256
 21
5162.500862938389
 31
0.0
  0
LINE
  5
E1
330
17
100
AcDbEntity
  8
SUNPOU
100
AcDbLine
 10
8408.739755791257
 20
4562.500862938389
 30
0.0
 11
8408.739755791257
 21
5162.500862938389
 31
0.0
  0
INSERT
  5
E2
330
17
100
AcDbEntity
  8
SUNPOU
100
AcDbBlockReference
  2
ARROWANG
 10
8408.739755791257
 20
4562.500862938389
 30
0.0
 41
45.0
 42
45.0
 43
45.0
 50
270.0
  0
INSERT
  5
E3
330
17
100
AcDbEntity
  8
SUNPOU
100
AcDbBlockReference
  2
ARROWANG
 10
8408.739755791257
 20
5162.500862938389
 30
0.0
 41
45.0
 42
45.0
 43
45.0
 50
90.0
  0
TEXT
  5
E4
330
17
100
AcDbEntity
  8
SUNPOU
100
AcDbText
 10
8363.739755791257
 20
4775.358005795532
 30
0.0
 40
60.0
  1
600
 50
90.0
  7
K
 72
     1
 11
8363.739755791257
 21
4862.500862938389
 31
0.0
100
AcDbText
  0
CIRCLE
  5
E5
330
17
100
AcDbEntity
  8
SAISEN
100
AcDbCircle
 10
7932.020202652719
 20
1766.969681586957
 30
0.0
 40
12.5
  0
CIRCLE
  5
E6
330
17
100
AcDbEntity
  8
SAISEN
100
AcDbCircle
 10
6942.070708991552
 20
1766.969681586957
 30
0.0
 40
12.5
  0
TEXT
  5
E7
330
17
100
AcDbEntity
  8
SUNPOU
100
AcDbText
 10
7141.93578262976
 20
1651.969681586959
 30
0.0
 40
60.0
  1
150
 50
90.0
  7
K
 72
     1
 11
7141.93578262976
 21
1741.969681586959
 31
0.0
100
AcDbText
  0
INSERT
  5
E8
330
17
100
AcDbEntity
  8
SUNPOU
100
AcDbBlockReference
  2
ARROWANG
 10
7186.93578262976
 20
1816.969681586959
 30
0.0
 41
45.0
 42
45.0
 43
45.0
 50
90.0
  0
INSERT
  5
E9
330
17
100
AcDbEntity
  8
SUNPOU
100
AcDbBlockReference
  2
ARROWANG
 10
7186.93578262976
 20
1666.969681586959
 30
0.0
 41
45.0
 42
45.0
 43
45.0
 50
270.0
  0
LINE
  5
EA
330
17
100
AcDbEntity
  8
SUNPOU
100
AcDbLine
 10
7186.93578262976
 20
1666.969681586959
 30
0.0
 11
7186.93578262976
 21
1816.969681586959
 31
0.0
  0
LINE
  5
EB
330
17
100
AcDbEntity
  8
SUNPOU
100
AcDbLine
 10
6997.045455822136
 20
1816.969681586959
 30
0.0
 11
7216.93578262976
 21
1816.969681586959
 31
0.0
  0
LINE
  5
EC
330
17
100
AcDbEntity
  8
SUNPOU
100
AcDbLine
 10
6827.045455822136
 20
1666.969681586959
 30
0.0
 11
7216.93578262976
 21
1666.969681586959
 31
0.0
  0
TEXT
  5
ED
330
17
100
AcDbEntity
  8
SUNPOU
100
AcDbText
 10
6484.080344772195
 20
1543.826824444102
 30
0.0
 40
60.0
  1
23
 50
90.0
  7
K
 72
     1
 11
6484.080344772195
 21
1600.969681586959
 31
0.0
100
AcDbText
  0
LINE
  5
EE
330
17
100
AcDbEntity
  8
SUNPOU
100
AcDbLine
 10
6529.080344772196
 20
1689.969681586959
 30
0.0
 11
6529.080344772196
 21
1779.969681586959
 31
0.0
  0
LINE
  5
EF
330
17
100
AcDbEntity
  8
SUNPOU
100
AcDbLine
 10
6529.080344772196
 20
1666.969681586959
 30
0.0
 11
6529.080344772196
 21
1534.969681586959
 31
0.0
  0
INSERT
  5
F0
330
17
100
AcDbEntity
  8
SUNPOU
100
AcDbBlockReference
  2
ARROWANG
 10
6529.080344772196
 20
1689.969681586959
 30
0.0
 41
45.0
 42
45.0
 43
45.0
 50
270.0
  0
INSERT
  5
F1
330
17
100
AcDbEntity
  8
SUNPOU
100
AcDbBlockReference
  2
ARROWANG
 10
6529.080344772196
 20
1666.969681586959
 30
0.0
 41
45.0
 42
45.0
 43
45.0
 50
90.0
  0
LINE
  5
F2
330
17
100
AcDbEntity
  8
SUNPOU
100
AcDbLine
 10
6529.080344772196
 20
1666.969681586959
 30
0.0
 11
6529.080344772196
 21
1689.969681586959
 31
0.0
  0
LINE
  5
F3
330
17
100
AcDbEntity
  8
SUNPOU
100
AcDbLine
 10
6694.045455822136
 20
1689.969681586959
 30
0.0
 11
6499.080344772195
 21
1689.969681586959
 31
0.0
  0
LINE
  5
F4
330
17
100
AcDbEntity
  8
SUNPOU
100
AcDbLine
 10
6627.045455822136
 20
1666.969681586959
 30
0.0
 11
6499.080344772195
 21
1666.969681586959
 31
0.0
  0
TEXT
  5
F5
330
17
100
AcDbEntity
  8
SUNPOU
100
AcDbText
 10
6484.080344772195
 20
1990.826824444102
 30
0.0
 40
60.0
  1
23
 50
90.0
  7
K
 72
     1
 11
6484.080344772195
 21
2047.969681586959
 31
0.0
100
AcDbText
  0
LINE
  5
F6
330
17
100
AcDbEntity
  8
SUNPOU
100
AcDbLine
 10
6529.080344772196
 20
1958.969681586959
 30
0.0
 11
6529.080346537572
 21
1868.969681586959
 31
0.0
  0
LINE
  5
F7
330
17
100
AcDbEntity
  8
SUNPOU
100
AcDbLine
 10
6529.080344772196
 20
1981.969681586959
 30
0.0
 11
6529.080344772196
 21
2113.969681586959
 31
0.0
  0
INSERT
  5
F8
330
17
100
AcDbEntity
  8
SUNPOU
100
AcDbBlockReference
  2
ARROWANG
 10
6529.080344772196
 20
1981.969681586959
 30
0.0
 41
45.0
 42
45.0
 43
45.0
 50
270.0
  0
INSERT
  5
F9
330
17
100
AcDbEntity
  8
SUNPOU
100
AcDbBlockReference
  2
ARROWANG
 10
6529.080344772196
 20
1958.969681586959
 30
0.0
 41
45.0
 42
45.0
 43
45.0
 50
90.0
  0
LINE
  5
FA
330
17
100
AcDbEntity
  8
SUNPOU
100
AcDbLine
 10
6529.080344772196
 20
1958.969681586959
 30
0.0
 11
6529.080344772196
 21
1981.969681586959
 31
0.0
  0
LINE
  5
FB
330
17
100
AcDbEntity
  8
SUNPOU
100
AcDbLine
 10
6627.045455822136
 20
1981.969681586959
 30
0.0
 11
6499.080344772195
 21
1981.969681586959
 31
0.0
  0
LINE
  5
FC
330
17
100
AcDbEntity
  8
SUNPOU
100
AcDbLine
 10
6694.045455822136
 20
1958.969681586959
 30
0.0
 11
6499.080344772195
 21
1958.969681586959
 31
0.0
  0
TEXT
  5
FD
330
17
100
AcDbEntity
  8
SUNPOU
100
AcDbText
 10
6327.779861087132
 20
1738.755395872673
 30
0.0
 40
60.0
  1
315
 50
90.0
  7
K
 72
     1
 11
6327.779861087132
 21
1824.469681586959
 31
0.0
100
AcDbText
  0
INSERT
  5
FE
330
17
100
AcDbEntity
  8
SUNPOU
100
AcDbBlockReference
  2
ARROWANG
 10
6372.779861087132
 20
1981.969681586959
 30
0.0
 41
45.0
 42
45.0
 43
45.0
 50
90.0
  0
INSERT
  5
FF
330
17
100
AcDbEntity
  8
SUNPOU
100
AcDbBlockReference
  2
ARROWANG
 10
6372.779861087132
 20
1666.969681586959
 30
0.0
 41
45.0
 42
45.0
 43
45.0
 50
270.0
  0
LINE
  5
100
330
17
100
AcDbEntity
  8
SUNPOU
100
AcDbLine
 10
6372.779861087132
 20
1666.969681586959
 30
0.0
 11
6372.779861087132
 21
1981.969681586959
 31
0.0
  0
LINE
  5
101
330
17
100
AcDbEntity
  8
SUNPOU
100
AcDbLine
 10
6627.045455822136
 20
1981.969681586959
 30
0.0
 11
6342.779861087133
 21
1981.969681586959
 31
0.0
  0
LINE
  5
102
330
17
100
AcDbEntity
  8
SUNPOU
100
AcDbLine
 10
6627.045455822136
 20
1666.969681586959
 30
0.0
 11
6342.779861087133
 21
1666.969681586959
 31
0.0
  0
LINE
  5
103
330
17
100
AcDbEntity
  8
JISSEN
100
AcDbLine
 10
8217.045455822136
 20
1666.969681586959
 30
0.0
 11
8077.045455822135
 21
1666.969681586959
 31
0.0
  0
LINE
  5
104
330
17
100
AcDbEntity
  8
JISSEN
100
AcDbLine
 10
8077.045455822135
 20
1666.969681586959
 30
0.0
 11
8070.045455822135
 21
1689.969681586959
 31
0.0
  0
LINE
  5
105
330
17
100
AcDbEntity
  8
JISSEN
100
AcDbLine
 10
8070.045455822135
 20
1689.969681586959
 30
0.0
 11
7437.045455822135
 21
1689.969681586959
 31
0.0
  0
LINE
  5
106
330
17
100
AcDbEntity
  8
JISSEN
100
AcDbLine
 10
8077.045455822135
 20
1666.969681586959
 30
0.0
 11
7437.045455822135
 21
1666.969681586959
 31
0.0
  0
LINE
  5
107
330
17
100
AcDbEntity
  8
JISSEN
100
AcDbLine
 10
6797.045455822135
 20
1666.969681586959
 30
0.0
 11
7437.045455822135
 21
1666.969681586959
 31
0.0
  0
LINE
  5
108
330
17
100
AcDbEntity
  8
JISSEN
100
AcDbLine
 10
6804.045455822135
 20
1689.969681586959
 30
0.0
 11
7437.045455822135
 21
1689.969681586959
 31
0.0
  0
LINE
  5
109
330
17
100
AcDbEntity
  8
JISSEN
100
AcDbLine
 10
6797.045455822135
 20
1666.969681586959
 30
0.0
 11
6804.045455822135
 21
1689.969681586959
 31
0.0
  0
LINE
  5
10A
330
17
100
AcDbEntity
  8
JISSEN
100
AcDbLine
 10
6657.045455822135
 20
1666.969681586959
 30
0.0
 11
6797.045455822135
 21
1666.969681586959
 31
0.0
  0
TEXT
  5
10B
330
17
100
AcDbEntity
  8
SUNPOU
100
AcDbText
 10
5882.616139672162
 20
2138.712999813278
 30
0.0
 40
60.0
  1
180
 50
29.99999999995839
  7
K
 72
     1
 11
5960.558426012795
 21
2183.712999813222
 31
0.0
100
AcDbText
  0
INSERT
  5
10C
330
17
100
AcDbEntity
  8
SUNPOU
100
AcDbBlockReference
  2
ARROWANG
 10
6015.101354057072
 20
2179.672221203582
 30
0.0
 41
45.0
 42
45.0
 43
45.0
 50
29.99999999995839
  0
INSERT
  5
10D
330
17
100
AcDbEntity
  8
SUNPOU
100
AcDbBlockReference
  2
ARROWANG
 10
5859.216781375756
 20
2089.672221203789
 30
0.0
 41
45.0
 42
45.0
 43
45.0
 50
209.9999999999584
  0
LINE
  5
10E
330
17
100
AcDbEntity
  8
SUNPOU
100
AcDbLine
 10
6030.10135405666
 20
2153.691459090752
 30
0.0
 11
6030.101354057053
 21
2153.691459090037
 31
0.0
  0
LINE
  5
10F
330
17
100
AcDbEntity
  8
SUNPOU
100
AcDbLine
 10
5859.216781375756
 20
2089.672221203789
 30
0.0
 11
6015.101354057072
 21
2179.672221203582
 31
0.0
  0
TEXT
  5
110
330
17
100
AcDbEntity
  8
SUNPOU
100
AcDbText
 10
5214.415669798817
 20
1769.357650089155
 30
0.0
 40
60.0
  1
1200
 50
29.99999999995839
  7
K
 72
     1
 11
5317.101539104729
 21
1828.643364374795
 31
0.0
100
AcDbText
  0
INSERT
  5
111
330
17
100
AcDbEntity
  8
SUNPOU
100
AcDbBlockReference
  2
ARROWANG
 10
5859.216781375756
 20
2089.672221203789
 30
0.0
 41
45.0
 42
45.0
 43
45.0
 50
29.99999999995839
  0
INSERT
  5
112
330
17
100
AcDbEntity
  8
SUNPOU
100
AcDbBlockReference
  2
ARROWANG
 10
4819.98629683365
 20
1489.672221205169
 30
0.0
 41
45.0
 42
45.0
 43
45.0
 50
209.9999999999584
  0
LINE
  5
113
330
17
100
AcDbEntity
  8
SUNPOU
100
AcDbLine
 10
5874.216781375395
 20
2063.691459090867
 30
0.0
 11
5874.216781375737
 21
2063.691459090245
 31
0.0
  0
LINE
  5
114
330
17
100
AcDbEntity
  8
SUNPOU
100
AcDbLine
 10
4819.98629683365
 20
1489.672221205169
 30
0.0
 11
5859.216781375756
 21
2089.672221203789
 31
0.0
  0
TEXT
  5
115
330
17
100
AcDbEntity
  8
SUNPOU
100
AcDbText
 10
4597.979556099686
 20
1406.948628840895
 30
0.0
 40
60.0
  1
180
 50
29.99999999995839
  7
K
 72
     1
 11
4675.921842440319
 21
1451.948628840838
 31
0.0
100
AcDbText
  0
INSERT
  5
116
330
17
100
AcDbEntity
  8
SUNPOU
100
AcDbBlockReference
  2
ARROWANG
 10
4819.98629683365
 20
1489.672221205169
 30
0.0
 41
45.0
 42
45.0
 43
45.0
 50
29.99999999995839
  0
INSERT
  5
117
330
17
100
AcDbEntity
  8
SUNPOU
100
AcDbBlockReference
  2
ARROWANG
 10
4664.101724152383
 20
1399.672221205283
 30
0.0
 41
45.0
 42
45.0
 43
45.0
 50
209.9999999999584
  0
LINE
  5
118
330
17
100
AcDbEntity
  8
SUNPOU
100
AcDbLine
 10
4664.101724152383
 20
1399.672221205283
 30
0.0
 11
4819.98629683365
 21
1489.672221205169
 31
0.0
  0
LINE
  5
119
330
17
100
AcDbEntity
  8
SUNPOU
100
AcDbLine
 10
4834.986296833631
 20
1463.691459091625
 30
0.0
 11
4834.986296833631
 21
1463.691459091625
 31
0.0
  0
LINE
  5
11A
330
17
100
AcDbEntity
  8
SUNPOU
100
AcDbLine
 10
4679.10172415237
 20
1373.691459091738
 30
0.0
 11
4679.10172415237
 21
1373.691459091738
 31
0.0
  0
LINE
  5
11B
330
17
100
AcDbEntity
  8
HASEN
100
AcDbLine
 10
5898.215896242527
 20
1245.199999691771
 30
0.0
 11
5862.927906795532
 21
1280.487989138766
 31
0.0
  0
LINE
  5
11C
330
17
100
AcDbEntity
  8
HASEN
100
AcDbLine
 10
5848.785771171803
 20
1266.345853515033
 30
0.0
 11
5862.927906795532
 21
1280.487989138766
 31
0.0
  0
LINE
  5
11D
330
17
100
AcDbEntity
  8
HASEN
100
AcDbLine
 10
5848.785771171803
 20
1266.345853515033
 30
0.0
 11
5884.073760618798
 21
1231.057864068037
 31
0.0
  0
LINE
  5
11E
330
17
100
AcDbEntity
  8
ITTEN
100
AcDbLine
 10
5820.50149992434
 20
1308.772260386225
 30
0.0
 11
5926.567517102321
 21
1202.706243208244
 31
0.0
  0
LINE
  5
11F
330
17
100
AcDbEntity
  8
HASEN
100
AcDbLine
 10
4795.129317591515
 20
1231.057864066796
 30
0.0
 11
4830.417307038511
 21
1266.34585351379
 31
0.0
  0
LINE
  5
120
330
17
100
AcDbEntity
  8
HASEN
100
AcDbLine
 10
4816.275171414778
 20
1280.48798913752
 30
0.0
 11
4830.417307038511
 21
1266.34585351379
 31
0.0
  0
LINE
  5
121
330
17
100
AcDbEntity
  8
HASEN
100
AcDbLine
 10
4816.275171414778
 20
1280.48798913752
 30
0.0
 11
4780.987181967783
 21
1245.199999690527
 31
0.0
  0
LINE
  5
122
330
17
100
AcDbEntity
  8
ITTEN
100
AcDbLine
 10
4858.701578285971
 20
1308.772260384983
 30
0.0
 11
4752.635561107989
 21
1202.706243207
 31
0.0
  0
LINE
  5
123
330
17
100
AcDbEntity
  8
HASEN
100
AcDbLine
 10
4780.987181966539
 20
2334.144442717807
 30
0.0
 11
4816.27517141353
 21
2298.856453270811
 31
0.0
  0
LINE
  5
124
330
17
100
AcDbEntity
  8
HASEN
100
AcDbLine
 10
4830.41730703726
 20
2312.998588894545
 30
0.0
 11
4816.27517141353
 21
2298.856453270811
 31
0.0
  0
LINE
  5
125
330
17
100
AcDbEntity
  8
HASEN
100
AcDbLine
 10
4830.41730703726
 20
2312.998588894545
 30
0.0
 11
4795.129317590268
 21
2348.28657834154
 31
0.0
  0
LINE
  5
126
330
17
100
AcDbEntity
  8
ITTEN
100
AcDbLine
 10
4858.701578284723
 20
2270.572182023351
 30
0.0
 11
4752.635561106741
 21
2376.638199201333
 31
0.0
  0
LINE
  5
127
330
17
100
AcDbEntity
  8
ITTEN
100
AcDbLine
 10
6169.601539104533
 20
1789.672221204789
 30
0.0
 11
4509.601539104533
 21
1789.672221204789
 31
0.0
  0
LINE
  5
128
330
17
100
AcDbEntity
  8
ITTEN
100
AcDbLine
 10
5339.601539104533
 20
2619.672221204789
 30
0.0
 11
5339.601539104533
 21
959.6722212047898
 31
0.0
  0
CIRCLE
  5
129
330
17
100
AcDbEntity
  8
JISSEN
100
AcDbCircle
 10
5339.601539104533
 20
1789.672221204789
 30
0.0
 40
780.0
  0
ARC
  5
12A
330
17
100
AcDbEntity
  8
JISSEN
100
AcDbCircle
 10
4859.601539104533
 20
1979.67222120479
 30
0.0
 40
10.0
100
AcDbArc
 50
0.0
 51
90.00000000000069
  0
ARC
  5
12B
330
17
100
AcDbEntity
  8
JISSEN
100
AcDbCircle
 10
4839.601539104533
 20
1959.672221204789
 30
0.0
 40
10.0
100
AcDbArc
 50
0.0
 51
90.0
  0
LINE
  5
12C
330
17
100
AcDbEntity
  8
JISSEN
100
AcDbLine
 10
4839.601539104533
 20
1969.672221204789
 30
0.0
 11
4767.238018254367
 21
1969.672221204788
 31
0.0
  0
LINE
  5
12D
330
17
100
AcDbEntity
  8
JISSEN
100
AcDbLine
 10
4859.601539104533
 20
1989.672221204789
 30
0.0
 11
4795.337470392605
 21
1989.672221204788
 31
0.0
  0
LINE
  5
12E
330
17
100
AcDbEntity
  8
JISSEN
100
AcDbLine
 10
4869.601539104532
 20
1979.67222120479
 30
0.0
 11
4869.601539104532
 21
1839.672221204788
 31
0.0
  0
LINE
  5
12F
330
17
100
AcDbEntity
  8
ITTEN
100
AcDbLine
 10
5820.501499923095
 20
2270.572182024596
 30
0.0
 11
5926.567517101076
 21
2376.638199202578
 31
0.0
  0
LINE
  5
130
330
17
100
AcDbEntity
  8
HASEN
100
AcDbLine
 10
5862.927906794288
 20
2298.856453272059
 30
0.0
 11
5898.215896241283
 21
2334.144442719052
 31
0.0
  0
LINE
  5
131
330
17
100
AcDbEntity
  8
HASEN
100
AcDbLine
 10
5862.927906794288
 20
2298.856453272059
 30
0.0
 11
5848.785771170554
 21
2312.998588895788
 31
0.0
  0
LINE
  5
132
330
17
100
AcDbEntity
  8
HASEN
100
AcDbLine
 10
5884.07376061755
 20
2348.286578342782
 30
0.0
 11
5848.785771170554
 21
2312.998588895788
 31
0.0
  0
CIRCLE
  5
133
330
17
100
AcDbEntity
  8
JISSEN
100
AcDbCircle
 10
5339.601539104533
 20
1789.672221204789
 30
0.0
 40
600.0
  0
CIRCLE
  5
134
330
17
100
AcDbEntity
  8
JISSEN
100
AcDbCircle
 10
5339.601539104533
 20
1789.672221204789
 30
0.0
 40
633.0
  0
CIRCLE
  5
135
330
17
100
AcDbEntity
  8
JISSEN
100
AcDbCircle
 10
5339.601539104533
 20
1789.672221204789
 30
0.0
 40
640.0
  0
LINE
  5
136
330
17
100
AcDbEntity
  8
JISSEN
100
AcDbLine
 10
4849.601539104533
 20
1789.672221204789
 30
0.0
 11
4849.601539104533
 21
1959.672221204789
 31
0.0
  0
LINE
  5
137
330
17
100
AcDbEntity
  8
JISSEN
100
AcDbLine
 10
4869.601539104532
 20
1979.67222120479
 30
0.0
 11
4869.601539104532
 21
1789.672221204789
 31
0.0
  0
LINE
  5
138
330
17
100
AcDbEntity
  8
JISSEN
100
AcDbLine
 10
4859.601539104533
 20
1989.672221204789
 30
0.0
 11
4773.916114155293
 21
1989.672221204788
 31
0.0
  0
LINE
  5
139
330
17
100
AcDbEntity
  8
JISSEN
100
AcDbLine
 10
4859.601539104533
 20
1589.672221204788
 30
0.0
 11
4773.916114155293
 21
1589.67222120479
 31
0.0
  0
LINE
  5
13A
330
17
100
AcDbEntity
  8
JISSEN
100
AcDbLine
 10
4839.601539104533
 20
1609.672221204789
 30
0.0
 11
4767.238018254367
 21
1609.672221204789
 31
0.0
  0
ARC
  5
13B
330
17
100
AcDbEntity
  8
JISSEN
100
AcDbCircle
 10
4839.601539104533
 20
1619.672221204788
 30
0.0
 40
10.0
100
AcDbArc
 50
270.0
 51
0.0
  0
ARC
  5
13C
330
17
100
AcDbEntity
  8
JISSEN
100
AcDbCircle
 10
4859.601539104533
 20
1599.672221204788
 30
0.0
 40
10.0
100
AcDbArc
 50
269.9999999999992
 51
0.0
  0
LINE
  5
13D
330
17
100
AcDbEntity
  8
JISSEN
100
AcDbLine
 10
4869.601539104532
 20
1599.672221204788
 30
0.0
 11
4869.601539104532
 21
1789.672221204789
 31
0.0
  0
LINE
  5
13E
330
17
100
AcDbEntity
  8
JISSEN
100
AcDbLine
 10
4849.601539104533
 20
1789.672221204789
 30
0.0
 11
4849.601539104533
 21
1619.672221204788
 31
0.0
  0
LINE
  5
13F
330
17
100
AcDbEntity
  8
SUNPOU
100
AcDbLine
 10
6797.045455822135
 20
2184.569937950307
 30
0.0
 11
8077.045455822135
 21
2184.569937950307
 31
0.0
  0
INSERT
  5
140
330
17
100
AcDbEntity
  8
SUNPOU
100
AcDbBlockReference
  2
ARROWANG
 10
6797.045455822135
 20
2184.569937950307
 30
0.0
 41
45.0
 42
45.0
 43
45.0
 50
180.0
  0
INSERT
  5
141
330
17
100
AcDbEntity
  8
SUNPOU
100
AcDbBlockReference
  2
ARROWANG
 10
8077.045455822135
 20
2184.569937950307
 30
0.0
 41
45.0
 42
45.0
 43
45.0
  0
TEXT
  5
142
330
17
100
AcDbEntity
  8
SUNPOU
100
AcDbText
 10
7318.474041956476
 20
2229.569937950306
 30
0.0
 40
60.0
  1
1280
  7
K
 72
     1
 11
7437.045470527904
 21
2229.569937950306
 31
0.0
100
AcDbText
  0
LINE
  5
143
330
17
100
AcDbEntity
  8
SUNPOU
100
AcDbLine
 10
6657.045455822135
 20
2313.777042876148
 30
0.0
 11
6837.045455822135
 21
2313.777042876148
 31
0.0
  0
INSERT
  5
144
330
17
100
AcDbEntity
  8
SUNPOU
100
AcDbBlockReference
  2
ARROWANG
 10
6837.045455822135
 20
2313.777042876148
 30
0.0
 41
45.0
 42
45.0
 43
45.0
 50
180.0
  0
INSERT
  5
145
330
17
100
AcDbEntity
  8
SUNPOU
100
AcDbBlockReference
  2
ARROWANG
 10
6657.045455822135
 20
2313.777042876148
 30
0.0
 41
45.0
 42
45.0
 43
45.0
  0
TEXT
  5
146
330
17
100
AcDbEntity
  8
SUNPOU
100
AcDbText
 10
6657.045470527904
 20
2358.777042876145
 30
0.0
 40
60.0
  1
180
  7
K
 72
     1
 11
6747.045470527904
 21
2358.777042876145
 31
0.0
100
AcDbText
  0
LINE
  5
147
330
17
100
AcDbEntity
  8
SUNPOU
100
AcDbLine
 10
6837.045455822135
 20
2313.777042876148
 30
0.0
 11
6927.045455822136
 21
2313.777042876148
 31
0.0
  0
LINE
  5
148
330
17
100
AcDbEntity
  8
SUNPOU
100
AcDbLine
 10
6657.045455822135
 20
2313.777042876148
 30
0.0
 11
6567.045455822135
 21
2313.777042876148
 31
0.0
  0
LINE
  5
149
330
17
100
AcDbEntity
  8
SUNPOU
100
AcDbLine
 10
6837.045455822135
 20
2313.777042876148
 30
0.0
 11
8037.045455822136
 21
2313.777042876148
 31
0.0
  0
INSERT
  5
14A
330
17
100
AcDbEntity
  8
SUNPOU
100
AcDbBlockReference
  2
ARROWANG
 10
6837.045455822135
 20
2313.777042876148
 30
0.0
 41
45.0
 42
45.0
 43
45.0
 50
180.0
  0
INSERT
  5
14B
330
17
100
AcDbEntity
  8
SUNPOU
100
AcDbBlockReference
  2
ARROWANG
 10
8037.045455822136
 20
2313.777042876148
 30
0.0
 41
45.0
 42
45.0
 43
45.0
  0
TEXT
  5
14C
330
17
100
AcDbEntity
  8
SUNPOU
100
AcDbText
 10
7318.474027250707
 20
2358.777042876148
 30
0.0
 40
60.0
  1
1200
  7
K
 72
     1
 11
7437.045455822135
 21
2358.777042876148
 31
0.0
100
AcDbText
  0
LINE
  5
14D
330
17
100
AcDbEntity
  8
SUNPOU
100
AcDbLine
 10
8037.045455822136
 20
2313.777042876148
 30
0.0
 11
8217.045455822136
 21
2313.777042876148
 31
0.0
  0
INSERT
  5
14E
330
17
100
AcDbEntity
  8
SUNPOU
100
AcDbBlockReference
  2
ARROWANG
 10
8217.045455822136
 20
2313.777042876148
 30
0.0
 41
45.0
 42
45.0
 43
45.0
 50
180.0
  0
INSERT
  5
14F
330
17
100
AcDbEntity
  8
SUNPOU
100
AcDbBlockReference
  2
ARROWANG
 10
8037.045455822136
 20
2313.777042876148
 30
0.0
 41
45.0
 42
45.0
 43
45.0
  0
TEXT
  5
150
330
17
100
AcDbEntity
  8
SUNPOU
100
AcDbText
 10
8037.045455822136
 20
2373.777042876147
 30
0.0
 40
60.0
  1
180
  7
K
 72
     4
 11
8127.045455822136
 21
2403.777042876148
 31
0.0
100
AcDbText
  0
LINE
  5
151
330
17
100
AcDbEntity
  8
SUNPOU
100
AcDbLine
 10
8217.045455822136
 20
2313.777042876148
 30
0.0
 11
8307.045455822136
 21
2313.777042876148
 31
0.0
  0
LINE
  5
152
330
17
100
AcDbEntity
  8
SUNPOU
100
AcDbLine
 10
8037.045455822136
 20
2313.777042876148
 30
0.0
 11
7947.045455822136
 21
2313.777042876148
 31
0.0
  0
LINE
  5
153
330
17
100
AcDbEntity
  8
ITTEN
100
AcDbLine
 10
7437.045455822135
 20
2031.969681586959
 30
0.0
 11
7437.045455822135
 21
1616.969681586959
 31
0.0
  0
LINE
  5
154
330
17
100
AcDbEntity
  8
JISSEN
100
AcDbLine
 10
6657.045455822135
 20
1981.969681586959
 30
0.0
 11
6797.045455822135
 21
1981.969681586959
 31
0.0
  0
LINE
  5
155
330
17
100
AcDbEntity
  8
JISSEN
100
AcDbLine
 10
6797.045455822135
 20
1981.969681586959
 30
0.0
 11
6804.045455822135
 21
1958.969681586959
 31
0.0
  0
LINE
  5
156
330
17
100
AcDbEntity
  8
JISSEN
100
AcDbLine
 10
6804.045455822135
 20
1958.969681586959
 30
0.0
 11
7437.045455822135
 21
1958.969681586959
 31
0.0
  0
LINE
  5
157
330
17
100
AcDbEntity
  8
JISSEN
100
AcDbLine
 10
6797.045455822135
 20
1981.969681586959
 30
0.0
 11
7437.045455822135
 21
1981.969681586959
 31
0.0
  0
LINE
  5
158
330
17
100
AcDbEntity
  8
JISSEN
100
AcDbLine
 10
8077.045455822135
 20
1981.969681586959
 30
0.0
 11
7437.045455822135
 21
1981.969681586959
 31
0.0
  0
LINE
  5
159
330
17
100
AcDbEntity
  8
JISSEN
100
AcDbLine
 10
8070.045455822135
 20
1958.969681586959
 30
0.0
 11
7437.045455822135
 21
1958.969681586959
 31
0.0
  0
LINE
  5
15A
330
17
100
AcDbEntity
  8
JISSEN
100
AcDbLine
 10
8077.045455822135
 20
1981.969681586959
 30
0.0
 11
8070.045455822135
 21
1958.969681586959
 31
0.0
  0
LINE
  5
15B
330
17
100
AcDbEntity
  8
JISSEN
100
AcDbLine
 10
8217.045455822136
 20
1981.969681586959
 30
0.0
 11
8077.045455822135
 21
1981.969681586959
 31
0.0
  0
LINE
  5
15C
330
17
100
AcDbEntity
  8
JISSEN
100
AcDbLine
 10
6837.045455822135
 20
1958.969681586959
 30
0.0
 11
6837.045455822135
 21
1689.969681586959
 31
0.0
  0
LINE
  5
15D
330
17
100
AcDbEntity
  8
JISSEN
100
AcDbLine
 10
8037.045455822136
 20
1958.969681586959
 30
0.0
 11
8037.045455822132
 21
1689.969681586959
 31
0.0
  0
LINE
  5
15E
330
17
100
AcDbEntity
  8
JISSEN
100
AcDbLine
 10
6657.045455822135
 20
1666.969681586958
 30
0.0
 11
6657.045455822135
 21
1981.969681586959
 31
0.0
  0
LINE
  5
15F
330
17
100
AcDbEntity
  8
JISSEN
100
AcDbLine
 10
8217.045455822136
 20
1666.969681586958
 30
0.0
 11
8217.045455822136
 21
1981.969681586959
 31
0.0
  0
ARC
  5
160
330
17
100
AcDbEntity
  8
JISSEN
100
AcDbCircle
 10
6957.045455822136
 20
1816.969681586957
 30
0.0
 40
10.0
100
AcDbArc
 50
270.0
 51
90.0
  0
LINE
  5
161
330
17
100
AcDbEntity
  8
JISSEN
100
AcDbLine
 10
6837.045455822135
 20
1826.969681586959
 30
0.0
 11
6957.045455822136
 21
1826.969681586959
 31
0.0
  0
LINE
  5
162
330
17
100
AcDbEntity
  8
JISSEN
100
AcDbLine
 10
6837.045455822135
 20
1806.969681586959
 30
0.0
 11
6957.045455822136
 21
1806.969681586959
 31
0.0
  0
LINE
  5
163
330
17
100
AcDbEntity
  8
ITTEN
100
AcDbLine
 10
6787.045455822135
 20
1816.969681586959
 30
0.0
 11
7017.045455822135
 21
1816.969681586959
 31
0.0
  0
LINE
  5
164
330
17
100
AcDbEntity
  8
SUNPOU
100
AcDbLine
 10
6804.045455822135
 20
1988.969681586959
 30
0.0
 11
6804.045455822135
 21
2082.286473383377
 31
0.0
  0
LINE
  5
165
330
17
100
AcDbEntity
  8
SUNPOU
100
AcDbLine
 10
8070.045455822135
 20
1988.969681586959
 30
0.0
 11
8070.045455822135
 21
2082.286473383377
 31
0.0
  0
LINE
  5
166
330
17
100
AcDbEntity
  8
SUNPOU
100
AcDbLine
 10
6804.045455822135
 20
2052.286473383377
 30
0.0
 11
8070.045455822135
 21
2052.286473383377
 31
0.0
  0
INSERT
  5
167
330
17
100
AcDbEntity
  8
SUNPOU
100
AcDbBlockReference
  2
ARROWANG
 10
6804.045455822135
 20
2052.286473383377
 30
0.0
 41
45.0
 42
45.0
 43
45.0
 50
180.0
  0
INSERT
  5
168
330
17
100
AcDbEntity
  8
SUNPOU
100
AcDbBlockReference
  2
ARROWANG
 10
8070.045455822135
 20
2052.286473383377
 30
0.0
 41
45.0
 42
45.0
 43
45.0
  0
TEXT
  5
169
330
17
100
AcDbEntity
  8
SUNPOU
100
AcDbText
 10
7318.474041956476
 20
2097.286473383374
 30
0.0
 40
60.0
  1
1266
  7
K
 72
     1
 11
7437.045470527904
 21
2097.286473383374
 31
0.0
100
AcDbText
  0
LINE
  5
16A
330
17
100
AcDbEntity
  8
SUNPOU
100
AcDbLine
 10
6797.045455822135
 20
2011.969681586959
 30
0.0
 11
6797.045455822135
 21
2214.569937950307
 31
0.0
  0
LINE
  5
16B
330
17
100
AcDbEntity
  8
SUNPOU
100
AcDbLine
 10
8077.045455822135
 20
2011.969681586959
 30
0.0
 11
8077.045455822135
 21
2214.569937950307
 31
0.0
  0
LINE
  5
16C
330
17
100
AcDbEntity
  8
SUNPOU
100
AcDbLine
 10
6657.045455822135
 20
2011.969681586959
 30
0.0
 11
6657.045455822135
 21
2343.777042876149
 31
0.0
  0
LINE
  5
16D
330
17
100
AcDbEntity
  8
SUNPOU
100
AcDbLine
 10
6837.045455822135
 20
1988.969681586959
 30
0.0
 11
6837.045455822135
 21
2343.777042876149
 31
0.0
  0
LINE
  5
16E
330
17
100
AcDbEntity
  8
SUNPOU
100
AcDbLine
 10
8037.045455822136
 20
1988.969681586959
 30
0.0
 11
8037.045455822136
 21
2343.777042876149
 31
0.0
  0
LINE
  5
16F
330
17
100
AcDbEntity
  8
SUNPOU
100
AcDbLine
 10
8217.045455822136
 20
2011.969681586959
 30
0.0
 11
8217.045455822136
 21
2343.777042876149
 31
0.0
  0
CIRCLE
  5
170
330
17
100
AcDbEntity
  8
SAISEN
100
AcDbCircle
 10
7932.020202652719
 20
1881.969681586959
 30
0.0
 40
12.5
  0
CIRCLE
  5
171
330
17
100
AcDbEntity
  8
SAISEN
100
AcDbCircle
 10
6942.070708991552
 20
1881.969681586959
 30
0.0
 40
12.5
  0
TEXT
  5
173
330
17
100
AcDbEntity
  8
SUNPOU
100
AcDbText
 10
4382.557292609131
 20
4775.358005795532
 30
0.0
 40
60.0
  1
600
 50
90.0
  7
K
 72
     1
 11
4382.557292609131
 21
4862.500862938389
 31
0.0
100
AcDbText
  0
INSERT
  5
174
330
17
100
AcDbEntity
  8
SUNPOU
100
AcDbBlockReference
  2
ARROWANG
 10
4427.557292609132
 20
5162.500862938389
 30
0.0
 41
45.0
 42
45.0
 43
45.0
 50
90.0
  0
INSERT
  5
175
330
17
100
AcDbEntity
  8
SUNPOU
100
AcDbBlockReference
  2
ARROWANG
 10
4427.557292609132
 20
4562.500862938389
 30
0.0
 41
45.0
 42
45.0
 43
45.0
 50
270.0
  0
LINE
  5
176
330
17
100
AcDbEntity
  8
SUNPOU
100
AcDbLine
 10
4427.557292609132
 20
4562.500862938389
 30
0.0
 11
4427.557292609132
 21
5162.500862938389
 31
0.0
  0
LINE
  5
177
330
17
100
AcDbEntity
  8
SUNPOU
100
AcDbLine
 10
4609.60153910524
 20
5162.500862938389
 30
0.0
 11
4397.557292609131
 21
5162.500862938389
 31
0.0
  0
LINE
  5
178
330
17
100
AcDbEntity
  8
SUNPOU
100
AcDbLine
 10
4609.601539105237
 20
4562.500862938389
 30
0.0
 11
4397.557292609131
 21
4562.500862938389
 31
0.0
  0
TEXT
  5
179
330
17
100
AcDbEntity
  8
SUNPOU
100
AcDbText
 10
5575.940768736439
 20
4906.50086293839
 30
0.0
 40
60.0
  1
100
 50
90.0
  7
K
 72
     1
 11
5575.940768736439
 21
4996.50086293839
 31
0.0
100
AcDbText
  0
LINE
  5
17A
330
17
100
AcDbEntity
  8
SUNPOU
100
AcDbLine
 10
5620.940768736438
 20
4797.500862938389
 30
0.0
 11
5620.940770501815
 21
4707.500862938389
 31
0.0
  0
LINE
  5
17B
330
17
100
AcDbEntity
  8
SUNPOU
100
AcDbLine
 10
5620.940768736438
 20
4897.50086293839
 30
0.0
 11
5620.940768736438
 21
5095.500862938389
 31
0.0
  0
INSERT
  5
17C
330
17
100
AcDbEntity
  8
SUNPOU
100
AcDbBlockReference
  2
ARROWANG
 10
5620.940768736438
 20
4897.50086293839
 30
0.0
 41
45.0
 42
45.0
 43
45.0
 50
270.0
  0
INSERT
  5
17D
330
17
100
AcDbEntity
  8
SUNPOU
100
AcDbBlockReference
  2
ARROWANG
 10
5620.940768736438
 20
4797.500862938389
 30
0.0
 41
45.0
 42
45.0
 43
45.0
 50
90.0
  0
LINE
  5
17E
330
17
100
AcDbEntity
  8
SUNPOU
100
AcDbLine
 10
5620.940768736438
 20
4797.500862938389
 30
0.0
 11
5620.940768736438
 21
4897.50086293839
 31
0.0
  0
LINE
  5
17F
330
17
100
AcDbEntity
  8
SUNPOU
100
AcDbLine
 10
5419.601539105244
 20
4897.50086293839
 30
0.0
 11
5650.940768736439
 21
4897.50086293839
 31
0.0
  0
LINE
  5
180
330
17
100
AcDbEntity
  8
SUNPOU
100
AcDbLine
 10
5419.601539105244
 20
4797.500862938389
 30
0.0
 11
5650.940768736439
 21
4797.500862938389
 31
0.0
  0
TEXT
  5
181
330
17
100
AcDbEntity
  8
SUNPOU
100
AcDbText
 10
4977.458696668152
 20
5061.708117918604
 30
0.0
 40
60.0
  1
650
  7
K
 72
     1
 11
5064.60155381101
 21
5061.708117918604
 31
0.0
100
AcDbText
  0
INSERT
  5
182
330
17
100
AcDbEntity
  8
SUNPOU
100
AcDbBlockReference
  2
ARROWANG
 10
5389.601539105244
 20
5016.708117918607
 30
0.0
 41
45.0
 42
45.0
 43
45.0
  0
INSERT
  5
183
330
17
100
AcDbEntity
  8
SUNPOU
100
AcDbBlockReference
  2
ARROWANG
 10
4739.60153910524
 20
5016.708117918607
 30
0.0
 41
45.0
 42
45.0
 43
45.0
 50
180.0
  0
LINE
  5
184
330
17
100
AcDbEntity
  8
SUNPOU
100
AcDbLine
 10
4739.60153910524
 20
5016.708117918607
 30
0.0
 11
5389.601539105244
 21
5016.708117918607
 31
0.0
  0
LINE
  5
185
330
17
100
AcDbEntity
  8
SUNPOU
100
AcDbLine
 10
5389.601539105244
 20
4927.500862938389
 30
0.0
 11
5389.601539105244
 21
5046.708117918607
 31
0.0
  0
LINE
  5
186
330
17
100
AcDbEntity
  8
SUNPOU
100
AcDbLine
 10
4739.60153910524
 20
5027.500862938389
 30
0.0
 11
4739.60153910524
 21
5046.708117918607
 31
0.0
  0
LINE
  5
187
330
17
100
AcDbEntity
  8
JISSEN
100
AcDbLine
 10
5939.601539105241
 20
4797.500862938389
 30
0.0
 11
5939.601539105241
 21
4547.500862938389
 31
0.0
  0
LINE
  5
188
330
17
100
AcDbEntity
  8
JISSEN
100
AcDbLine
 10
5389.601539105244
 20
4897.50086293839
 30
0.0
 11
5389.601539105244
 21
4797.500862938389
 31
0.0
  0
LINE
  5
189
330
17
100
AcDbEntity
  8
JISSEN
100
AcDbLine
 10
4819.601539105244
 20
4897.50086293839
 30
0.0
 11
5939.601539105241
 21
4897.50086293839
 31
0.0
  0
LINE
  5
18A
330
17
100
AcDbEntity
  8
JISSEN
100
AcDbLine
 10
4819.601539105244
 20
4797.500862938389
 30
0.0
 11
4819.601539105244
 21
4897.50086293839
 31
0.0
  0
LINE
  5
18B
330
17
100
AcDbEntity
  8
JISSEN
100
AcDbLine
 10
5939.601539105241
 20
4797.500862938389
 30
0.0
 11
4819.601539105244
 21
4797.500862938389
 31
0.0
  0
TEXT
  5
18C
330
17
100
AcDbEntity
  8
SUNPOU
100
AcDbText
 10
3091.798727778937
 20
4871.24434949473
 30
0.0
 40
60.0
  1
R300
 50
56.30669385736804
  7
K
 72
     1
 11
3156.783402893264
 21
4968.709425187911
 31
0.0
100
AcDbText
  0
INSERT
  5
18D
330
17
100
AcDbEntity
  8
SUNPOU
100
AcDbBlockReference
  2
ARROWANG
 10
3277.436339129113
 20
5068.548640818187
 30
0.0
 41
45.0
 42
45.0
 43
45.0
 50
56.30669385736804
  0
LINE
  5
18E
330
17
100
AcDbEntity
  8
SUNPOU
100
AcDbLine
 10
3277.436339129113
 20
5068.548640818187
 30
0.0
 11
3111.012171153399
 21
4818.942959164921
 31
0.0
  0
LINE
  5
18F
330
17
100
AcDbEntity
  8
SUNPOU
100
AcDbLine
 10
3880.62741342401
 20
5118.942959165016
 30
0.0
 11
3967.229953802444
 21
5168.942959165031
 31
0.0
  0
POINT
  5
190
330
17
100
AcDbEntity
  8
SUNPOU
100
AcDbPoint
 10
3966.229953802439
 20
5168.942959165031
 30
0.0
  0
TEXT
  5
191
330
17
100
AcDbEntity
  8
SUNPOU
100
AcDbText
 10
3926.721774435464
 20
5212.280586016321
 30
0.0
 40
60.0
  1
100
 50
30.0000000000106
  7
K
 72
     4
 11
3989.664060776051
 21
5283.261348129865
 31
0.0
100
AcDbText
  0
INSERT
  5
192
330
17
100
AcDbEntity
  8
SUNPOU
100
AcDbBlockReference
  2
ARROWANG
 10
3880.62741342401
 20
5118.942959165016
 30
0.0
 41
45.0
 42
45.0
 43
45.0
 50
210.0000000000103
  0
INSERT
  5
193
330
17
100
AcDbEntity
  8
SUNPOU
100
AcDbBlockReference
  2
ARROWANG
 10
3967.229953802439
 20
5168.942959165026
 30
0.0
 41
45.0
 42
45.0
 43
45.0
 50
210.0000000000103
  0
LINE
  5
194
330
17
100
AcDbEntity
  8
SUNPOU
100
AcDbLine
 10
4053.832494180862
 20
5218.942959165038
 30
0.0
 11
3967.229953802425
 21
5168.942959165023
 31
0.0
  0
TEXT
  5
195
330
17
100
AcDbEntity
  8
SUNPOU
100
AcDbText
 10
3235.826301847613
 20
4798.628388049531
 30
0.0
 40
60.0
  1
1200
 50
30.00000000001032
  7
K
 72
     1
 11
3338.512171153472
 21
4857.914102335263
 31
0.0
100
AcDbText
  0
INSERT
  5
196
330
17
100
AcDbEntity
  8
SUNPOU
100
AcDbBlockReference
  2
ARROWANG
 10
3880.62741342401
 20
5118.942959165016
 30
0.0
 41
45.0
 42
45.0
 43
45.0
 50
30.00000000001032
  0
INSERT
  5
197
330
17
100
AcDbEntity
  8
SUNPOU
100
AcDbBlockReference
  2
ARROWANG
 10
2841.396928882952
 20
4518.942959164921
 30
0.0
 41
45.0
 42
45.0
 43
45.0
 50
210.0000000000103
  0
LINE
  5
198
330
17
100
AcDbEntity
  8
SUNPOU
100
AcDbLine
 10
2841.396928882952
 20
4518.942959164921
 30
0.0
 11
3880.62741342401
 21
5118.942959165016
 31
0.0
  0
LINE
  5
199
330
17
100
AcDbEntity
  8
SUNPOU
100
AcDbLine
 10
2856.396928882956
 20
4492.962197051392
 30
0.0
 11
2856.396928882956
 21
4492.962197051392
 31
0.0
  0
ARC
  5
19A
330
17
100
AcDbEntity
  8
JISSEN
100
AcDbCircle
 10
3111.012171153399
 20
4818.942959164921
 30
0.0
 40
300.0000000000009
100
AcDbArc
 50
270.0000000000002
 51
89.99999999999982
  0
LINE
  5
19B
330
17
100
AcDbEntity
  8
JISSEN
100
AcDbLine
 10
2841.396928882737
 20
4518.942959164921
 30
0.0
 11
3111.012171153399
 21
4518.942959164921
 31
0.0
  0
LINE
  5
19C
330
17
100
AcDbEntity
  8
JISSEN
100
AcDbLine
 10
2841.396928882737
 20
5118.942959164922
 30
0.0
 11
3111.012171153399
 21
5118.942959164922
 31
0.0
  0
TEXT
  5
19D
330
17
100
AcDbEntity
  8
SUNPOU
100
AcDbText
 10
4978.249842640829
 20
4761.786577224103
 30
0.0
 40
60.0
  1
300
 50
90.0
  7
K
 72
     1
 11
4978.249842640829
 21
4847.500862938389
 31
0.0
100
AcDbText
  0
INSERT
  5
19E
330
17
100
AcDbEntity
  8
SUNPOU
100
AcDbBlockReference
  2
ARROWANG
 10
5023.249842640829
 20
4997.500862938389
 30
0.0
 41
45.0
 42
45.0
 43
45.0
 50
90.0
  0
INSERT
  5
19F
330
17
100
AcDbEntity
  8
SUNPOU
100
AcDbBlockReference
  2
ARROWANG
 10
5023.249842640829
 20
4697.500862938389
 30
0.0
 41
45.0
 42
45.0
 43
45.0
 50
270.0
  0
LINE
  5
1A0
330
17
100
AcDbEntity
  8
SUNPOU
100
AcDbLine
 10
4899.60153910524
 20
4997.500862938389
 30
0.0
 11
5053.24984264083
 21
4997.500862938389
 31
0.0
  0
LINE
  5
1A1
330
17
100
AcDbEntity
  8
SUNPOU
100
AcDbLine
 10
5023.249842640829
 20
4697.500862938389
 30
0.0
 11
5023.249842640829
 21
4997.500862938389
 31
0.0
  0
LINE
  5
1A2
330
17
100
AcDbEntity
  8
SUNPOU
100
AcDbLine
 10
4899.601539105244
 20
4697.500862938389
 30
0.0
 11
5053.24984264083
 21
4697.500862938389
 31
0.0
  0
ARC
  5
1A3
330
17
100
AcDbEntity
  8
JISSEN
100
AcDbCircle
 10
4859.601539105245
 20
4697.500862938389
 30
0.0
 40
10.0
100
AcDbArc
 50
270.0
 51
90.0
  0
LINE
  5
1A4
330
17
100
AcDbEntity
  8
JISSEN
100
AcDbLine
 10
4739.601539105244
 20
4707.500862938389
 30
0.0
 11
4859.601539105245
 21
4707.500862938389
 31
0.0
  0
LINE
  5
1A5
330
17
100
AcDbEntity
  8
JISSEN
100
AcDbLine
 10
4739.601539105244
 20
4687.500862938389
 30
0.0
 11
4859.601539105245
 21
4687.500862938389
 31
0.0
  0
LINE
  5
1A6
330
17
100
AcDbEntity
  8
ITTEN
100
AcDbLine
 10
4689.601539105244
 20
4697.500862938389
 30
0.0
 11
4919.601539105244
 21
4697.500862938389
 31
0.0
  0
TEXT
  5
1A7
330
17
100
AcDbEntity
  8
SUNPOU
100
AcDbText
 10
5221.030125239582
 20
4297.451787677419
 30
0.0
 40
60.0
  1
1278
  7
K
 72
     1
 11
5339.60155381101
 21
4297.451787677419
 31
0.0
100
AcDbText
  0
INSERT
  5
1A8
330
17
100
AcDbEntity
  8
SUNPOU
100
AcDbBlockReference
  2
ARROWANG
 10
5978.601539105245
 20
4252.451787677423
 30
0.0
 41
45.0
 42
45.0
 43
45.0
  0
INSERT
  5
1A9
330
17
100
AcDbEntity
  8
SUNPOU
100
AcDbBlockReference
  2
ARROWANG
 10
4700.601539105241
 20
4252.451787677423
 30
0.0
 41
45.0
 42
45.0
 43
45.0
 50
180.0
  0
LINE
  5
1AA
330
17
100
AcDbEntity
  8
SUNPOU
100
AcDbLine
 10
4700.601539105241
 20
4252.451787677423
 30
0.0
 11
5978.601539105245
 21
4252.451787677423
 31
0.0
  0
LINE
  5
1AB
330
17
100
AcDbEntity
  8
SUNPOU
100
AcDbLine
 10
5978.601539105245
 20
4532.500862938389
 30
0.0
 11
5978.601539105245
 21
4222.451787677424
 31
0.0
  0
LINE
  5
1AC
330
17
100
AcDbEntity
  8
SUNPOU
100
AcDbLine
 10
4700.601539105241
 20
4532.500862938389
 30
0.0
 11
4700.601539105241
 21
4222.451787677424
 31
0.0
  0
CIRCLE
  5
1AD
330
17
100
AcDbEntity
  8
SAISEN
100
AcDbCircle
 10
4844.626792274658
 20
5062.500862938389
 30
0.0
 40
12.5
  0
CIRCLE
  5
1AE
330
17
100
AcDbEntity
  8
SAISEN
100
AcDbCircle
 10
5834.576285935824
 20
5062.500862938389
 30
0.0
 40
12.5
  0
CIRCLE
  5
1AF
330
17
100
AcDbEntity
  8
SAISEN
100
AcDbCircle
 10
5834.576285935824
 20
4662.500862938389
 30
0.0
 40
12.5
  0
CIRCLE
  5
1B0
330
17
100
AcDbEntity
  8
SAISEN
100
AcDbCircle
 10
4844.626792274658
 20
4662.500862938389
 30
0.0
 40
12.5
  0
TEXT
  5
1B1
330
17
100
AcDbEntity
  8
SUNPOU
100
AcDbText
 10
5221.030110533813
 20
4433.173816609873
 30
0.0
 40
60.0
  1
1256
  7
K
 72
     1
 11
5339.601539105241
 21
4433.173816609873
 31
0.0
100
AcDbText
  0
INSERT
  5
1B2
330
17
100
AcDbEntity
  8
SUNPOU
100
AcDbBlockReference
  2
ARROWANG
 10
4711.601539105241
 20
4388.173816609874
 30
0.0
 41
45.0
 42
45.0
 43
45.0
 50
180.0
  0
INSERT
  5
1B3
330
17
100
AcDbEntity
  8
SUNPOU
100
AcDbBlockReference
  2
ARROWANG
 10
5967.601539105245
 20
4388.173816609874
 30
0.0
 41
45.0
 42
45.0
 43
45.0
  0
LINE
  5
1B4
330
17
100
AcDbEntity
  8
SUNPOU
100
AcDbLine
 10
4711.601539105241
 20
4388.173816609874
 30
0.0
 11
5967.601539105245
 21
4388.173816609874
 31
0.0
  0
LINE
  5
1B5
330
17
100
AcDbEntity
  8
SUNPOU
100
AcDbLine
 10
5967.601539105245
 20
4517.50086293839
 30
0.0
 11
5967.601539105245
 21
4358.173816609873
 31
0.0
  0
LINE
  5
1B6
330
17
100
AcDbEntity
  8
SUNPOU
100
AcDbLine
 10
4711.601539105241
 20
4517.50086293839
 30
0.0
 11
4711.601539105241
 21
4358.173816609873
 31
0.0
  0
LINE
  5
1B7
330
17
100
AcDbEntity
  8
SUNPOU
100
AcDbLine
 10
6039.601539105241
 20
5192.500862938389
 30
0.0
 11
6039.601539105241
 21
5524.308224227579
 31
0.0
  0
LINE
  5
1B8
330
17
100
AcDbEntity
  8
SUNPOU
100
AcDbLine
 10
5939.601539105241
 20
5169.500862938389
 30
0.0
 11
5939.601539105241
 21
5524.308224227579
 31
0.0
  0
LINE
  5
1B9
330
17
100
AcDbEntity
  8
SUNPOU
100
AcDbLine
 10
4739.60153910524
 20
5169.500862938389
 30
0.0
 11
4739.60153910524
 21
5524.308224227579
 31
0.0
  0
LINE
  5
1BA
330
17
100
AcDbEntity
  8
SUNPOU
100
AcDbLine
 10
4639.601539105241
 20
5192.500862938389
 30
0.0
 11
4639.601539105241
 21
5524.308224227579
 31
0.0
  0
LINE
  5
1BB
330
17
100
AcDbEntity
  8
SUNPOU
100
AcDbLine
 10
5979.601539105241
 20
5192.500862938389
 30
0.0
 11
5979.601539105241
 21
5395.101119301738
 31
0.0
  0
LINE
  5
1BC
330
17
100
AcDbEntity
  8
SUNPOU
100
AcDbLine
 10
4699.60153910524
 20
5192.500862938389
 30
0.0
 11
4699.60153910524
 21
5395.101119301738
 31
0.0
  0
TEXT
  5
1BD
330
17
100
AcDbEntity
  8
SUNPOU
100
AcDbText
 10
5221.030125239582
 20
5277.817654734806
 30
0.0
 40
60.0
  1
1266
  7
K
 72
     1
 11
5339.60155381101
 21
5277.817654734806
 31
0.0
100
AcDbText
  0
INSERT
  5
1BE
330
17
100
AcDbEntity
  8
SUNPOU
100
AcDbBlockReference
  2
ARROWANG
 10
5972.601539105241
 20
5232.817654734808
 30
0.0
 41
45.0
 42
45.0
 43
45.0
  0
INSERT
  5
1BF
330
17
100
AcDbEntity
  8
SUNPOU
100
AcDbBlockReference
  2
ARROWANG
 10
4706.601539105241
 20
5232.817654734808
 30
0.0
 41
45.0
 42
45.0
 43
45.0
 50
180.0
  0
LINE
  5
1C0
330
17
100
AcDbEntity
  8
SUNPOU
100
AcDbLine
 10
4706.601539105241
 20
5232.817654734808
 30
0.0
 11
5972.601539105241
 21
5232.817654734808
 31
0.0
  0
LINE
  5
1C1
330
17
100
AcDbEntity
  8
SUNPOU
100
AcDbLine
 10
5972.601539105241
 20
5169.500862938389
 30
0.0
 11
5972.601539105241
 21
5262.817654734807
 31
0.0
  0
LINE
  5
1C2
330
17
100
AcDbEntity
  8
SUNPOU
100
AcDbLine
 10
4706.601539105241
 20
5169.500862938389
 30
0.0
 11
4706.601539105241
 21
5262.817654734807
 31
0.0
  0
LINE
  5
1C3
330
17
100
AcDbEntity
  8
ITTEN
100
AcDbLine
 10
4689.601539105241
 20
4997.500862938389
 30
0.0
 11
4919.60153910524
 21
4997.500862938389
 31
0.0
  0
LINE
  5
1C4
330
17
100
AcDbEntity
  8
JISSEN
100
AcDbLine
 10
4739.60153910524
 20
4987.500862938389
 30
0.0
 11
4859.60153910524
 21
4987.500862938389
 31
0.0
  0
LINE
  5
1C5
330
17
100
AcDbEntity
  8
JISSEN
100
AcDbLine
 10
4739.60153910524
 20
5007.500862938389
 30
0.0
 11
4859.60153910524
 21
5007.500862938389
 31
0.0
  0
ARC
  5
1C6
330
17
100
AcDbEntity
  8
JISSEN
100
AcDbCircle
 10
4859.60153910524
 20
4997.500862938389
 30
0.0
 40
10.0
100
AcDbArc
 50
270.0
 51
90.0
  0
LINE
  5
1C7
330
17
100
AcDbEntity
  8
JISSEN
100
AcDbLine
 10
6039.601539105241
 20
4562.500862938389
 30
0.0
 11
6039.601539105241
 21
5162.500862938389
 31
0.0
  0
LINE
  5
1C8
330
17
100
AcDbEntity
  8
JISSEN
100
AcDbLine
 10
4639.601539105237
 20
4562.500862938389
 30
0.0
 11
4639.601539105241
 21
5162.500862938389
 31
0.0
  0
LINE
  5
1C9
330
17
100
AcDbEntity
  8
JISSEN
100
AcDbLine
 10
5939.601539105241
 20
5139.50086293839
 30
0.0
 11
5939.601539105241
 21
4897.500862938387
 31
0.0
  0
LINE
  5
1CA
330
17
100
AcDbEntity
  8
JISSEN
100
AcDbLine
 10
4739.60153910524
 20
5139.50086293839
 30
0.0
 11
4739.601539105244
 21
4547.500862938389
 31
0.0
  0
LINE
  5
1CB
330
17
100
AcDbEntity
  8
JISSEN
100
AcDbLine
 10
6039.601539105241
 20
5162.500862938389
 30
0.0
 11
5979.601539105241
 21
5162.500862938389
 31
0.0
  0
LINE
  5
1CC
330
17
100
AcDbEntity
  8
JISSEN
100
AcDbLine
 10
5979.601539105241
 20
5162.500862938389
 30
0.0
 11
5972.601539105241
 21
5139.50086293839
 31
0.0
  0
LINE
  5
1CD
330
17
100
AcDbEntity
  8
JISSEN
100
AcDbLine
 10
5972.601539105241
 20
5139.50086293839
 30
0.0
 11
5339.601539105241
 21
5139.50086293839
 31
0.0
  0
LINE
  5
1CE
330
17
100
AcDbEntity
  8
JISSEN
100
AcDbLine
 10
5979.601539105241
 20
5162.500862938389
 30
0.0
 11
5339.601539105241
 21
5162.500862938389
 31
0.0
  0
LINE
  5
1CF
330
17
100
AcDbEntity
  8
JISSEN
100
AcDbLine
 10
4699.60153910524
 20
5162.500862938389
 30
0.0
 11
5339.601539105241
 21
5162.500862938389
 31
0.0
  0
LINE
  5
1D0
330
17
100
AcDbEntity
  8
JISSEN
100
AcDbLine
 10
4706.601539105241
 20
5139.50086293839
 30
0.0
 11
5339.601539105241
 21
5139.50086293839
 31
0.0
  0
LINE
  5
1D1
330
17
100
AcDbEntity
  8
JISSEN
100
AcDbLine
 10
4699.60153910524
 20
5162.500862938389
 30
0.0
 11
4706.601539105241
 21
5139.50086293839
 31
0.0
  0
LINE
  5
1D2
330
17
100
AcDbEntity
  8
JISSEN
100
AcDbLine
 10
4639.601539105241
 20
5162.500862938389
 30
0.0
 11
4699.60153910524
 21
5162.500862938389
 31
0.0
  0
LINE
  5
1D3
330
17
100
AcDbEntity
  8
JISSEN
100
AcDbLine
 10
5967.601539105245
 20
4547.500862938389
 30
0.0
 11
5339.601539105241
 21
4547.500862938389
 31
0.0
  0
LINE
  5
1D4
330
17
100
AcDbEntity
  8
JISSEN
100
AcDbLine
 10
5978.601539105245
 20
4562.500862938389
 30
0.0
 11
5967.601539105245
 21
4547.500862938389
 31
0.0
  0
LINE
  5
1D5
330
17
100
AcDbEntity
  8
JISSEN
100
AcDbLine
 10
6039.601539105245
 20
4562.500862938389
 30
0.0
 11
5978.601539105245
 21
4562.500862938389
 31
0.0
  0
LINE
  5
1D6
330
17
100
AcDbEntity
  8
JISSEN
100
AcDbLine
 10
4711.601539105241
 20
4547.500862938389
 30
0.0
 11
5339.601539105241
 21
4547.500862938389
 31
0.0
  0
LINE
  5
1D7
330
17
100
AcDbEntity
  8
JISSEN
100
AcDbLine
 10
4700.601539105241
 20
4562.500862938389
 30
0.0
 11
4711.601539105241
 21
4547.500862938389
 31
0.0
  0
LINE
  5
1D8
330
17
100
AcDbEntity
  8
JISSEN
100
AcDbLine
 10
4639.601539105241
 20
4562.500862938389
 30
0.0
 11
4700.601539105241
 21
4562.500862938389
 31
0.0
  0
LINE
  5
1D9
330
17
100
AcDbEntity
  8
ITTEN
100
AcDbLine
 10
5339.601539105241
 20
5212.500862938389
 30
0.0
 11
5339.601539105241
 21
4197.500862938389
 31
0.0
  0
LINE
  5
1DA
330
17
100
AcDbEntity
  8
SUNPOU
100
AcDbLine
 10
5939.601539105241
 20
5494.308224227578
 30
0.0
 11
5849.601539105241
 21
5494.308224227578
 31
0.0
  0
LINE
  5
1DB
330
17
100
AcDbEntity
  8
SUNPOU
100
AcDbLine
 10
6039.601539105241
 20
5494.308224227578
 30
0.0
 11
6129.601539105241
 21
5494.308224227578
 31
0.0
  0
TEXT
  5
1DC
330
17
100
AcDbEntity
  8
SUNPOU
100
AcDbText
 10
5899.60153910524
 20
5554.308224227579
 30
0.0
 40
60.0
  1
100
  7
K
 72
     4
 11
5989.60153910524
 21
5584.308224227578
 31
0.0
100
AcDbText
  0
INSERT
  5
1DD
330
17
100
AcDbEntity
  8
SUNPOU
100
AcDbBlockReference
  2
ARROWANG
 10
5939.601539105241
 20
5494.308224227578
 30
0.0
 41
45.0
 42
45.0
 43
45.0
  0
INSERT
  5
1DE
330
17
100
AcDbEntity
  8
SUNPOU
100
AcDbBlockReference
  2
ARROWANG
 10
6039.601539105241
 20
5494.308224227578
 30
0.0
 41
45.0
 42
45.0
 43
45.0
 50
180.0
  0
LINE
  5
1DF
330
17
100
AcDbEntity
  8
SUNPOU
100
AcDbLine
 10
5939.601539105241
 20
5494.308224227578
 30
0.0
 11
6039.601539105241
 21
5494.308224227578
 31
0.0
  0
TEXT
  5
1E0
330
17
100
AcDbEntity
  8
SUNPOU
100
AcDbText
 10
5221.030110533813
 20
5539.308224227578
 30
0.0
 40
60.0
  1
1200
  7
K
 72
     1
 11
5339.601539105241
 21
5539.308224227578
 31
0.0
100
AcDbText
  0
INSERT
  5
1E1
330
17
100
AcDbEntity
  8
SUNPOU
100
AcDbBlockReference
  2
ARROWANG
 10
5939.601539105241
 20
5494.308224227578
 30
0.0
 41
45.0
 42
45.0
 43
45.0
  0
INSERT
  5
1E2
330
17
100
AcDbEntity
  8
SUNPOU
100
AcDbBlockReference
  2
ARROWANG
 10
4739.60153910524
 20
5494.308224227578
 30
0.0
 41
45.0
 42
45.0
 43
45.0
 50
180.0
  0
LINE
  5
1E3
330
17
100
AcDbEntity
  8
SUNPOU
100
AcDbLine
 10
4739.60153910524
 20
5494.308224227578
 30
0.0
 11
5939.601539105241
 21
5494.308224227578
 31
0.0
  0
LINE
  5
1E4
330
17
100
AcDbEntity
  8
SUNPOU
100
AcDbLine
 10
4639.601539105241
 20
5494.308224227578
 30
0.0
 11
4549.601539105241
 21
5494.308224227578
 31
0.0
  0
LINE
  5
1E5
330
17
100
AcDbEntity
  8
SUNPOU
100
AcDbLine
 10
4739.60153910524
 20
5494.308224227578
 30
0.0
 11
4829.60153910524
 21
5494.308224227578
 31
0.0
  0
TEXT
  5
1E6
330
17
100
AcDbEntity
  8
SUNPOU
100
AcDbText
 10
4599.601553811009
 20
5539.308224227575
 30
0.0
 40
60.0
  1
100
  7
K
 72
     1
 11
4689.60155381101
 21
5539.308224227575
 31
0.0
100
AcDbText
  0
INSERT
  5
1E7
330
17
100
AcDbEntity
  8
SUNPOU
100
AcDbBlockReference
  2
ARROWANG
 10
4639.601539105241
 20
5494.308224227578
 30
0.0
 41
45.0
 42
45.0
 43
45.0
  0
INSERT
  5
1E8
330
17
100
AcDbEntity
  8
SUNPOU
100
AcDbBlockReference
  2
ARROWANG
 10
4739.60153910524
 20
5494.308224227578
 30
0.0
 41
45.0
 42
45.0
 43
45.0
 50
180.0
  0
LINE
  5
1E9
330
17
100
AcDbEntity
  8
SUNPOU
100
AcDbLine
 10
4639.601539105241
 20
5494.308224227578
 30
0.0
 11
4739.60153910524
 21
5494.308224227578
 31
0.0
  0
TEXT
  5
1EA
330
17
100
AcDbEntity
  8
SUNPOU
100
AcDbText
 10
5221.030125239582
 20
5410.101119301735
 30
0.0
 40
60.0
  1
1280
  7
K
 72
     1
 11
5339.60155381101
 21
5410.101119301735
 31
0.0
100
AcDbText
  0
INSERT
  5
1EB
330
17
100
AcDbEntity
  8
SUNPOU
100
AcDbBlockReference
  2
ARROWANG
 10
5979.601539105241
 20
5365.101119301737
 30
0.0
 41
45.0
 42
45.0
 43
45.0
  0
INSERT
  5
1EC
330
17
100
AcDbEntity
  8
SUNPOU
100
AcDbBlockReference
  2
ARROWANG
 10
4699.60153910524
 20
5365.101119301737
 30
0.0
 41
45.0
 42
45.0
 43
45.0
 50
180.0
  0
LINE
  5
1ED
330
17
100
AcDbEntity
  8
SUNPOU
100
AcDbLine
 10
4699.60153910524
 20
5365.101119301737
 30
0.0
 11
5979.601539105241
 21
5365.101119301737
 31
0.0
  0
LINE
  5
1EE
330
17
100
AcDbEntity
  8
JISSEN
100
AcDbLine
 10
2871.012171153399
 20
4818.942959164921
 30
0.0
 11
2871.012171153399
 21
4648.942959164921
 31
0.0
  0
LINE
  5
1EF
330
17
100
AcDbEntity
  8
JISSEN
100
AcDbLine
 10
2891.012171153399
 20
4628.942959164922
 30
0.0
 11
2891.012171153399
 21
4818.942959164921
 31
0.0
  0
ARC
  5
1F0
330
17
100
AcDbEntity
  8
JISSEN
100
AcDbCircle
 10
2881.012171153399
 20
4628.942959164922
 30
0.0
 40
10.0
100
AcDbArc
 50
269.9999999999992
 51
0.0
  0
ARC
  5
1F1
330
17
100
AcDbEntity
  8
JISSEN
100
AcDbCircle
 10
2861.012171153399
 20
4648.942959164921
 30
0.0
 40
10.0
100
AcDbArc
 50
270.0
 51
0.0
  0
LINE
  5
1F2
330
17
100
AcDbEntity
  8
JISSEN
100
AcDbLine
 10
2861.012171153399
 20
4638.94295916492
 30
0.0
 11
2788.64865030323
 21
4638.94295916492
 31
0.0
  0
LINE
  5
1F3
330
17
100
AcDbEntity
  8
JISSEN
100
AcDbLine
 10
2881.012171153399
 20
4618.942959164921
 30
0.0
 11
2795.32674620416
 21
4618.942959164921
 31
0.0
  0
LINE
  5
1F4
330
17
100
AcDbEntity
  8
JISSEN
100
AcDbLine
 10
2881.012171153399
 20
5018.942959164921
 30
0.0
 11
2795.32674620416
 21
5018.942959164921
 31
0.0
  0
LINE
  5
1F5
330
17
100
AcDbEntity
  8
JISSEN
100
AcDbLine
 10
2891.012171153399
 20
5008.942959164921
 30
0.0
 11
2891.012171153399
 21
4818.942959164921
 31
0.0
  0
LINE
  5
1F6
330
17
100
AcDbEntity
  8
ITTEN
100
AcDbLine
 10
3785.343589477657
 20
4394.611540840659
 30
0.0
 11
3891.409606655643
 21
4288.545523662677
 31
0.0
  0
LINE
  5
1F7
330
17
100
AcDbEntity
  8
HASEN
100
AcDbLine
 10
3813.627860725124
 20
4352.185133969467
 30
0.0
 11
3848.915850172115
 21
4316.897144522471
 31
0.0
  0
LINE
  5
1F8
330
17
100
AcDbEntity
  8
HASEN
100
AcDbLine
 10
3813.627860725124
 20
4352.185133969467
 30
0.0
 11
3827.76999634885
 21
4366.327269593196
 31
0.0
  0
LINE
  5
1F9
330
17
100
AcDbEntity
  8
HASEN
100
AcDbLine
 10
3863.057985795846
 20
4331.039280146202
 30
0.0
 11
3827.76999634885
 21
4366.327269593196
 31
0.0
  0
LINE
  5
1FA
330
17
100
AcDbEntity
  8
ITTEN
100
AcDbLine
 10
2936.680752829137
 20
4394.611540840659
 30
0.0
 11
2830.614735651155
 21
4288.545523662677
 31
0.0
  0
LINE
  5
1FB
330
17
100
AcDbEntity
  8
HASEN
100
AcDbLine
 10
2894.254345957945
 20
4366.327269593196
 30
0.0
 11
2858.966356510949
 21
4331.039280146205
 31
0.0
  0
LINE
  5
1FC
330
17
100
AcDbEntity
  8
HASEN
100
AcDbLine
 10
2894.254345957945
 20
4366.327269593196
 30
0.0
 11
2908.396481581674
 21
4352.185133969467
 31
0.0
  0
LINE
  5
1FD
330
17
100
AcDbEntity
  8
HASEN
100
AcDbLine
 10
2873.108492134679
 20
4316.897144522471
 30
0.0
 11
2908.396481581674
 21
4352.185133969467
 31
0.0
  0
LINE
  5
1FE
330
17
100
AcDbEntity
  8
ITTEN
100
AcDbLine
 10
2936.680752829141
 20
5243.274377489183
 30
0.0
 11
2830.614735651155
 21
5349.340394667166
 31
0.0
  0
LINE
  5
1FF
330
17
100
AcDbEntity
  8
HASEN
100
AcDbLine
 10
2908.396481581674
 20
5285.700784360376
 30
0.0
 11
2873.108492134683
 21
5320.988773807371
 31
0.0
  0
LINE
  5
200
330
17
100
AcDbEntity
  8
HASEN
100
AcDbLine
 10
2908.396481581674
 20
5285.700784360376
 30
0.0
 11
2894.254345957948
 21
5271.558648736647
 31
0.0
  0
LINE
  5
201
330
17
100
AcDbEntity
  8
HASEN
100
AcDbLine
 10
2858.966356510953
 20
5306.846638183638
 30
0.0
 11
2894.254345957948
 21
5271.558648736647
 31
0.0
  0
LINE
  5
202
330
17
100
AcDbEntity
  8
JISSEN
100
AcDbLine
 10
2871.012171153399
 20
4818.942959164921
 30
0.0
 11
2871.012171153399
 21
4988.942959164922
 31
0.0
  0
LINE
  5
203
330
17
100
AcDbEntity
  8
ITTEN
100
AcDbLine
 10
3086.949609006905
 20
4818.942959164921
 30
0.0
 11
2611.012171153399
 21
4818.942959164921
 31
0.0
  0
POINT
  5
204
330
17
100
AcDbEntity
  8
JISSEN
100
AcDbPoint
 10
3361.012171153399
 20
4819.942959164921
 30
0.0
  0
POINT
  5
205
330
17
100
AcDbEntity
  8
JISSEN
100
AcDbPoint
 10
3362.012171153399
 20
4818.942959164921
 30
0.0
  0
LINE
  5
206
330
17
100
AcDbEntity
  8
ITTEN
100
AcDbLine
 10
4111.012171153399
 20
4818.942959164921
 30
0.0
 11
3086.949609006905
 21
4818.942959164921
 31
0.0
  0
LINE
  5
207
330
17
100
AcDbEntity
  8
ITTEN
100
AcDbLine
 10
3361.012171153399
 20
5568.942959164921
 30
0.0
 11
3361.012171153399
 21
4068.942959164921
 31
0.0
  0
CIRCLE
  5
208
330
17
100
AcDbEntity
  8
JISSEN
100
AcDbCircle
 10
3361.012171153399
 20
4818.942959164921
 30
0.0
 40
640.0
  0
CIRCLE
  5
209
330
17
100
AcDbEntity
  8
JISSEN
100
AcDbCircle
 10
3361.012171153399
 20
4818.942959164921
 30
0.0
 40
633.0
  0
CIRCLE
  5
20A
330
17
100
AcDbEntity
  8
JISSEN
100
AcDbCircle
 10
3361.012171153399
 20
4818.942959164921
 30
0.0
 40
600.0
  0
CIRCLE
  5
20B
330
17
100
AcDbEntity
  8
JISSEN
100
AcDbCircle
 10
3361.012171153399
 20
4818.942959164921
 30
0.0
 40
700.0
  0
LINE
  5
20C
330
17
100
AcDbEntity
  8
HASEN
100
AcDbLine
 10
3848.915850172119
 20
5320.98877380737
 30
0.0
 11
3813.627860725124
 21
5285.700784360376
 31
0.0
  0
LINE
  5
20D
330
17
100
AcDbEntity
  8
HASEN
100
AcDbLine
 10
3827.769996348854
 20
5271.558648736647
 30
0.0
 11
3813.627860725124
 21
5285.700784360376
 31
0.0
  0
LINE
  5
20E
330
17
100
AcDbEntity
  8
HASEN
100
AcDbLine
 10
3827.769996348854
 20
5271.558648736647
 30
0.0
 11
3863.057985795849
 21
5306.846638183638
 31
0.0
  0
LINE
  5
20F
330
17
100
AcDbEntity
  8
ITTEN
100
AcDbLine
 10
3785.343589477661
 20
5243.274377489183
 30
0.0
 11
3891.409606655643
 21
5349.340394667166
 31
0.0
  0
LINE
  5
210
330
17
100
AcDbEntity
  8
JISSEN
100
AcDbLine
 10
2891.012171153399
 20
5008.942959164921
 30
0.0
 11
2891.012171153399
 21
4868.942959164922
 31
0.0
  0
LINE
  5
211
330
17
100
AcDbEntity
  8
JISSEN
100
AcDbLine
 10
2881.012171153399
 20
5018.942959164921
 30
0.0
 11
2816.748102441468
 21
5018.942959164921
 31
0.0
  0
LINE
  5
212
330
17
100
AcDbEntity
  8
JISSEN
100
AcDbLine
 10
2861.012171153399
 20
4998.942959164921
 30
0.0
 11
2788.64865030323
 21
4998.942959164921
 31
0.0
  0
ARC
  5
213
330
17
100
AcDbEntity
  8
JISSEN
100
AcDbCircle
 10
2861.012171153399
 20
4988.942959164922
 30
0.0
 40
10.0
100
AcDbArc
 50
0.0
 51
90.0
  0
ARC
  5
214
330
17
100
AcDbEntity
  8
JISSEN
100
AcDbCircle
 10
2881.012171153399
 20
5008.942959164921
 30
0.0
 40
10.0
100
AcDbArc
 50
0.0
 51
90.00000000000069
  0
TEXT
  5
215
330
17
100
AcDbEntity
  8
TEXT
100
AcDbText
 10
7873.496321195287
 20
5950.641313539485
 30
0.0
 40
120.0
  1
深形おどり場直壁
  7
K
100
AcDbText
  0
TEXT
  5
216
330
17
100
AcDbEntity
  8
TEXT
100
AcDbText
 10
6136.378407451402
 20
2920.52409755821
 30
0.0
 40
120.0
  1
連結直壁
  7
K
100
AcDbText
  0
TEXT
  5
217
330
17
100
AcDbEntity
  8
TEXT
100
AcDbText
 10
3904.152000367952
 20
6092.914775587868
 30
0.0
 40
120.0
  1
おどり場直壁
  7
K
100
AcDbText
  0
LWPOLYLINE
  5
218
330
17
100
AcDbEntity
  8
WAKU
100
AcDbPolyline
 90
        4
 70
     1
 43
0.0
 10
0.0
 20
0.0
 10
11850.0
 20
0.0
 10
11850.0
 20
8190.0
 10
0.0
 20
8190.0
  0
TEXT
  5
21E
330
17
100
AcDbEntity
  8
TEXT
100
AcDbText
 10
11270.60709474654
 20
653.2470420738267
 30
0.0
 40
120.0
  1
1/30
  7
K
100
AcDbText
  0
ENDSEC
  0
SECTION
  2
OBJECTS
  0
DICTIONARY
  5
C
330
0
100
AcDbDictionary
  3
ACAD_GROUP
350
D
  3
ACAD_LAYOUT
350
22E
  3
ACAD_MLINESTYLE
350
1A
  3
ACAD_PLOTSETTINGS
350
22F
  3
ACAD_PLOTSTYLENAME
350
22C
  3
ACDBHEADERROUNDTRIPXREC
350
236
  0
DICTIONARY
  5
259
330
17
100
AcDbDictionary
280
     1
  3
ACAD_LAYOUTSELFREF
360
25A
  0
DICTIONARY
  5
257
330
14
100
AcDbDictionary
280
     1
  3
ACAD_LAYOUTSELFREF
360
258
  0
DICTIONARY
  5
D
102
{ACAD_REACTORS
330
C
102
}
330
C
100
AcDbDictionary
  0
DICTIONARY
  5
22E
102
{ACAD_REACTORS
330
C
102
}
330
C
100
AcDbDictionary
  0
DICTIONARY
  5
1A
102
{ACAD_REACTORS
330
C
102
}
330
C
100
AcDbDictionary
  3
STANDARD
350
1B
  0
DICTIONARY
  5
22F
102
{ACAD_REACTORS
330
C
102
}
330
C
100
AcDbDictionary
  0
ACDBDICTIONARYWDFLT
  5
22C
102
{ACAD_REACTORS
330
C
102
}
330
C
100
AcDbDictionary
281
     1
  3
Normal
350
22D
100
AcDbDictionaryWithDefault
340
22D
  0
DICTIONARY
  5
236
102
{ACAD_REACTORS
330
C
102
}
330
C
100
AcDbDictionary
  3
CEPSNTYPE
350
240
  3
DIMSTYLEDATA
350
244
  3
FINGERPRINTGUID
350
241
  3
HYPERLINKBASE
350
239
  3
INSUNITS
350
23F
  3
LAYOUTDICT
350
23B
  3
LWETCUNION
350
23E
  3
PLOTSETDICT
350
23C
  3
PLOTSTYLNAMDICT
350
23D
  3
PSVPSCALE
350
243
  3
PUCSBASE
350
247
  3
PUCSORGBACK
350
24D
  3
PUCSORGBOTTOM
350
249
  3
PUCSORGFRONT
350
24C
  3
PUCSORGLEFT
350
24A
  3
PUCSORGRIGHT
350
24B
  3
PUCSORGTOP
350
248
  3
PUCSORTHOREF
350
245
  3
PUCSORTHOVIEW
350
246
  3
STYLESHEET
350
23A
  3
TSTACKALIGN
350
237
  3
TSTACKSIZE
350
238
  3
UCSBASE
350
250
  3
UCSORGBACK
350
256
  3
UCSORGBOTTOM
350
252
  3
UCSORGFRONT
350
255
  3
UCSORGLEFT
350
253
  3
UCSORGRIGHT
350
254
  3
UCSORGTOP
350
251
  3
UCSORTHOREF
350
24E
  3
UCSORTHOVIEW
350
24F
  3
VERSIONGUID
350
242
  0
XRECORD
  5
25A
102
{ACAD_REACTORS
330
259
102
}
330
259
100
AcDbXrecord
340
17
  0
XRECORD
  5
258
102
{ACAD_REACTORS
330
257
102
}
330
257
100
AcDbXrecord
340
14
  0
MLINESTYLE
  5
1B
102
{ACAD_REACTORS
330
1A
102
}
330
1A
100
AcDbMlineStyle
  2
STANDARD
 70
     0
  3

 62
   256
 51
90.0
 52
90.0
 71
     2
 49
0.5
 62
   256
  6
BYLAYER
 49
-0.5
 62
   256
  6
BYLAYER
  0
ACDBPLACEHOLDER
  5
22D
102
{ACAD_REACTORS
330
22C
102
}
330
22C
100
AcDbPlaceHolder
280
     0
  0
XRECORD
  5
240
102
{ACAD_REACTORS
330
236
102
}
330
236
100
AcDbXrecord
 90
        0
  0
XRECORD
  5
244
102
{ACAD_REACTORS
330
236
102
}
330
236
100
AcDbXrecord
1000
DSTYLE
1002
{
1070
   279
 70
     2
1002
}
  0
XRECORD
  5
241
102
{ACAD_REACTORS
330
236
102
}
330
236
100
AcDbXrecord
  1
{A55CBEE9-679B-4AF2-BC89-A2432220BB16}
  0
XRECORD
  5
239
102
{ACAD_REACTORS
330
236
102
}
330
236
100
AcDbXrecord
  1

  0
XRECORD
  5
23F
102
{ACAD_REACTORS
330
236
102
}
330
236
100
AcDbXrecord
 90
        0
  0
XRECORD
  5
23B
102
{ACAD_REACTORS
330
236
102
}
330
236
100
AcDbXrecord
340
22E
  0
XRECORD
  5
23E
102
{ACAD_REACTORS
330
236
102
}
330
236
100
AcDbXrecord
 90
    14877
  0
XRECORD
  5
23C
102
{ACAD_REACTORS
330
236
102
}
330
236
100
AcDbXrecord
340
22F
  0
XRECORD
  5
23D
102
{ACAD_REACTORS
330
236
102
}
330
236
100
AcDbXrecord
340
22C
  0
XRECORD
  5
243
102
{ACAD_REACTORS
330
236
102
}
330
236
100
AcDbXrecord
 40
0.0
  0
XRECORD
  5
247
102
{ACAD_REACTORS
330
236
102
}
330
236
100
AcDbXrecord
340
0
  0
XRECORD
  5
24D
102
{ACAD_REACTORS
330
236
102
}
330
236
100
AcDbXrecord
 10
0.0
 20
0.0
 30
0.0
  0
XRECORD
  5
249
102
{ACAD_REACTORS
330
236
102
}
330
236
100
AcDbXrecord
 10
0.0
 20
0.0
 30
0.0
  0
XRECORD
  5
24C
102
{ACAD_REACTORS
330
236
102
}
330
236
100
AcDbXrecord
 10
0.0
 20
0.0
 30
0.0
  0
XRECORD
  5
24A
102
{ACAD_REACTORS
330
236
102
}
330
236
100
AcDbXrecord
 10
0.0
 20
0.0
 30
0.0
  0
XRECORD
  5
24B
102
{ACAD_REACTORS
330
236
102
}
330
236
100
AcDbXrecord
 10
0.0
 20
0.0
 30
0.0
  0
XRECORD
  5
248
102
{ACAD_REACTORS
330
236
102
}
330
236
100
AcDbXrecord
 10
0.0
 20
0.0
 30
0.0
  0
XRECORD
  5
245
102
{ACAD_REACTORS
330
236
102
}
330
236
100
AcDbXrecord
340
0
  0
XRECORD
  5
246
102
{ACAD_REACTORS
330
236
102
}
330
236
100
AcDbXrecord
 70
     0
  0
XRECORD
  5
23A
102
{ACAD_REACTORS
330
236
102
}
330
236
100
AcDbXrecord
  1

  0
XRECORD
  5
237
102
{ACAD_REACTORS
330
236
102
}
330
236
100
AcDbXrecord
 90
        1
  0
XRECORD
  5
238
102
{ACAD_REACTORS
330
236
102
}
330
236
100
AcDbXrecord
 90
       70
  0
XRECORD
  5
250
102
{ACAD_REACTORS
330
236
102
}
330
236
100
AcDbXrecord
340
0
  0
XRECORD
  5
256
102
{ACAD_REACTORS
330
236
102
}
330
236
100
AcDbXrecord
 10
0.0
 20
0.0
 30
0.0
  0
XRECORD
  5
252
102
{ACAD_REACTORS
330
236
102
}
330
236
100
AcDbXrecord
 10
0.0
 20
0.0
 30
0.0
  0
XRECORD
  5
255
102
{ACAD_REACTORS
330
236
102
}
330
236
100
AcDbXrecord
 10
0.0
 20
0.0
 30
0.0
  0
XRECORD
  5
253
102
{ACAD_REACTORS
330
236
102
}
330
236
100
AcDbXrecord
 10
0.0
 20
0.0
 30
0.0
  0
XRECORD
  5
254
102
{ACAD_REACTORS
330
236
102
}
330
236
100
AcDbXrecord
 10
0.0
 20
0.0
 30
0.0
  0
XRECORD
  5
251
102
{ACAD_REACTORS
330
236
102
}
330
236
100
AcDbXrecord
 10
0.0
 20
0.0
 30
0.0
  0
XRECORD
  5
24E
102
{ACAD_REACTORS
330
236
102
}
330
236
100
AcDbXrecord
340
0
  0
XRECORD
  5
24F
102
{ACAD_REACTORS
330
236
102
}
330
236
100
AcDbXrecord
 70
     0
  0
XRECORD
  5
242
102
{ACAD_REACTORS
330
236
102
}
330
236
100
AcDbXrecord
  1
{B2F9705F-CE8A-41FA-BE41-C92E70616CC4}
  0
ENDSEC
  0
EOF
