  0
SECTION
  2
HEADER
  9
$ACADVER
  1
AC1009
  9
$INSBASE
 10
0.0
 20
0.0
 30
0.0
  9
$EXTMIN
 10
0.0
 20
0.0
 30
0.0
  9
$EXTMAX
 10
11850.0
 20
8190.0
 30
0.0
  9
$LIMMIN
 10
0.0
 20
0.0
  9
$LIMMAX
 10
11850.0
 20
8190.0
  9
$ORTHOMODE
 70
     0
  9
$REGENMODE
 70
     1
  9
$FILLMODE
 70
     1
  9
$QTEXTMODE
 70
     0
  9
$MIRRTEXT
 70
     0
  9
$DRAGMODE
 70
     2
  9
$LTSCALE
 40
150.0
  9
$OSMODE
 70
    33
  9
$ATTMODE
 70
     1
  9
$TEXTSIZE
 40
350.0
  9
$TRACEWID
 40
0.05
  9
$TEXTSTYLE
  7
K
  9
$CLAYER
  8
TEXT
  9
$CELTYPE
  6
BYLAYER
  9
$CECOLOR
 62
   256
  9
$DIMSCALE
 40
30.0
  9
$DIMASZ
 40
1.5
  9
$DIMEXO
 40
1.0
  9
$DIMDLI
 40
6.0
  9
$DIMRND
 40
0.0
  9
$DIMDLE
 40
0.0
  9
$DIMEXE
 40
1.0
  9
$DIMTP
 40
495.0
  9
$DIMTM
 40
0.0
  9
$DIMTXT
 40
3.0
  9
$DIMCEN
 40
0.0
  9
$DIMTSZ
 40
0.0
  9
$DIMTOL
 70
     0
  9
$DIMLIM
 70
     0
  9
$DIMTIH
 70
     0
  9
$DIMTOH
 70
     0
  9
$DIMSE1
 70
     0
  9
$DIMSE2
 70
     0
  9
$DIMTAD
 70
     1
  9
$DIMZIN
 70
     8
  9
$DIMBLK
  1
ARROW
  9
$DIMASO
 70
     0
  9
$DIMSHO
 70
     0
  9
$DIMPOST
  1

  9
$DIMAPOST
  1

  9
$DIMALT
 70
     0
  9
$DIMALTD
 70
     2
  9
$DIMALTF
 40
25.4
  9
$DIMLFAC
 40
1.0
  9
$DIMTOFL
 70
     1
  9
$DIMTVP
 40
0.0
  9
$DIMTIX
 70
     1
  9
$DIMSOXD
 70
     0
  9
$DIMSAH
 70
     0
  9
$DIMBLK1
  1

  9
$DIMBLK2
  1

  9
$DIMSTYLE
  2
*UNNAMED
  9
$DIMCLRD
 70
     0
  9
$DIMCLRE
 70
     0
  9
$DIMCLRT
 70
     0
  9
$DIMTFAC
 40
1.0
  9
$DIMGAP
 40
0.09
  9
$LUNITS
 70
     2
  9
$LUPREC
 70
     2
  9
$AXISMODE
 70
     1
  9
$AXISUNIT
 10
100.0
 20
100.0
  9
$SKETCHINC
 40
0.1
  9
$FILLETRAD
 40
10.0
  9
$AUNITS
 70
     0
  9
$AUPREC
 70
     2
  9
$MENU
  1
d:stdgx5
  9
$ELEVATION
 40
0.0
  9
$PELEVATION
 40
0.0
  9
$THICKNESS
 40
0.0
  9
$LIMCHECK
 70
     0
  9
$BLIPMODE
 70
     1
  9
$CHAMFERA
 40
0.0
  9
$CHAMFERB
 40
0.0
  9
$SKPOLY
 70
     0
  9
$TDCREATE
 40
2449303.460381944
  9
$TDUPDATE
 40
2450246.745555555
  9
$TDINDWG
 40
0.3660300926
  9
$TDUSRTIMER
 40
0.3660300926
  9
$USRTIMER
 70
     1
  9
$ANGBASE
 50
0.0
  9
$ANGDIR
 70
     0
  9
$PDMODE
 70
     0
  9
$PDSIZE
 40
0.0
  9
$PLINEWID
 40
0.0
  9
$COORDS
 70
     2
  9
$SPLFRAME
 70
     0
  9
$SPLINETYPE
 70
     6
  9
$SPLINESEGS
 70
     8
  9
$ATTDIA
 70
     0
  9
$ATTREQ
 70
     1
  9
$HANDLING
 70
     0
  9
$HANDSEED
  5
0
  9
$SURFTAB1
 70
     6
  9
$SURFTAB2
 70
     6
  9
$SURFTYPE
 70
     6
  9
$SURFU
 70
     6
  9
$SURFV
 70
     6
  9
$UCSNAME
  2

  9
$UCSORG
 10
0.0
 20
0.0
 30
0.0
  9
$UCSXDIR
 10
1.0
 20
0.0
 30
0.0
  9
$UCSYDIR
 10
0.0
 20
1.0
 30
0.0
  9
$PUCSNAME
  2

  9
$PUCSORG
 10
0.0
 20
0.0
 30
0.0
  9
$PUCSXDIR
 10
1.0
 20
0.0
 30
0.0
  9
$PUCSYDIR
 10
0.0
 20
1.0
 30
0.0
  9
$USERI1
 70
     3
  9
$USERI2
 70
    33
  9
$USERI3
 70
     0
  9
$USERI4
 70
     1
  9
$USERI5
 70
     0
  9
$USERR1
 40
30.0
  9
$USERR2
 40
3.0
  9
$USERR3
 40
3.0
  9
$USERR4
 40
1.5
  9
$USERR5
 40
10.0
  9
$WORLDVIEW
 70
     1
  9
$SHADEDGE
 70
     3
  9
$SHADEDIF
 70
    70
  9
$TILEMODE
 70
     1
  9
$MAXACTVP
 70
    16
  9
$PINSBASE
 10
0.0
 20
0.0
 30
0.0
  9
$PLIMCHECK
 70
     0
  9
$PEXTMIN
 10
1.000000E+20
 20
1.000000E+20
 30
1.000000E+20
  9
$PEXTMAX
 10
-1.000000E+20
 20
-1.000000E+20
 30
-1.000000E+20
  9
$PLIMMIN
 10
0.0
 20
0.0
  9
$PLIMMAX
 10
12.0
 20
9.0
  9
$UNITMODE
 70
     0
  9
$VISRETAIN
 70
     0
  0
ENDSEC
  0
SECTION
  2
TABLES
  0
TABLE
  2
VPORT
 70
    10
  0
VPORT
  2
*ACTIVE
 70
     0
 10
0.0
 20
0.0
 11
1.0
 21
1.0
 12
6691.515737
 22
4095.0
 13
0.0
 23
0.0
 14
1.0
 24
1.0
 15
10.0
 25
10.0
 16
0.0
 26
0.0
 36
1.0
 17
0.0
 27
0.0
 37
0.0
 40
8190.0
 41
1.63407
 42
50.0
 43
0.0
 44
0.0
 50
0.0
 51
0.0
 71
     0
 72
   500
 73
     1
 74
     0
 75
     0
 76
     0
 77
     0
 78
     0
  0
VPORT
  2
2
 70
     0
 10
0.5
 20
0.0
 11
1.0
 21
1.0
 12
0.924031
 22
1.052651
 13
0.0
 23
0.0
 14
1.0
 24
1.0
 15
10.0
 25
10.0
 16
0.0
 26
0.0
 36
1.0
 17
0.0
 27
0.0
 37
0.0
 40
2.105302
 41
0.877814
 42
50.0
 43
0.0
 44
0.0
 50
0.0
 51
0.0
 71
     0
 72
   500
 73
     1
 74
     1
 75
     0
 76
     0
 77
     0
 78
     0
  0
VPORT
  2
2
 70
     0
 10
0.0
 20
0.0
 11
0.5
 21
1.0
 12
0.924031
 22
1.052651
 13
0.0
 23
0.0
 14
1.0
 24
1.0
 15
10.0
 25
10.0
 16
0.0
 26
0.0
 36
1.0
 17
0.0
 27
0.0
 37
0.0
 40
2.105302
 41
0.877814
 42
50.0
 43
0.0
 44
0.0
 50
0.0
 51
0.0
 71
     0
 72
   500
 73
     1
 74
     1
 75
     0
 76
     0
 77
     0
 78
     0
  0
VPORT
  2
3
 70
     0
 10
0.0
 20
0.5
 11
1.0
 21
1.0
 12
2.83217
 22
1.052651
 13
0.0
 23
0.0
 14
1.0
 24
1.0
 15
10.0
 25
10.0
 16
0.0
 26
0.0
 36
1.0
 17
0.0
 27
0.0
 37
0.0
 40
2.105302
 41
3.571429
 42
50.0
 43
0.0
 44
0.0
 50
0.0
 51
0.0
 71
     0
 72
   500
 73
     1
 74
     1
 75
     0
 76
     0
 77
     0
 78
     0
  0
VPORT
  2
3
 70
     0
 10
0.0
 20
0.0
 11
1.0
 21
0.5
 12
2.856742
 22
1.052651
 13
0.0
 23
0.0
 14
1.0
 24
1.0
 15
10.0
 25
10.0
 16
0.0
 26
0.0
 36
1.0
 17
0.0
 27
0.0
 37
0.0
 40
2.105302
 41
3.594771
 42
50.0
 43
0.0
 44
0.0
 50
0.0
 51
0.0
 71
     0
 72
   500
 73
     1
 74
     1
 75
     0
 76
     0
 77
     0
 78
     0
  0
VPORT
  2
4
 70
     0
 10
0.5
 20
0.0
 11
1.0
 21
0.5
 12
2.886858
 22
1.052651
 13
0.0
 23
0.0
 14
1.0
 24
1.0
 15
10.0
 25
10.0
 16
0.0
 26
0.0
 36
1.0
 17
0.0
 27
0.0
 37
0.0
 40
4.275207
 41
1.784314
 42
50.0
 43
0.0
 44
0.0
 50
0.0
 51
0.0
 71
     0
 72
   500
 73
     1
 74
     1
 75
     0
 76
     0
 77
     0
 78
     0
  0
VPORT
  2
4
 70
     0
 10
0.5
 20
0.5
 11
1.0
 21
1.0
 12
2.86209
 22
1.052651
 13
0.0
 23
0.0
 14
1.0
 24
1.0
 15
10.0
 25
10.0
 16
0.0
 26
0.0
 36
1.0
 17
0.0
 27
0.0
 37
0.0
 40
4.275207
 41
1.772727
 42
50.0
 43
0.0
 44
0.0
 50
0.0
 51
0.0
 71
     0
 72
   500
 73
     1
 74
     1
 75
     0
 76
     0
 77
     0
 78
     0
  0
VPORT
  2
4
 70
     0
 10
0.0
 20
0.5
 11
0.5
 21
1.0
 12
2.86209
 22
1.052651
 13
0.0
 23
0.0
 14
1.0
 24
1.0
 15
10.0
 25
10.0
 16
0.0
 26
0.0
 36
1.0
 17
0.0
 27
0.0
 37
0.0
 40
4.275207
 41
1.772727
 42
50.0
 43
0.0
 44
0.0
 50
0.0
 51
0.0
 71
     0
 72
   500
 73
     1
 74
     1
 75
     0
 76
     0
 77
     0
 78
     0
  0
VPORT
  2
4
 70
     0
 10
0.0
 20
0.0
 11
0.5
 21
0.5
 12
2.886858
 22
1.052651
 13
0.0
 23
0.0
 14
1.0
 24
1.0
 15
10.0
 25
10.0
 16
0.0
 26
0.0
 36
1.0
 17
0.0
 27
0.0
 37
0.0
 40
4.275207
 41
1.784314
 42
50.0
 43
0.0
 44
0.0
 50
0.0
 51
0.0
 71
     0
 72
   500
 73
     1
 74
     1
 75
     0
 76
     0
 77
     0
 78
     0
  0
ENDTAB
  0
TABLE
  2
LTYPE
 70
     5
  0
LTYPE
  2
CONTINUOUS
 70
    64
  3
実線
 72
    65
 73
     0
 40
0.0
  0
LTYPE
  2
DASHED
 70
    64
  3
__ __ __ __ __ __ __ __ __ __ __ __ __ __ __
 72
    65
 73
     2
 40
0.75
 49
0.5
 49
-0.25
  0
LTYPE
  2
CENTER
 70
    64
  3
____ _ ____ _ ____ _ ____ _ ____ _ ____ _ ____
 72
    65
 73
     4
 40
2.0
 49
1.25
 49
-0.25
 49
0.25
 49
-0.25
  0
LTYPE
  2
PHANTOM
 70
    64
  3
_____ _ _ _____ _ _ _____ _ _ _____ _ _ ____
 72
    65
 73
     6
 40
2.5
 49
1.25
 49
-0.25
 49
0.25
 49
-0.25
 49
0.25
 49
-0.25
  0
LTYPE
  2
HIDDEN
 70
    64
  3
_ _ _ _ _ _ _ _ _ _ _ _ _ _ _ _ _ _ _ _ _ _ _
 72
    65
 73
     2
 40
0.375
 49
0.25
 49
-0.125
  0
ENDTAB
  0
TABLE
  2
LAYER
 70
    14
  0
LAYER
  2
0
 70
     0
 62
     7
  6
CONTINUOUS
  0
LAYER
  2
HASEN
 70
    64
 62
     2
  6
DASHED
  0
LAYER
  2
ITTEN
 70
    64
 62
     1
  6
CENTER
  0
LAYER
  2
SUNPOU
 70
    64
 62
     3
  6
CONTINUOUS
  0
LAYER
  2
TEXT
 70
    64
 62
     3
  6
CONTINUOUS
  0
LAYER
  2
SAISEN
 70
    64
 62
     4
  6
CONTINUOUS
  0
LAYER
  2
JISSEN
 70
    64
 62
     7
  6
CONTINUOUS
  0
LAYER
  2
WAKU
 70
    64
 62
    -5
  6
CONTINUOUS
  0
ENDTAB
  0
TABLE
  2
STYLE
 70
     2
  0
STYLE
  2
STANDARD
 70
     0
 40
0.0
 41
1.0
 50
0.0
 71
     0
 42
0.2
  3
ROMANS
  4
EXTFONT
  0
STYLE
  2
K
 70
    64
 40
0.0
 41
1.0
 50
0.0
 71
     0
 42
350.0
  3
ROMANS
  4
EXTFONT
  0
ENDTAB
  0
TABLE
  2
VIEW
 70
     0
  0
ENDTAB
  0
TABLE
  2
UCS
 70
     0
  0
ENDTAB
  0
TABLE
  2
APPID
 70
     1
  0
APPID
  2
ACAD
 70
    64
  0
ENDTAB
  0
TABLE
  2
DIMSTYLE
 70
     0
  0
ENDTAB
  0
ENDSEC
  0
SECTION
  2
BLOCKS
  0
BLOCK
  8
SUNPOU
  2
ARROWANG
 70
    64
 10
0.0
 20
0.0
 30
0.0
  3
ARROWANG
  0
LINE
  8
SUNPOU
 10
0.0
 20
0.0
 30
0.0
 11
-1.5
 21
0.401924
 31
0.0
  0
LINE
  8
SUNPOU
 10
0.0
 20
0.0
 30
0.0
 11
-1.5
 21
-0.401924
 31
0.0
  0
ENDBLK
  8
SUNPOU
  0
ENDSEC
  0
SECTION
  2
ENTITIES
  0
TEXT
  8
JISSEN
 10
3069.917454
 20
7582.231526
 30
0.0
 40
300.0
  1
組立マンホール構造図（内径１２００ｍｍ）
  7
K
  0
TEXT
  8
TEXT
 10
2743.90454
 20
6539.062077
 30
0.0
 40
90.0
  1
Ｍ２Ｓ２４０
  7
K
  0
TEXT
  8
TEXT
 10
4543.56564
 20
6537.851309
 30
0.0
 40
90.0
  1
Ｍ２Ｓ２１０
  7
K
  0
TEXT
  8
TEXT
 10
6634.791946
 20
6523.822377
 30
0.0
 40
90.0
  1
Ｍ２Ｓ１８０
  7
K
  0
TEXT
  8
TEXT
 10
8810.639188
 20
6509.793444
 30
0.0
 40
90.0
  1
Ｍ２Ｓ１５０
  7
K
  0
TEXT
  8
TEXT
 10
4624.015106
 20
3320.410181
 30
0.0
 40
90.0
  1
Ｍ２Ｓ１２０
  7
K
  0
TEXT
  8
TEXT
 10
6764.123015
 20
3273.479216
 30
0.0
 40
90.0
  1
Ｍ２Ｓ９０
  7
K
  0
TEXT
  8
TEXT
 10
8912.154592
 20
3295.853873
 30
0.0
 40
90.0
  1
Ｍ２Ｓ６０
  7
K
  0
TEXT
  8
SUNPOU
 10
8759.379473
 20
2171.982787
 30
0.0
 40
60.0
  1
150
 50
90.0
  7
K
 72
     1
 11
8759.379473
 21
2261.982787
 31
0.0
  0
INSERT
  8
SUNPOU
  2
ARROWANG
 10
8804.379473
 20
2336.982787
 30
0.0
 41
45.0
 42
45.0
 50
90.0
 43
45.0
  0
INSERT
  8
SUNPOU
  2
ARROWANG
 10
8804.379473
 20
2186.982787
 30
0.0
 41
45.0
 42
45.0
 50
270.0
 43
45.0
  0
LINE
  8
SUNPOU
 10
8804.379473
 20
2186.982787
 30
0.0
 11
8804.379473
 21
2336.982787
 31
0.0
  0
LINE
  8
SUNPOU
 10
8774.379473
 20
2336.982787
 30
0.0
 11
8774.379473
 21
2336.982787
 31
0.0
  0
LINE
  8
SUNPOU
 10
8550.73117
 20
2186.982787
 30
0.0
 11
8834.379473
 21
2186.982787
 31
0.0
  0
LINE
  8
SUNPOU
 10
8074.127973
 20
2201.982787
 30
0.0
 11
8074.127973
 21
2291.982787
 31
0.0
  0
LINE
  8
SUNPOU
 10
8074.127973
 20
2186.982787
 30
0.0
 11
8074.127973
 21
2096.982787
 31
0.0
  0
TEXT
  8
SUNPOU
 10
8029.127973
 20
2021.268501
 30
0.0
 40
60.0
  1
15
 50
90.0
  7
K
 72
     2
 11
8029.127973
 21
2126.982787
 31
0.0
  0
LINE
  8
SUNPOU
 10
8074.127973
 20
2186.982787
 30
0.0
 11
8074.127973
 21
2054.982787
 31
0.0
  0
INSERT
  8
SUNPOU
  2
ARROWANG
 10
8074.127973
 20
2201.982787
 30
0.0
 41
45.0
 42
45.0
 50
270.0
 43
45.0
  0
INSERT
  8
SUNPOU
  2
ARROWANG
 10
8074.127973
 20
2186.982787
 30
0.0
 41
45.0
 42
45.0
 50
90.0
 43
45.0
  0
LINE
  8
SUNPOU
 10
8462.73117
 20
2186.982787
 30
0.0
 11
8044.127973
 21
2186.982787
 31
0.0
  0
LINE
  8
SUNPOU
 10
8074.127973
 20
2201.982787
 30
0.0
 11
8074.127973
 21
2186.982787
 31
0.0
  0
TEXT
  8
SUNPOU
 10
8029.127973
 20
2414.83993
 30
0.0
 40
60.0
  1
600
 50
90.0
  7
K
 72
     1
 11
8029.127973
 21
2501.982787
 31
0.0
  0
INSERT
  8
SUNPOU
  2
ARROWANG
 10
8074.127973
 20
2801.982787
 30
0.0
 41
45.0
 42
45.0
 50
90.0
 43
45.0
  0
INSERT
  8
SUNPOU
  2
ARROWANG
 10
8074.127973
 20
2201.982787
 30
0.0
 41
45.0
 42
45.0
 50
270.0
 43
45.0
  0
LINE
  8
SUNPOU
 10
8074.127973
 20
2201.982787
 30
0.0
 11
8074.127973
 21
2801.982787
 31
0.0
  0
LINE
  8
SUNPOU
 10
8230.975369
 20
2801.982787
 30
0.0
 11
8044.127973
 21
2801.982787
 31
0.0
  0
LINE
  8
SUNPOU
 10
8390.73117
 20
2201.982787
 30
0.0
 11
8044.127973
 21
2201.982787
 31
0.0
  0
LINE
  8
SUNPOU
 10
8480.73117
 20
3004.583043
 30
0.0
 11
9760.73117
 21
3004.583043
 31
0.0
  0
INSERT
  8
SUNPOU
  2
ARROWANG
 10
8480.73117
 20
3004.583043
 30
0.0
 41
45.0
 42
45.0
 50
180.0
 43
45.0
  0
INSERT
  8
SUNPOU
  2
ARROWANG
 10
9760.73117
 20
3004.583043
 30
0.0
 41
45.0
 42
45.0
 43
45.0
  0
TEXT
  8
SUNPOU
 10
9002.159756
 20
3049.583043
 30
0.0
 40
60.0
  1
1280
  7
K
 72
     1
 11
9120.731184
 21
3049.583043
 31
0.0
  0
LINE
  8
SUNPOU
 10
8420.73117
 20
3133.790148
 30
0.0
 11
8520.73117
 21
3133.790148
 31
0.0
  0
INSERT
  8
SUNPOU
  2
ARROWANG
 10
8520.73117
 20
3133.790148
 30
0.0
 41
45.0
 42
45.0
 50
180.0
 43
45.0
  0
INSERT
  8
SUNPOU
  2
ARROWANG
 10
8420.73117
 20
3133.790148
 30
0.0
 41
45.0
 42
45.0
 43
45.0
  0
TEXT
  8
SUNPOU
 10
8380.731184
 20
3178.790148
 30
0.0
 40
60.0
  1
100
  7
K
 72
     1
 11
8470.731184
 21
3178.790148
 31
0.0
  0
LINE
  8
SUNPOU
 10
8520.73117
 20
3133.790148
 30
0.0
 11
8610.73117
 21
3133.790148
 31
0.0
  0
LINE
  8
SUNPOU
 10
8420.73117
 20
3133.790148
 30
0.0
 11
8330.73117
 21
3133.790148
 31
0.0
  0
LINE
  8
SUNPOU
 10
8520.73117
 20
3133.790148
 30
0.0
 11
9720.73117
 21
3133.790148
 31
0.0
  0
INSERT
  8
SUNPOU
  2
ARROWANG
 10
8520.73117
 20
3133.790148
 30
0.0
 41
45.0
 42
45.0
 50
180.0
 43
45.0
  0
INSERT
  8
SUNPOU
  2
ARROWANG
 10
9720.73117
 20
3133.790148
 30
0.0
 41
45.0
 42
45.0
 43
45.0
  0
TEXT
  8
SUNPOU
 10
9002.159741
 20
3178.790148
 30
0.0
 40
60.0
  1
1200
  7
K
 72
     1
 11
9120.73117
 21
3178.790148
 31
0.0
  0
LINE
  8
SUNPOU
 10
9720.73117
 20
3133.790148
 30
0.0
 11
9820.73117
 21
3133.790148
 31
0.0
  0
INSERT
  8
SUNPOU
  2
ARROWANG
 10
9820.73117
 20
3133.790148
 30
0.0
 41
45.0
 42
45.0
 50
180.0
 43
45.0
  0
INSERT
  8
SUNPOU
  2
ARROWANG
 10
9720.73117
 20
3133.790148
 30
0.0
 41
45.0
 42
45.0
 43
45.0
  0
TEXT
  8
SUNPOU
 10
9680.73117
 20
3193.790148
 30
0.0
 40
60.0
  1
100
  7
K
 72
     4
 11
9770.73117
 21
3223.790148
 31
0.0
  0
LINE
  8
SUNPOU
 10
9820.73117
 20
3133.790148
 30
0.0
 11
9910.73117
 21
3133.790148
 31
0.0
  0
LINE
  8
SUNPOU
 10
9720.73117
 20
3133.790148
 30
0.0
 11
9630.73117
 21
3133.790148
 31
0.0
  0
TEXT
  8
SUNPOU
 10
8215.975369
 20
2810.83993
 30
0.0
 40
60.0
  1
23
 50
90.0
  7
K
 72
     1
 11
8215.975369
 21
2867.982787
 31
0.0
  0
LINE
  8
SUNPOU
 10
8260.975369
 20
2778.982787
 30
0.0
 11
8260.975371
 21
2688.982787
 31
0.0
  0
LINE
  8
SUNPOU
 10
8260.975369
 20
2801.982787
 30
0.0
 11
8260.975369
 21
2933.982787
 31
0.0
  0
INSERT
  8
SUNPOU
  2
ARROWANG
 10
8260.975369
 20
2801.982787
 30
0.0
 41
45.0
 42
45.0
 50
270.0
 43
45.0
  0
INSERT
  8
SUNPOU
  2
ARROWANG
 10
8260.975369
 20
2778.982787
 30
0.0
 41
45.0
 42
45.0
 50
90.0
 43
45.0
  0
LINE
  8
SUNPOU
 10
8260.975369
 20
2778.982787
 30
0.0
 11
8260.975369
 21
2801.982787
 31
0.0
  0
LINE
  8
SUNPOU
 10
8390.73117
 20
2801.982787
 30
0.0
 11
8230.975369
 21
2801.982787
 31
0.0
  0
LINE
  8
SUNPOU
 10
8457.73117
 20
2778.982787
 30
0.0
 11
8230.975369
 21
2778.982787
 31
0.0
  0
LINE
  8
ITTEN
 10
9120.73117
 20
2851.982787
 30
0.0
 11
9120.73117
 21
1836.982787
 31
0.0
  0
LINE
  8
JISSEN
 10
8420.73117
 20
2201.982787
 30
0.0
 11
8481.73117
 21
2201.982787
 31
0.0
  0
LINE
  8
JISSEN
 10
8481.73117
 20
2201.982787
 30
0.0
 11
8492.73117
 21
2186.982787
 31
0.0
  0
LINE
  8
JISSEN
 10
8492.73117
 20
2186.982787
 30
0.0
 11
9120.73117
 21
2186.982787
 31
0.0
  0
LINE
  8
JISSEN
 10
9820.73117
 20
2201.982787
 30
0.0
 11
9759.73117
 21
2201.982787
 31
0.0
  0
LINE
  8
JISSEN
 10
9759.73117
 20
2201.982787
 30
0.0
 11
9748.73117
 21
2186.982787
 31
0.0
  0
LINE
  8
JISSEN
 10
9748.73117
 20
2186.982787
 30
0.0
 11
9120.73117
 21
2186.982787
 31
0.0
  0
LINE
  8
JISSEN
 10
9120.73117
 20
2201.982787
 30
0.0
 11
9759.73117
 21
2201.982787
 31
0.0
  0
LINE
  8
JISSEN
 10
8420.73117
 20
2801.982787
 30
0.0
 11
8480.73117
 21
2801.982787
 31
0.0
  0
LINE
  8
JISSEN
 10
8480.73117
 20
2801.982787
 30
0.0
 11
8487.73117
 21
2778.982787
 31
0.0
  0
LINE
  8
JISSEN
 10
8487.73117
 20
2778.982787
 30
0.0
 11
9120.73117
 21
2778.982787
 31
0.0
  0
LINE
  8
JISSEN
 10
8480.73117
 20
2801.982787
 30
0.0
 11
9120.73117
 21
2801.982787
 31
0.0
  0
LINE
  8
JISSEN
 10
9760.73117
 20
2801.982787
 30
0.0
 11
9120.73117
 21
2801.982787
 31
0.0
  0
LINE
  8
HASEN
 10
9753.73117
 20
2778.982787
 30
0.0
 11
9120.73117
 21
2778.982787
 31
0.0
  0
LINE
  8
HASEN
 10
9760.73117
 20
2801.982787
 30
0.0
 11
9753.73117
 21
2778.982787
 31
0.0
  0
LINE
  8
JISSEN
 10
9820.73117
 20
2801.982787
 30
0.0
 11
9760.73117
 21
2801.982787
 31
0.0
  0
LINE
  8
JISSEN
 10
8520.73117
 20
2778.982787
 30
0.0
 11
8520.73117
 21
2186.982787
 31
0.0
  0
LINE
  8
HASEN
 10
9720.73117
 20
2778.982787
 30
0.0
 11
9720.73117
 21
2186.982787
 31
0.0
  0
LINE
  8
JISSEN
 10
8420.73117
 20
2201.982787
 30
0.0
 11
8420.73117
 21
2801.982787
 31
0.0
  0
LINE
  8
JISSEN
 10
9820.73117
 20
2201.982787
 30
0.0
 11
9820.73117
 21
2801.982787
 31
0.0
  0
ARC
  8
JISSEN
 10
8640.73117
 20
2636.982787
 30
0.0
 40
10.0
 50
270.0
 51
90.0
  0
LINE
  8
JISSEN
 10
8520.73117
 20
2646.982787
 30
0.0
 11
8640.73117
 21
2646.982787
 31
0.0
  0
LINE
  8
JISSEN
 10
8520.73117
 20
2626.982787
 30
0.0
 11
8640.73117
 21
2626.982787
 31
0.0
  0
LINE
  8
ITTEN
 10
8470.73117
 20
2636.982787
 30
0.0
 11
8700.73117
 21
2636.982787
 31
0.0
  0
LINE
  8
SUNPOU
 10
8487.73117
 20
2808.982787
 30
0.0
 11
8487.73117
 21
2902.299579
 31
0.0
  0
LINE
  8
SUNPOU
 10
9753.73117
 20
2808.982787
 30
0.0
 11
9753.73117
 21
2902.299579
 31
0.0
  0
LINE
  8
SUNPOU
 10
8487.73117
 20
2872.299579
 30
0.0
 11
9753.73117
 21
2872.299579
 31
0.0
  0
INSERT
  8
SUNPOU
  2
ARROWANG
 10
8487.73117
 20
2872.299579
 30
0.0
 41
45.0
 42
45.0
 50
180.0
 43
45.0
  0
INSERT
  8
SUNPOU
  2
ARROWANG
 10
9753.73117
 20
2872.299579
 30
0.0
 41
45.0
 42
45.0
 43
45.0
  0
TEXT
  8
SUNPOU
 10
9002.159756
 20
2917.299579
 30
0.0
 40
60.0
  1
1266
  7
K
 72
     1
 11
9120.731184
 21
2917.299579
 31
0.0
  0
LINE
  8
SUNPOU
 10
8480.73117
 20
2831.982787
 30
0.0
 11
8480.73117
 21
3034.583043
 31
0.0
  0
LINE
  8
SUNPOU
 10
9760.73117
 20
2831.982787
 30
0.0
 11
9760.73117
 21
3034.583043
 31
0.0
  0
LINE
  8
SUNPOU
 10
8420.73117
 20
2831.982787
 30
0.0
 11
8420.73117
 21
3163.790148
 31
0.0
  0
LINE
  8
SUNPOU
 10
8520.73117
 20
2808.982787
 30
0.0
 11
8520.73117
 21
3163.790148
 31
0.0
  0
LINE
  8
SUNPOU
 10
9720.73117
 20
2808.982787
 30
0.0
 11
9720.73117
 21
3163.790148
 31
0.0
  0
LINE
  8
SUNPOU
 10
9820.73117
 20
2831.982787
 30
0.0
 11
9820.73117
 21
3163.790148
 31
0.0
  0
LINE
  8
SUNPOU
 10
8492.73117
 20
2156.982787
 30
0.0
 11
8492.73117
 21
1997.655741
 31
0.0
  0
LINE
  8
SUNPOU
 10
9748.73117
 20
2156.982787
 30
0.0
 11
9748.73117
 21
1997.655741
 31
0.0
  0
LINE
  8
SUNPOU
 10
8492.73117
 20
2027.655741
 30
0.0
 11
9748.73117
 21
2027.655741
 31
0.0
  0
INSERT
  8
SUNPOU
  2
ARROWANG
 10
9748.73117
 20
2027.655741
 30
0.0
 41
45.0
 42
45.0
 43
45.0
  0
INSERT
  8
SUNPOU
  2
ARROWANG
 10
8492.73117
 20
2027.655741
 30
0.0
 41
45.0
 42
45.0
 50
180.0
 43
45.0
  0
TEXT
  8
SUNPOU
 10
9002.159741
 20
2072.655741
 30
0.0
 40
60.0
  1
1256
  7
K
 72
     1
 11
9120.73117
 21
2072.655741
 31
0.0
  0
CIRCLE
  8
SAISEN
 10
8625.756423
 20
2301.982787
 30
0.0
 40
12.5
  0
CIRCLE
  8
SAISEN
 10
9615.705917
 20
2301.982787
 30
0.0
 40
12.5
  0
LINE
  8
SUNPOU
 10
9850.73117
 20
2201.982787
 30
0.0
 11
9990.237884
 21
2201.982787
 31
0.0
  0
LINE
  8
SUNPOU
 10
9645.705917
 20
2301.982787
 30
0.0
 11
9990.237884
 21
2301.982787
 31
0.0
  0
LINE
  8
SUNPOU
 10
9960.237884
 20
2201.982787
 30
0.0
 11
9960.237884
 21
2301.982787
 31
0.0
  0
INSERT
  8
SUNPOU
  2
ARROWANG
 10
9960.237884
 20
2201.982787
 30
0.0
 41
45.0
 42
45.0
 50
90.0
 43
45.0
  0
INSERT
  8
SUNPOU
  2
ARROWANG
 10
9960.237884
 20
2301.982787
 30
0.0
 41
45.0
 42
45.0
 50
270.0
 43
45.0
  0
LINE
  8
SUNPOU
 10
9960.237884
 20
2301.982787
 30
0.0
 11
9960.237884
 21
2499.982787
 31
0.0
  0
LINE
  8
SUNPOU
 10
9960.237884
 20
2201.982787
 30
0.0
 11
9960.237886
 21
2111.982787
 31
0.0
  0
TEXT
  8
SUNPOU
 10
9915.237884
 20
2310.982787
 30
0.0
 40
60.0
  1
100
 50
90.0
  7
K
 72
     1
 11
9915.237884
 21
2400.982787
 31
0.0
  0
CIRCLE
  8
SAISEN
 10
9615.705917
 20
2701.982787
 30
0.0
 40
12.5
  0
CIRCLE
  8
SAISEN
 10
8625.756423
 20
2701.982787
 30
0.0
 40
12.5
  0
LINE
  8
SUNPOU
 10
9645.705917
 20
2701.982787
 30
0.0
 11
9975.156925
 21
2701.982787
 31
0.0
  0
LINE
  8
SUNPOU
 10
9850.73117
 20
2801.982787
 30
0.0
 11
9975.156925
 21
2801.982787
 31
0.0
  0
LINE
  8
SUNPOU
 10
9945.156925
 20
2701.982787
 30
0.0
 11
9945.156925
 21
2801.982787
 31
0.0
  0
INSERT
  8
SUNPOU
  2
ARROWANG
 10
9945.156925
 20
2701.982787
 30
0.0
 41
45.0
 42
45.0
 50
90.0
 43
45.0
  0
INSERT
  8
SUNPOU
  2
ARROWANG
 10
9945.156925
 20
2801.982787
 30
0.0
 41
45.0
 42
45.0
 50
270.0
 43
45.0
  0
LINE
  8
SUNPOU
 10
9945.156925
 20
2701.982787
 30
0.0
 11
9945.156925
 21
2503.982787
 31
0.0
  0
LINE
  8
SUNPOU
 10
9945.156925
 20
2801.982787
 30
0.0
 11
9945.156925
 21
2891.982787
 31
0.0
  0
TEXT
  8
SUNPOU
 10
9900.156925
 20
2512.982787
 30
0.0
 40
60.0
  1
100
 50
90.0
  7
K
 72
     1
 11
9900.156925
 21
2602.982787
 31
0.0
  0
LINE
  8
SUNPOU
 10
8481.73117
 20
2171.982787
 30
0.0
 11
8481.73117
 21
1861.933712
 31
0.0
  0
LINE
  8
SUNPOU
 10
9759.73117
 20
2171.982787
 30
0.0
 11
9759.73117
 21
1861.933712
 31
0.0
  0
LINE
  8
SUNPOU
 10
8481.73117
 20
1891.933712
 30
0.0
 11
9759.73117
 21
1891.933712
 31
0.0
  0
INSERT
  8
SUNPOU
  2
ARROWANG
 10
8481.73117
 20
1891.933712
 30
0.0
 41
45.0
 42
45.0
 50
180.0
 43
45.0
  0
INSERT
  8
SUNPOU
  2
ARROWANG
 10
9759.73117
 20
1891.933712
 30
0.0
 41
45.0
 42
45.0
 43
45.0
  0
TEXT
  8
SUNPOU
 10
9002.159756
 20
1936.933712
 30
0.0
 40
60.0
  1
1278
  7
K
 72
     1
 11
9120.731184
 21
1936.933712
 31
0.0
  0
LINE
  8
ITTEN
 10
8470.73117
 20
2336.982787
 30
0.0
 11
8700.73117
 21
2336.982787
 31
0.0
  0
LINE
  8
JISSEN
 10
8520.73117
 20
2326.982787
 30
0.0
 11
8640.73117
 21
2326.982787
 31
0.0
  0
LINE
  8
JISSEN
 10
8520.73117
 20
2346.982787
 30
0.0
 11
8640.73117
 21
2346.982787
 31
0.0
  0
ARC
  8
JISSEN
 10
8640.73117
 20
2336.982787
 30
0.0
 40
10.0
 50
270.0
 51
90.0
  0
LINE
  8
SUNPOU
 10
8680.73117
 20
2336.982787
 30
0.0
 11
8834.379473
 21
2336.982787
 31
0.0
  0
LINE
  8
SUNPOU
 10
8804.379473
 20
2336.982787
 30
0.0
 11
8804.379473
 21
2636.982787
 31
0.0
  0
LINE
  8
SUNPOU
 10
8680.73117
 20
2636.982787
 30
0.0
 11
8834.379473
 21
2636.982787
 31
0.0
  0
INSERT
  8
SUNPOU
  2
ARROWANG
 10
8804.379473
 20
2336.982787
 30
0.0
 41
45.0
 42
45.0
 50
270.0
 43
45.0
  0
INSERT
  8
SUNPOU
  2
ARROWANG
 10
8804.379473
 20
2636.982787
 30
0.0
 41
45.0
 42
45.0
 50
90.0
 43
45.0
  0
TEXT
  8
SUNPOU
 10
8759.379473
 20
2401.268501
 30
0.0
 40
60.0
  1
300
 50
90.0
  7
K
 72
     1
 11
8759.379473
 21
2486.982787
 31
0.0
  0
TEXT
  8
SUNPOU
 10
4517.85344
 20
1571.982787
 30
0.0
 40
60.0
  1
150
 50
90.0
  7
K
 72
     1
 11
4517.85344
 21
1661.982787
 31
0.0
  0
INSERT
  8
SUNPOU
  2
ARROWANG
 10
4562.85344
 20
1586.982787
 30
0.0
 41
45.0
 42
45.0
 50
270.0
 43
45.0
  0
INSERT
  8
SUNPOU
  2
ARROWANG
 10
4562.85344
 20
1736.982787
 30
0.0
 41
45.0
 42
45.0
 50
90.0
 43
45.0
  0
LINE
  8
SUNPOU
 10
4302.789889
 20
1586.982787
 30
0.0
 11
4592.85344
 21
1586.982787
 31
0.0
  0
LINE
  8
SUNPOU
 10
4562.85344
 20
1736.982787
 30
0.0
 11
4562.85344
 21
1586.982787
 31
0.0
  0
TEXT
  8
SUNPOU
 10
4517.85344
 20
1801.268501
 30
0.0
 40
60.0
  1
300
 50
90.0
  7
K
 72
     1
 11
4517.85344
 21
1886.982787
 31
0.0
  0
INSERT
  8
SUNPOU
  2
ARROWANG
 10
4562.85344
 20
1736.982787
 30
0.0
 41
45.0
 42
45.0
 50
270.0
 43
45.0
  0
INSERT
  8
SUNPOU
  2
ARROWANG
 10
4562.85344
 20
2036.982787
 30
0.0
 41
45.0
 42
45.0
 50
90.0
 43
45.0
  0
LINE
  8
SUNPOU
 10
4432.789889
 20
1736.982787
 30
0.0
 11
4592.85344
 21
1736.982787
 31
0.0
  0
LINE
  8
SUNPOU
 10
4562.85344
 20
2036.982787
 30
0.0
 11
4562.85344
 21
1736.982787
 31
0.0
  0
TEXT
  8
SUNPOU
 10
4517.85344
 20
2101.268501
 30
0.0
 40
60.0
  1
300
 50
90.0
  7
K
 72
     1
 11
4517.85344
 21
2186.982787
 31
0.0
  0
INSERT
  8
SUNPOU
  2
ARROWANG
 10
4562.85344
 20
2036.982787
 30
0.0
 41
45.0
 42
45.0
 50
270.0
 43
45.0
  0
INSERT
  8
SUNPOU
  2
ARROWANG
 10
4562.85344
 20
2336.982787
 30
0.0
 41
45.0
 42
45.0
 50
90.0
 43
45.0
  0
LINE
  8
SUNPOU
 10
4432.789889
 20
2036.982787
 30
0.0
 11
4592.85344
 21
2036.982787
 31
0.0
  0
LINE
  8
SUNPOU
 10
4562.85344
 20
2336.982787
 30
0.0
 11
4562.85344
 21
2036.982787
 31
0.0
  0
TEXT
  8
SUNPOU
 10
4517.85344
 20
2401.268501
 30
0.0
 40
60.0
  1
300
 50
90.0
  7
K
 72
     1
 11
4517.85344
 21
2486.982787
 31
0.0
  0
INSERT
  8
SUNPOU
  2
ARROWANG
 10
4562.85344
 20
2636.982787
 30
0.0
 41
45.0
 42
45.0
 50
90.0
 43
45.0
  0
INSERT
  8
SUNPOU
  2
ARROWANG
 10
4562.85344
 20
2336.982787
 30
0.0
 41
45.0
 42
45.0
 50
270.0
 43
45.0
  0
LINE
  8
SUNPOU
 10
4562.85344
 20
2336.982787
 30
0.0
 11
4562.85344
 21
2636.982787
 31
0.0
  0
LINE
  8
SUNPOU
 10
4432.789889
 20
2636.982787
 30
0.0
 11
4592.85344
 21
2636.982787
 31
0.0
  0
LINE
  8
SUNPOU
 10
4432.789889
 20
2336.982787
 30
0.0
 11
4592.85344
 21
2336.982787
 31
0.0
  0
LINE
  8
ITTEN
 10
4222.789889
 20
1736.982787
 30
0.0
 11
4452.789889
 21
1736.982787
 31
0.0
  0
LINE
  8
JISSEN
 10
4272.789889
 20
1726.982787
 30
0.0
 11
4392.789889
 21
1726.982787
 31
0.0
  0
LINE
  8
JISSEN
 10
4272.789889
 20
1746.982787
 30
0.0
 11
4392.789889
 21
1746.982787
 31
0.0
  0
ARC
  8
JISSEN
 10
4392.789889
 20
1736.982787
 30
0.0
 40
10.0
 50
270.0
 51
90.0
  0
LINE
  8
ITTEN
 10
4222.789889
 20
2036.982787
 30
0.0
 11
4452.789889
 21
2036.982787
 31
0.0
  0
LINE
  8
JISSEN
 10
4272.789889
 20
2026.982787
 30
0.0
 11
4392.789889
 21
2026.982787
 31
0.0
  0
LINE
  8
JISSEN
 10
4272.789889
 20
2046.982787
 30
0.0
 11
4392.789889
 21
2046.982787
 31
0.0
  0
ARC
  8
JISSEN
 10
4392.789889
 20
2036.982787
 30
0.0
 40
10.0
 50
270.0
 51
90.0
  0
LINE
  8
ITTEN
 10
4222.789889
 20
2336.982787
 30
0.0
 11
4452.789889
 21
2336.982787
 31
0.0
  0
LINE
  8
JISSEN
 10
4272.789889
 20
2326.982787
 30
0.0
 11
4392.789889
 21
2326.982787
 31
0.0
  0
LINE
  8
JISSEN
 10
4272.789889
 20
2346.982787
 30
0.0
 11
4392.789889
 21
2346.982787
 31
0.0
  0
ARC
  8
JISSEN
 10
4392.789889
 20
2336.982787
 30
0.0
 40
10.0
 50
270.0
 51
90.0
  0
TEXT
  8
SUNPOU
 10
8760.706694
 20
4447.849844
 30
0.0
 40
60.0
  1
150
 50
90.0
  7
K
 72
     1
 11
8760.706694
 21
4537.849844
 31
0.0
  0
INSERT
  8
SUNPOU
  2
ARROWANG
 10
8805.706694
 20
4462.849844
 30
0.0
 41
45.0
 42
45.0
 50
270.0
 43
45.0
  0
INSERT
  8
SUNPOU
  2
ARROWANG
 10
8805.706694
 20
4612.849844
 30
0.0
 41
45.0
 42
45.0
 50
90.0
 43
45.0
  0
LINE
  8
SUNPOU
 10
8550.73117
 20
4462.849844
 30
0.0
 11
8835.706694
 21
4462.849844
 31
0.0
  0
LINE
  8
SUNPOU
 10
8805.706694
 20
4612.849844
 30
0.0
 11
8805.706694
 21
4462.849844
 31
0.0
  0
TEXT
  8
SUNPOU
 10
8760.706694
 20
4677.135559
 30
0.0
 40
60.0
  1
300
 50
90.0
  7
K
 72
     1
 11
8760.706694
 21
4762.849844
 31
0.0
  0
INSERT
  8
SUNPOU
  2
ARROWANG
 10
8805.706694
 20
4612.849844
 30
0.0
 41
45.0
 42
45.0
 50
270.0
 43
45.0
  0
INSERT
  8
SUNPOU
  2
ARROWANG
 10
8805.706694
 20
4912.849844
 30
0.0
 41
45.0
 42
45.0
 50
90.0
 43
45.0
  0
LINE
  8
SUNPOU
 10
8680.73117
 20
4612.849844
 30
0.0
 11
8835.706694
 21
4612.849844
 31
0.0
  0
LINE
  8
SUNPOU
 10
8805.706694
 20
4912.849844
 30
0.0
 11
8805.706694
 21
4612.849844
 31
0.0
  0
TEXT
  8
SUNPOU
 10
8760.706694
 20
4977.135559
 30
0.0
 40
60.0
  1
300
 50
90.0
  7
K
 72
     1
 11
8760.706694
 21
5062.849844
 31
0.0
  0
INSERT
  8
SUNPOU
  2
ARROWANG
 10
8805.706694
 20
4912.849844
 30
0.0
 41
45.0
 42
45.0
 50
270.0
 43
45.0
  0
INSERT
  8
SUNPOU
  2
ARROWANG
 10
8805.706694
 20
5212.849844
 30
0.0
 41
45.0
 42
45.0
 50
90.0
 43
45.0
  0
LINE
  8
SUNPOU
 10
8680.73117
 20
4912.849844
 30
0.0
 11
8835.706694
 21
4912.849844
 31
0.0
  0
LINE
  8
SUNPOU
 10
8805.706694
 20
5212.849844
 30
0.0
 11
8805.706694
 21
4912.849844
 31
0.0
  0
TEXT
  8
SUNPOU
 10
8760.706694
 20
5277.135559
 30
0.0
 40
60.0
  1
300
 50
90.0
  7
K
 72
     1
 11
8760.706694
 21
5362.849844
 31
0.0
  0
INSERT
  8
SUNPOU
  2
ARROWANG
 10
8805.706694
 20
5512.849844
 30
0.0
 41
45.0
 42
45.0
 50
90.0
 43
45.0
  0
INSERT
  8
SUNPOU
  2
ARROWANG
 10
8805.706694
 20
5212.849844
 30
0.0
 41
45.0
 42
45.0
 50
270.0
 43
45.0
  0
LINE
  8
SUNPOU
 10
8805.706694
 20
5212.849844
 30
0.0
 11
8805.706694
 21
5512.849844
 31
0.0
  0
LINE
  8
SUNPOU
 10
8775.706694
 20
5512.849844
 30
0.0
 11
8775.706694
 21
5512.849844
 31
0.0
  0
LINE
  8
SUNPOU
 10
8680.73117
 20
5212.849844
 30
0.0
 11
8835.706694
 21
5212.849844
 31
0.0
  0
ARC
  8
JISSEN
 10
8640.73117
 20
4612.849844
 30
0.0
 40
10.0
 50
270.0
 51
90.0
  0
LINE
  8
JISSEN
 10
8520.73117
 20
4622.849844
 30
0.0
 11
8640.73117
 21
4622.849844
 31
0.0
  0
LINE
  8
ITTEN
 10
8470.73117
 20
4612.849844
 30
0.0
 11
8700.73117
 21
4612.849844
 31
0.0
  0
LINE
  8
JISSEN
 10
8520.73117
 20
4602.849844
 30
0.0
 11
8640.73117
 21
4602.849844
 31
0.0
  0
ARC
  8
JISSEN
 10
8640.73117
 20
4912.849844
 30
0.0
 40
10.0
 50
270.0
 51
90.0
  0
LINE
  8
JISSEN
 10
8520.73117
 20
4922.849844
 30
0.0
 11
8640.73117
 21
4922.849844
 31
0.0
  0
LINE
  8
ITTEN
 10
8470.73117
 20
4912.849844
 30
0.0
 11
8700.73117
 21
4912.849844
 31
0.0
  0
LINE
  8
JISSEN
 10
8520.73117
 20
4902.849844
 30
0.0
 11
8640.73117
 21
4902.849844
 31
0.0
  0
ARC
  8
JISSEN
 10
8640.73117
 20
5212.849844
 30
0.0
 40
10.0
 50
270.0
 51
90.0
  0
LINE
  8
JISSEN
 10
8520.73117
 20
5222.849844
 30
0.0
 11
8640.73117
 21
5222.849844
 31
0.0
  0
LINE
  8
ITTEN
 10
8470.73117
 20
5212.849844
 30
0.0
 11
8700.73117
 21
5212.849844
 31
0.0
  0
LINE
  8
JISSEN
 10
8520.73117
 20
5202.849844
 30
0.0
 11
8640.73117
 21
5202.849844
 31
0.0
  0
TEXT
  8
SUNPOU
 10
6640.856286
 20
4147.849844
 30
0.0
 40
60.0
  1
150
 50
90.0
  7
K
 72
     1
 11
6640.856286
 21
4237.849844
 31
0.0
  0
INSERT
  8
SUNPOU
  2
ARROWANG
 10
6685.856286
 20
4162.849844
 30
0.0
 41
45.0
 42
45.0
 50
270.0
 43
45.0
  0
INSERT
  8
SUNPOU
  2
ARROWANG
 10
6685.856286
 20
4312.849844
 30
0.0
 41
45.0
 42
45.0
 50
90.0
 43
45.0
  0
LINE
  8
SUNPOU
 10
6430.880761
 20
4162.849844
 30
0.0
 11
6715.856286
 21
4162.849844
 31
0.0
  0
LINE
  8
SUNPOU
 10
6685.856286
 20
4312.849844
 30
0.0
 11
6685.856286
 21
4162.849844
 31
0.0
  0
TEXT
  8
SUNPOU
 10
6640.856286
 20
4377.135559
 30
0.0
 40
60.0
  1
300
 50
90.0
  7
K
 72
     1
 11
6640.856286
 21
4462.849844
 31
0.0
  0
INSERT
  8
SUNPOU
  2
ARROWANG
 10
6685.856286
 20
4312.849844
 30
0.0
 41
45.0
 42
45.0
 50
270.0
 43
45.0
  0
INSERT
  8
SUNPOU
  2
ARROWANG
 10
6685.856286
 20
4612.849844
 30
0.0
 41
45.0
 42
45.0
 50
90.0
 43
45.0
  0
LINE
  8
SUNPOU
 10
6560.880761
 20
4312.849844
 30
0.0
 11
6715.856286
 21
4312.849844
 31
0.0
  0
LINE
  8
SUNPOU
 10
6685.856286
 20
4612.849844
 30
0.0
 11
6685.856286
 21
4312.849844
 31
0.0
  0
TEXT
  8
SUNPOU
 10
6640.856286
 20
4677.135559
 30
0.0
 40
60.0
  1
300
 50
90.0
  7
K
 72
     1
 11
6640.856286
 21
4762.849844
 31
0.0
  0
INSERT
  8
SUNPOU
  2
ARROWANG
 10
6685.856286
 20
4612.849844
 30
0.0
 41
45.0
 42
45.0
 50
270.0
 43
45.0
  0
INSERT
  8
SUNPOU
  2
ARROWANG
 10
6685.856286
 20
4912.849844
 30
0.0
 41
45.0
 42
45.0
 50
90.0
 43
45.0
  0
LINE
  8
SUNPOU
 10
6560.880761
 20
4612.849844
 30
0.0
 11
6715.856286
 21
4612.849844
 31
0.0
  0
LINE
  8
SUNPOU
 10
6685.856286
 20
4912.849844
 30
0.0
 11
6685.856286
 21
4612.849844
 31
0.0
  0
TEXT
  8
SUNPOU
 10
6640.856286
 20
4977.135559
 30
0.0
 40
60.0
  1
300
 50
90.0
  7
K
 72
     1
 11
6640.856286
 21
5062.849844
 31
0.0
  0
INSERT
  8
SUNPOU
  2
ARROWANG
 10
6685.856286
 20
5212.849844
 30
0.0
 41
45.0
 42
45.0
 50
90.0
 43
45.0
  0
INSERT
  8
SUNPOU
  2
ARROWANG
 10
6685.856286
 20
4912.849844
 30
0.0
 41
45.0
 42
45.0
 50
270.0
 43
45.0
  0
LINE
  8
SUNPOU
 10
6685.856286
 20
4912.849844
 30
0.0
 11
6685.856286
 21
5212.849844
 31
0.0
  0
LINE
  8
SUNPOU
 10
6655.856286
 20
5212.849844
 30
0.0
 11
6655.856286
 21
5212.849844
 31
0.0
  0
LINE
  8
SUNPOU
 10
6560.880761
 20
4912.849844
 30
0.0
 11
6715.856286
 21
4912.849844
 31
0.0
  0
LINE
  8
JISSEN
 10
6400.880761
 20
4302.849844
 30
0.0
 11
6520.880761
 21
4302.849844
 31
0.0
  0
LINE
  8
ITTEN
 10
6350.880761
 20
4312.849844
 30
0.0
 11
6580.880761
 21
4312.849844
 31
0.0
  0
LINE
  8
JISSEN
 10
6400.880761
 20
4322.849844
 30
0.0
 11
6520.880761
 21
4322.849844
 31
0.0
  0
ARC
  8
JISSEN
 10
6520.880761
 20
4312.849844
 30
0.0
 40
10.0
 50
270.0
 51
90.0
  0
LINE
  8
JISSEN
 10
6400.880761
 20
4602.849844
 30
0.0
 11
6520.880761
 21
4602.849844
 31
0.0
  0
LINE
  8
ITTEN
 10
6350.880761
 20
4612.849844
 30
0.0
 11
6580.880761
 21
4612.849844
 31
0.0
  0
LINE
  8
JISSEN
 10
6400.880761
 20
4622.849844
 30
0.0
 11
6520.880761
 21
4622.849844
 31
0.0
  0
ARC
  8
JISSEN
 10
6520.880761
 20
4612.849844
 30
0.0
 40
10.0
 50
270.0
 51
90.0
  0
LINE
  8
JISSEN
 10
6400.880761
 20
4902.849844
 30
0.0
 11
6520.880761
 21
4902.849844
 31
0.0
  0
LINE
  8
ITTEN
 10
6350.880761
 20
4912.849844
 30
0.0
 11
6580.880761
 21
4912.849844
 31
0.0
  0
LINE
  8
JISSEN
 10
6400.880761
 20
4922.849844
 30
0.0
 11
6520.880761
 21
4922.849844
 31
0.0
  0
ARC
  8
JISSEN
 10
6520.880761
 20
4912.849844
 30
0.0
 40
10.0
 50
270.0
 51
90.0
  0
TEXT
  8
SUNPOU
 10
4512.765413
 20
3847.849844
 30
0.0
 40
60.0
  1
150
 50
90.0
  7
K
 72
     1
 11
4512.765413
 21
3937.849844
 31
0.0
  0
INSERT
  8
SUNPOU
  2
ARROWANG
 10
4557.765413
 20
3862.849844
 30
0.0
 41
45.0
 42
45.0
 50
270.0
 43
45.0
  0
INSERT
  8
SUNPOU
  2
ARROWANG
 10
4557.765413
 20
4012.849844
 30
0.0
 41
45.0
 42
45.0
 50
90.0
 43
45.0
  0
LINE
  8
SUNPOU
 10
4302.789889
 20
3862.849844
 30
0.0
 11
4587.765413
 21
3862.849844
 31
0.0
  0
LINE
  8
SUNPOU
 10
4557.765413
 20
4012.849844
 30
0.0
 11
4557.765413
 21
3862.849844
 31
0.0
  0
TEXT
  8
SUNPOU
 10
4512.765413
 20
4077.135559
 30
0.0
 40
60.0
  1
300
 50
90.0
  7
K
 72
     1
 11
4512.765413
 21
4162.849844
 31
0.0
  0
INSERT
  8
SUNPOU
  2
ARROWANG
 10
4557.765413
 20
4012.849844
 30
0.0
 41
45.0
 42
45.0
 50
270.0
 43
45.0
  0
INSERT
  8
SUNPOU
  2
ARROWANG
 10
4557.765413
 20
4312.849844
 30
0.0
 41
45.0
 42
45.0
 50
90.0
 43
45.0
  0
LINE
  8
SUNPOU
 10
4432.789889
 20
4012.849844
 30
0.0
 11
4587.765413
 21
4012.849844
 31
0.0
  0
LINE
  8
SUNPOU
 10
4557.765413
 20
4312.849844
 30
0.0
 11
4557.765413
 21
4012.849844
 31
0.0
  0
TEXT
  8
SUNPOU
 10
4512.765413
 20
4377.135559
 30
0.0
 40
60.0
  1
300
 50
90.0
  7
K
 72
     1
 11
4512.765413
 21
4462.849844
 31
0.0
  0
INSERT
  8
SUNPOU
  2
ARROWANG
 10
4557.765413
 20
4312.849844
 30
0.0
 41
45.0
 42
45.0
 50
270.0
 43
45.0
  0
INSERT
  8
SUNPOU
  2
ARROWANG
 10
4557.765413
 20
4612.849844
 30
0.0
 41
45.0
 42
45.0
 50
90.0
 43
45.0
  0
LINE
  8
SUNPOU
 10
4432.789889
 20
4312.849844
 30
0.0
 11
4587.765413
 21
4312.849844
 31
0.0
  0
LINE
  8
SUNPOU
 10
4557.765413
 20
4612.849844
 30
0.0
 11
4557.765413
 21
4312.849844
 31
0.0
  0
TEXT
  8
SUNPOU
 10
4512.765413
 20
4677.135559
 30
0.0
 40
60.0
  1
300
 50
90.0
  7
K
 72
     1
 11
4512.765413
 21
4762.849844
 31
0.0
  0
INSERT
  8
SUNPOU
  2
ARROWANG
 10
4557.765413
 20
4912.849844
 30
0.0
 41
45.0
 42
45.0
 50
90.0
 43
45.0
  0
INSERT
  8
SUNPOU
  2
ARROWANG
 10
4557.765413
 20
4612.849844
 30
0.0
 41
45.0
 42
45.0
 50
270.0
 43
45.0
  0
LINE
  8
SUNPOU
 10
4557.765413
 20
4612.849844
 30
0.0
 11
4557.765413
 21
4912.849844
 31
0.0
  0
LINE
  8
SUNPOU
 10
4527.765413
 20
4912.849844
 30
0.0
 11
4527.765413
 21
4912.849844
 31
0.0
  0
LINE
  8
SUNPOU
 10
4432.789889
 20
4612.849844
 30
0.0
 11
4587.765413
 21
4612.849844
 31
0.0
  0
LINE
  8
JISSEN
 10
4272.789889
 20
4002.849844
 30
0.0
 11
4392.789889
 21
4002.849844
 31
0.0
  0
LINE
  8
ITTEN
 10
4222.789889
 20
4012.849844
 30
0.0
 11
4452.789889
 21
4012.849844
 31
0.0
  0
LINE
  8
JISSEN
 10
4272.789889
 20
4022.849844
 30
0.0
 11
4392.789889
 21
4022.849844
 31
0.0
  0
ARC
  8
JISSEN
 10
4392.789889
 20
4012.849844
 30
0.0
 40
10.0
 50
270.0
 51
90.0
  0
LINE
  8
JISSEN
 10
4272.789889
 20
4302.849844
 30
0.0
 11
4392.789889
 21
4302.849844
 31
0.0
  0
LINE
  8
ITTEN
 10
4222.789889
 20
4312.849844
 30
0.0
 11
4452.789889
 21
4312.849844
 31
0.0
  0
LINE
  8
JISSEN
 10
4272.789889
 20
4322.849844
 30
0.0
 11
4392.789889
 21
4322.849844
 31
0.0
  0
ARC
  8
JISSEN
 10
4392.789889
 20
4312.849844
 30
0.0
 40
10.0
 50
270.0
 51
90.0
  0
ARC
  8
JISSEN
 10
4392.789889
 20
4612.849844
 30
0.0
 40
10.0
 50
270.0
 51
90.0
  0
LINE
  8
JISSEN
 10
4272.789889
 20
4622.849844
 30
0.0
 11
4392.789889
 21
4622.849844
 31
0.0
  0
LINE
  8
ITTEN
 10
4222.789889
 20
4612.849844
 30
0.0
 11
4452.789889
 21
4612.849844
 31
0.0
  0
LINE
  8
JISSEN
 10
4272.789889
 20
4602.849844
 30
0.0
 11
4392.789889
 21
4602.849844
 31
0.0
  0
TEXT
  8
SUNPOU
 10
2382.204402
 20
3547.849844
 30
0.0
 40
60.0
  1
150
 50
90.0
  7
K
 72
     1
 11
2382.204402
 21
3637.849844
 31
0.0
  0
INSERT
  8
SUNPOU
  2
ARROWANG
 10
2427.204402
 20
3562.849844
 30
0.0
 41
45.0
 42
45.0
 50
270.0
 43
45.0
  0
INSERT
  8
SUNPOU
  2
ARROWANG
 10
2427.204402
 20
3712.849844
 30
0.0
 41
45.0
 42
45.0
 50
90.0
 43
45.0
  0
LINE
  8
SUNPOU
 10
2172.228878
 20
3562.849844
 30
0.0
 11
2457.204402
 21
3562.849844
 31
0.0
  0
LINE
  8
SUNPOU
 10
2427.204402
 20
3712.849844
 30
0.0
 11
2427.204402
 21
3562.849844
 31
0.0
  0
TEXT
  8
SUNPOU
 10
2382.204402
 20
3777.135559
 30
0.0
 40
60.0
  1
300
 50
90.0
  7
K
 72
     1
 11
2382.204402
 21
3862.849844
 31
0.0
  0
INSERT
  8
SUNPOU
  2
ARROWANG
 10
2427.204402
 20
3712.849844
 30
0.0
 41
45.0
 42
45.0
 50
270.0
 43
45.0
  0
INSERT
  8
SUNPOU
  2
ARROWANG
 10
2427.204402
 20
4012.849844
 30
0.0
 41
45.0
 42
45.0
 50
90.0
 43
45.0
  0
LINE
  8
SUNPOU
 10
2302.228878
 20
3712.849844
 30
0.0
 11
2457.204402
 21
3712.849844
 31
0.0
  0
LINE
  8
SUNPOU
 10
2427.204402
 20
4012.849844
 30
0.0
 11
2427.204402
 21
3712.849844
 31
0.0
  0
TEXT
  8
SUNPOU
 10
2382.204402
 20
4077.135559
 30
0.0
 40
60.0
  1
300
 50
90.0
  7
K
 72
     1
 11
2382.204402
 21
4162.849844
 31
0.0
  0
INSERT
  8
SUNPOU
  2
ARROWANG
 10
2427.204402
 20
4312.849844
 30
0.0
 41
45.0
 42
45.0
 50
90.0
 43
45.0
  0
INSERT
  8
SUNPOU
  2
ARROWANG
 10
2427.204402
 20
4012.849844
 30
0.0
 41
45.0
 42
45.0
 50
270.0
 43
45.0
  0
LINE
  8
SUNPOU
 10
2427.204402
 20
4012.849844
 30
0.0
 11
2427.204402
 21
4312.849844
 31
0.0
  0
LINE
  8
SUNPOU
 10
2397.204402
 20
4312.849844
 30
0.0
 11
2397.204402
 21
4312.849844
 31
0.0
  0
LINE
  8
SUNPOU
 10
2302.228878
 20
4012.849844
 30
0.0
 11
2457.204402
 21
4012.849844
 31
0.0
  0
TEXT
  8
SUNPOU
 10
2382.204402
 20
4377.135559
 30
0.0
 40
60.0
  1
300
 50
90.0
  7
K
 72
     1
 11
2382.204402
 21
4462.849844
 31
0.0
  0
INSERT
  8
SUNPOU
  2
ARROWANG
 10
2427.204402
 20
4612.849844
 30
0.0
 41
45.0
 42
45.0
 50
90.0
 43
45.0
  0
INSERT
  8
SUNPOU
  2
ARROWANG
 10
2427.204402
 20
4312.849844
 30
0.0
 41
45.0
 42
45.0
 50
270.0
 43
45.0
  0
LINE
  8
SUNPOU
 10
2427.204402
 20
4312.849844
 30
0.0
 11
2427.204402
 21
4612.849844
 31
0.0
  0
LINE
  8
SUNPOU
 10
2397.204402
 20
4612.849844
 30
0.0
 11
2397.204402
 21
4612.849844
 31
0.0
  0
LINE
  8
SUNPOU
 10
2302.228878
 20
4312.849844
 30
0.0
 11
2457.204402
 21
4312.849844
 31
0.0
  0
LINE
  8
JISSEN
 10
2142.228878
 20
3702.849844
 30
0.0
 11
2262.228878
 21
3702.849844
 31
0.0
  0
LINE
  8
ITTEN
 10
2092.228878
 20
3712.849844
 30
0.0
 11
2322.228878
 21
3712.849844
 31
0.0
  0
LINE
  8
JISSEN
 10
2142.228878
 20
3722.849844
 30
0.0
 11
2262.228878
 21
3722.849844
 31
0.0
  0
ARC
  8
JISSEN
 10
2262.228878
 20
3712.849844
 30
0.0
 40
10.0
 50
270.0
 51
90.0
  0
LINE
  8
JISSEN
 10
2142.228878
 20
4002.849844
 30
0.0
 11
2262.228878
 21
4002.849844
 31
0.0
  0
LINE
  8
ITTEN
 10
2092.228878
 20
4012.849844
 30
0.0
 11
2322.228878
 21
4012.849844
 31
0.0
  0
LINE
  8
JISSEN
 10
2142.228878
 20
4022.849844
 30
0.0
 11
2262.228878
 21
4022.849844
 31
0.0
  0
ARC
  8
JISSEN
 10
2262.228878
 20
4012.849844
 30
0.0
 40
10.0
 50
270.0
 51
90.0
  0
LINE
  8
JISSEN
 10
2142.228878
 20
4302.849844
 30
0.0
 11
2262.228878
 21
4302.849844
 31
0.0
  0
LINE
  8
ITTEN
 10
2092.228878
 20
4312.849844
 30
0.0
 11
2322.228878
 21
4312.849844
 31
0.0
  0
LINE
  8
JISSEN
 10
2142.228878
 20
4322.849844
 30
0.0
 11
2262.228878
 21
4322.849844
 31
0.0
  0
ARC
  8
JISSEN
 10
2262.228878
 20
4312.849844
 30
0.0
 40
10.0
 50
270.0
 51
90.0
  0
TEXT
  8
SUNPOU
 10
6639.529065
 20
2401.268501
 30
0.0
 40
60.0
  1
300
 50
90.0
  7
K
 72
     1
 11
6639.529065
 21
2486.982787
 31
0.0
  0
INSERT
  8
SUNPOU
  2
ARROWANG
 10
6684.529065
 20
2636.982787
 30
0.0
 41
45.0
 42
45.0
 50
90.0
 43
45.0
  0
INSERT
  8
SUNPOU
  2
ARROWANG
 10
6684.529065
 20
2336.982787
 30
0.0
 41
45.0
 42
45.0
 50
270.0
 43
45.0
  0
LINE
  8
SUNPOU
 10
6560.880761
 20
2636.982787
 30
0.0
 11
6714.529065
 21
2636.982787
 31
0.0
  0
LINE
  8
SUNPOU
 10
6684.529065
 20
2336.982787
 30
0.0
 11
6684.529065
 21
2636.982787
 31
0.0
  0
TEXT
  8
SUNPOU
 10
6639.529065
 20
2101.268501
 30
0.0
 40
60.0
  1
300
 50
90.0
  7
K
 72
     1
 11
6639.529065
 21
2186.982787
 31
0.0
  0
INSERT
  8
SUNPOU
  2
ARROWANG
 10
6684.529065
 20
2336.982787
 30
0.0
 41
45.0
 42
45.0
 50
90.0
 43
45.0
  0
INSERT
  8
SUNPOU
  2
ARROWANG
 10
6684.529065
 20
2036.982787
 30
0.0
 41
45.0
 42
45.0
 50
270.0
 43
45.0
  0
LINE
  8
SUNPOU
 10
6560.880761
 20
2336.982787
 30
0.0
 11
6714.529065
 21
2336.982787
 31
0.0
  0
LINE
  8
SUNPOU
 10
6684.529065
 20
2036.982787
 30
0.0
 11
6684.529065
 21
2336.982787
 31
0.0
  0
TEXT
  8
SUNPOU
 10
6639.529065
 20
1871.982787
 30
0.0
 40
60.0
  1
150
 50
90.0
  7
K
 72
     1
 11
6639.529065
 21
1961.982787
 31
0.0
  0
INSERT
  8
SUNPOU
  2
ARROWANG
 10
6684.529065
 20
2036.982787
 30
0.0
 41
45.0
 42
45.0
 50
90.0
 43
45.0
  0
INSERT
  8
SUNPOU
  2
ARROWANG
 10
6684.529065
 20
1886.982787
 30
0.0
 41
45.0
 42
45.0
 50
270.0
 43
45.0
  0
LINE
  8
SUNPOU
 10
6684.529065
 20
1886.982787
 30
0.0
 11
6684.529065
 21
2036.982787
 31
0.0
  0
LINE
  8
SUNPOU
 10
6560.880761
 20
2036.982787
 30
0.0
 11
6714.529065
 21
2036.982787
 31
0.0
  0
LINE
  8
SUNPOU
 10
6430.880761
 20
1886.982787
 30
0.0
 11
6714.529065
 21
1886.982787
 31
0.0
  0
ARC
  8
JISSEN
 10
6520.880761
 20
2036.982787
 30
0.0
 40
10.0
 50
270.0
 51
90.0
  0
LINE
  8
JISSEN
 10
6400.880761
 20
2046.982787
 30
0.0
 11
6520.880761
 21
2046.982787
 31
0.0
  0
LINE
  8
JISSEN
 10
6400.880761
 20
2026.982787
 30
0.0
 11
6520.880761
 21
2026.982787
 31
0.0
  0
LINE
  8
ITTEN
 10
6350.880761
 20
2036.982787
 30
0.0
 11
6580.880761
 21
2036.982787
 31
0.0
  0
ARC
  8
JISSEN
 10
6520.880761
 20
2336.982787
 30
0.0
 40
10.0
 50
270.0
 51
90.0
  0
LINE
  8
JISSEN
 10
6400.880761
 20
2346.982787
 30
0.0
 11
6520.880761
 21
2346.982787
 31
0.0
  0
LINE
  8
JISSEN
 10
6400.880761
 20
2326.982787
 30
0.0
 11
6520.880761
 21
2326.982787
 31
0.0
  0
LINE
  8
ITTEN
 10
6350.880761
 20
2336.982787
 30
0.0
 11
6580.880761
 21
2336.982787
 31
0.0
  0
TEXT
  8
SUNPOU
 10
6882.309347
 20
1636.933712
 30
0.0
 40
60.0
  1
1278
  7
K
 72
     1
 11
7000.880776
 21
1636.933712
 31
0.0
  0
INSERT
  8
SUNPOU
  2
ARROWANG
 10
7639.880761
 20
1591.933712
 30
0.0
 41
45.0
 42
45.0
 43
45.0
  0
INSERT
  8
SUNPOU
  2
ARROWANG
 10
6361.880761
 20
1591.933712
 30
0.0
 41
45.0
 42
45.0
 50
180.0
 43
45.0
  0
LINE
  8
SUNPOU
 10
6361.880761
 20
1591.933712
 30
0.0
 11
7639.880761
 21
1591.933712
 31
0.0
  0
LINE
  8
SUNPOU
 10
7639.880761
 20
1871.982787
 30
0.0
 11
7639.880761
 21
1561.933712
 31
0.0
  0
LINE
  8
SUNPOU
 10
6361.880761
 20
1871.982787
 30
0.0
 11
6361.880761
 21
1561.933712
 31
0.0
  0
TEXT
  8
SUNPOU
 10
7780.306516
 20
2512.982787
 30
0.0
 40
60.0
  1
100
 50
90.0
  7
K
 72
     1
 11
7780.306516
 21
2602.982787
 31
0.0
  0
LINE
  8
SUNPOU
 10
7825.306516
 20
2801.982787
 30
0.0
 11
7825.306516
 21
2891.982787
 31
0.0
  0
LINE
  8
SUNPOU
 10
7825.306516
 20
2701.982787
 30
0.0
 11
7825.306516
 21
2503.982787
 31
0.0
  0
INSERT
  8
SUNPOU
  2
ARROWANG
 10
7825.306516
 20
2801.982787
 30
0.0
 41
45.0
 42
45.0
 50
270.0
 43
45.0
  0
INSERT
  8
SUNPOU
  2
ARROWANG
 10
7825.306516
 20
2701.982787
 30
0.0
 41
45.0
 42
45.0
 50
90.0
 43
45.0
  0
LINE
  8
SUNPOU
 10
7825.306516
 20
2701.982787
 30
0.0
 11
7825.306516
 21
2801.982787
 31
0.0
  0
LINE
  8
SUNPOU
 10
7730.880761
 20
2801.982787
 30
0.0
 11
7855.306516
 21
2801.982787
 31
0.0
  0
LINE
  8
SUNPOU
 10
7525.855508
 20
2701.982787
 30
0.0
 11
7855.306516
 21
2701.982787
 31
0.0
  0
CIRCLE
  8
SAISEN
 10
6505.906014
 20
2701.982787
 30
0.0
 40
12.5
  0
CIRCLE
  8
SAISEN
 10
7495.855508
 20
2701.982787
 30
0.0
 40
12.5
  0
TEXT
  8
SUNPOU
 10
7795.387475
 20
2010.982787
 30
0.0
 40
60.0
  1
100
 50
90.0
  7
K
 72
     1
 11
7795.387475
 21
2100.982787
 31
0.0
  0
LINE
  8
SUNPOU
 10
7840.387475
 20
1901.982787
 30
0.0
 11
7840.387477
 21
1811.982787
 31
0.0
  0
LINE
  8
SUNPOU
 10
7840.387475
 20
2001.982787
 30
0.0
 11
7840.387475
 21
2199.982787
 31
0.0
  0
INSERT
  8
SUNPOU
  2
ARROWANG
 10
7840.387475
 20
2001.982787
 30
0.0
 41
45.0
 42
45.0
 50
270.0
 43
45.0
  0
INSERT
  8
SUNPOU
  2
ARROWANG
 10
7840.387475
 20
1901.982787
 30
0.0
 41
45.0
 42
45.0
 50
90.0
 43
45.0
  0
LINE
  8
SUNPOU
 10
7840.387475
 20
1901.982787
 30
0.0
 11
7840.387475
 21
2001.982787
 31
0.0
  0
LINE
  8
SUNPOU
 10
7525.855508
 20
2001.982787
 30
0.0
 11
7870.387475
 21
2001.982787
 31
0.0
  0
LINE
  8
SUNPOU
 10
7730.880761
 20
1901.982787
 30
0.0
 11
7870.387475
 21
1901.982787
 31
0.0
  0
CIRCLE
  8
SAISEN
 10
7495.855508
 20
2001.982787
 30
0.0
 40
12.5
  0
CIRCLE
  8
SAISEN
 10
6505.906014
 20
2001.982787
 30
0.0
 40
12.5
  0
TEXT
  8
SUNPOU
 10
6882.309333
 20
1772.655741
 30
0.0
 40
60.0
  1
1256
  7
K
 72
     1
 11
7000.880761
 21
1772.655741
 31
0.0
  0
INSERT
  8
SUNPOU
  2
ARROWANG
 10
6372.880761
 20
1727.655741
 30
0.0
 41
45.0
 42
45.0
 50
180.0
 43
45.0
  0
INSERT
  8
SUNPOU
  2
ARROWANG
 10
7628.880761
 20
1727.655741
 30
0.0
 41
45.0
 42
45.0
 43
45.0
  0
LINE
  8
SUNPOU
 10
6372.880761
 20
1727.655741
 30
0.0
 11
7628.880761
 21
1727.655741
 31
0.0
  0
LINE
  8
SUNPOU
 10
7628.880761
 20
1856.982787
 30
0.0
 11
7628.880761
 21
1697.655741
 31
0.0
  0
LINE
  8
SUNPOU
 10
6372.880761
 20
1856.982787
 30
0.0
 11
6372.880761
 21
1697.655741
 31
0.0
  0
LINE
  8
SUNPOU
 10
7700.880761
 20
2831.982787
 30
0.0
 11
7700.880761
 21
3163.790148
 31
0.0
  0
LINE
  8
SUNPOU
 10
7600.880761
 20
2808.982787
 30
0.0
 11
7600.880761
 21
3163.790148
 31
0.0
  0
LINE
  8
SUNPOU
 10
6400.880761
 20
2808.982787
 30
0.0
 11
6400.880761
 21
3163.790148
 31
0.0
  0
LINE
  8
SUNPOU
 10
6300.880761
 20
2831.982787
 30
0.0
 11
6300.880761
 21
3163.790148
 31
0.0
  0
LINE
  8
SUNPOU
 10
7640.880761
 20
2831.982787
 30
0.0
 11
7640.880761
 21
3034.583043
 31
0.0
  0
LINE
  8
SUNPOU
 10
6360.880761
 20
2831.982787
 30
0.0
 11
6360.880761
 21
3034.583043
 31
0.0
  0
TEXT
  8
SUNPOU
 10
6882.309347
 20
2917.299579
 30
0.0
 40
60.0
  1
1266
  7
K
 72
     1
 11
7000.880776
 21
2917.299579
 31
0.0
  0
INSERT
  8
SUNPOU
  2
ARROWANG
 10
7633.880761
 20
2872.299579
 30
0.0
 41
45.0
 42
45.0
 43
45.0
  0
INSERT
  8
SUNPOU
  2
ARROWANG
 10
6367.880761
 20
2872.299579
 30
0.0
 41
45.0
 42
45.0
 50
180.0
 43
45.0
  0
LINE
  8
SUNPOU
 10
6367.880761
 20
2872.299579
 30
0.0
 11
7633.880761
 21
2872.299579
 31
0.0
  0
LINE
  8
SUNPOU
 10
7633.880761
 20
2808.982787
 30
0.0
 11
7633.880761
 21
2902.299579
 31
0.0
  0
LINE
  8
SUNPOU
 10
6367.880761
 20
2808.982787
 30
0.0
 11
6367.880761
 21
2902.299579
 31
0.0
  0
LINE
  8
ITTEN
 10
6350.880761
 20
2636.982787
 30
0.0
 11
6580.880761
 21
2636.982787
 31
0.0
  0
LINE
  8
JISSEN
 10
6400.880761
 20
2626.982787
 30
0.0
 11
6520.880761
 21
2626.982787
 31
0.0
  0
LINE
  8
JISSEN
 10
6400.880761
 20
2646.982787
 30
0.0
 11
6520.880761
 21
2646.982787
 31
0.0
  0
ARC
  8
JISSEN
 10
6520.880761
 20
2636.982787
 30
0.0
 40
10.0
 50
270.0
 51
90.0
  0
LINE
  8
JISSEN
 10
7700.880761
 20
1901.982787
 30
0.0
 11
7700.880761
 21
2801.982787
 31
0.0
  0
LINE
  8
JISSEN
 10
6300.880761
 20
1901.982787
 30
0.0
 11
6300.880761
 21
2801.982787
 31
0.0
  0
LINE
  8
HASEN
 10
7600.880761
 20
2778.982787
 30
0.0
 11
7600.880761
 21
1886.982787
 31
0.0
  0
LINE
  8
JISSEN
 10
6400.880761
 20
2778.982787
 30
0.0
 11
6400.880761
 21
1886.982787
 31
0.0
  0
LINE
  8
JISSEN
 10
7700.880761
 20
2801.982787
 30
0.0
 11
7640.880761
 21
2801.982787
 31
0.0
  0
LINE
  8
HASEN
 10
7640.880761
 20
2801.982787
 30
0.0
 11
7633.880761
 21
2778.982787
 31
0.0
  0
LINE
  8
HASEN
 10
7633.880761
 20
2778.982787
 30
0.0
 11
7000.880761
 21
2778.982787
 31
0.0
  0
LINE
  8
JISSEN
 10
7640.880761
 20
2801.982787
 30
0.0
 11
7000.880761
 21
2801.982787
 31
0.0
  0
LINE
  8
JISSEN
 10
6360.880761
 20
2801.982787
 30
0.0
 11
7000.880761
 21
2801.982787
 31
0.0
  0
LINE
  8
JISSEN
 10
6367.880761
 20
2778.982787
 30
0.0
 11
7000.880761
 21
2778.982787
 31
0.0
  0
LINE
  8
JISSEN
 10
6360.880761
 20
2801.982787
 30
0.0
 11
6367.880761
 21
2778.982787
 31
0.0
  0
LINE
  8
JISSEN
 10
6300.880761
 20
2801.982787
 30
0.0
 11
6360.880761
 21
2801.982787
 31
0.0
  0
LINE
  8
JISSEN
 10
7000.880761
 20
1901.982787
 30
0.0
 11
7639.880761
 21
1901.982787
 31
0.0
  0
LINE
  8
JISSEN
 10
7628.880761
 20
1886.982787
 30
0.0
 11
7000.880761
 21
1886.982787
 31
0.0
  0
LINE
  8
JISSEN
 10
7639.880761
 20
1901.982787
 30
0.0
 11
7628.880761
 21
1886.982787
 31
0.0
  0
LINE
  8
JISSEN
 10
7700.880761
 20
1901.982787
 30
0.0
 11
7639.880761
 21
1901.982787
 31
0.0
  0
LINE
  8
JISSEN
 10
6372.880761
 20
1886.982787
 30
0.0
 11
7000.880761
 21
1886.982787
 31
0.0
  0
LINE
  8
JISSEN
 10
6361.880761
 20
1901.982787
 30
0.0
 11
6372.880761
 21
1886.982787
 31
0.0
  0
LINE
  8
JISSEN
 10
6300.880761
 20
1901.982787
 30
0.0
 11
6361.880761
 21
1901.982787
 31
0.0
  0
LINE
  8
ITTEN
 10
7000.880761
 20
2851.982787
 30
0.0
 11
7000.880761
 21
1836.982787
 31
0.0
  0
LINE
  8
SUNPOU
 10
6337.880761
 20
2778.982787
 30
0.0
 11
6111.12496
 21
2778.982787
 31
0.0
  0
LINE
  8
SUNPOU
 10
6270.880761
 20
2801.982787
 30
0.0
 11
6111.12496
 21
2801.982787
 31
0.0
  0
LINE
  8
SUNPOU
 10
6141.12496
 20
2778.982787
 30
0.0
 11
6141.12496
 21
2801.982787
 31
0.0
  0
INSERT
  8
SUNPOU
  2
ARROWANG
 10
6141.12496
 20
2778.982787
 30
0.0
 41
45.0
 42
45.0
 50
90.0
 43
45.0
  0
INSERT
  8
SUNPOU
  2
ARROWANG
 10
6141.12496
 20
2801.982787
 30
0.0
 41
45.0
 42
45.0
 50
270.0
 43
45.0
  0
LINE
  8
SUNPOU
 10
6141.12496
 20
2801.982787
 30
0.0
 11
6141.12496
 21
2933.982787
 31
0.0
  0
LINE
  8
SUNPOU
 10
6141.12496
 20
2778.982787
 30
0.0
 11
6141.124962
 21
2688.982787
 31
0.0
  0
TEXT
  8
SUNPOU
 10
6096.12496
 20
2810.83993
 30
0.0
 40
60.0
  1
23
 50
90.0
  7
K
 72
     1
 11
6096.12496
 21
2867.982787
 31
0.0
  0
LINE
  8
SUNPOU
 10
6270.880761
 20
1901.982787
 30
0.0
 11
5979.320981
 21
1901.982787
 31
0.0
  0
LINE
  8
SUNPOU
 10
6111.12496
 20
2801.982787
 30
0.0
 11
5979.320981
 21
2801.982787
 31
0.0
  0
LINE
  8
SUNPOU
 10
6009.320981
 20
1901.982787
 30
0.0
 11
6009.320981
 21
2801.982787
 31
0.0
  0
INSERT
  8
SUNPOU
  2
ARROWANG
 10
6009.320981
 20
1901.982787
 30
0.0
 41
45.0
 42
45.0
 50
270.0
 43
45.0
  0
INSERT
  8
SUNPOU
  2
ARROWANG
 10
6009.320981
 20
2801.982787
 30
0.0
 41
45.0
 42
45.0
 50
90.0
 43
45.0
  0
TEXT
  8
SUNPOU
 10
5964.320981
 20
2266.268501
 30
0.0
 40
60.0
  1
900
 50
90.0
  7
K
 72
     1
 11
5964.320981
 21
2351.982787
 31
0.0
  0
LINE
  8
SUNPOU
 10
6009.320981
 20
1901.982787
 30
0.0
 11
6009.320981
 21
1886.982787
 31
0.0
  0
LINE
  8
SUNPOU
 10
6342.880761
 20
1886.982787
 30
0.0
 11
5979.320981
 21
1886.982787
 31
0.0
  0
INSERT
  8
SUNPOU
  2
ARROWANG
 10
6009.320981
 20
1886.982787
 30
0.0
 41
45.0
 42
45.0
 50
90.0
 43
45.0
  0
INSERT
  8
SUNPOU
  2
ARROWANG
 10
6009.320981
 20
1901.982787
 30
0.0
 41
45.0
 42
45.0
 50
270.0
 43
45.0
  0
LINE
  8
SUNPOU
 10
6009.320981
 20
1886.982787
 30
0.0
 11
6009.320981
 21
1754.982787
 31
0.0
  0
TEXT
  8
SUNPOU
 10
5964.320981
 20
1721.268501
 30
0.0
 40
60.0
  1
15
 50
90.0
  7
K
 72
     2
 11
5964.320981
 21
1826.982787
 31
0.0
  0
LINE
  8
SUNPOU
 10
6009.320981
 20
1886.982787
 30
0.0
 11
6009.320981
 21
1796.982787
 31
0.0
  0
LINE
  8
SUNPOU
 10
6009.320981
 20
1901.982787
 30
0.0
 11
6009.320981
 21
1991.982787
 31
0.0
  0
TEXT
  8
SUNPOU
 10
6096.12496
 20
5986.706987
 30
0.0
 40
60.0
  1
23
 50
90.0
  7
K
 72
     1
 11
6096.12496
 21
6043.849844
 31
0.0
  0
LINE
  8
SUNPOU
 10
6141.12496
 20
5954.849844
 30
0.0
 11
6141.124962
 21
5864.849844
 31
0.0
  0
LINE
  8
SUNPOU
 10
6141.12496
 20
5977.849844
 30
0.0
 11
6141.12496
 21
6109.849844
 31
0.0
  0
INSERT
  8
SUNPOU
  2
ARROWANG
 10
6141.12496
 20
5977.849844
 30
0.0
 41
45.0
 42
45.0
 50
270.0
 43
45.0
  0
INSERT
  8
SUNPOU
  2
ARROWANG
 10
6141.12496
 20
5954.849844
 30
0.0
 41
45.0
 42
45.0
 50
90.0
 43
45.0
  0
LINE
  8
SUNPOU
 10
6141.12496
 20
5954.849844
 30
0.0
 11
6141.12496
 21
5977.849844
 31
0.0
  0
LINE
  8
SUNPOU
 10
6270.880761
 20
5977.849844
 30
0.0
 11
6111.12496
 21
5977.849844
 31
0.0
  0
LINE
  8
SUNPOU
 10
6337.880761
 20
5954.849844
 30
0.0
 11
6111.12496
 21
5954.849844
 31
0.0
  0
LINE
  8
ITTEN
 10
7000.880761
 20
6027.849844
 30
0.0
 11
7000.880761
 21
4112.849844
 31
0.0
  0
LINE
  8
JISSEN
 10
6300.880761
 20
4177.849844
 30
0.0
 11
6361.880761
 21
4177.849844
 31
0.0
  0
LINE
  8
JISSEN
 10
6361.880761
 20
4177.849844
 30
0.0
 11
6372.880761
 21
4162.849844
 31
0.0
  0
LINE
  8
JISSEN
 10
6372.880761
 20
4162.849844
 30
0.0
 11
7000.880761
 21
4162.849844
 31
0.0
  0
LINE
  8
JISSEN
 10
7700.880761
 20
4177.849844
 30
0.0
 11
7639.880761
 21
4177.849844
 31
0.0
  0
LINE
  8
JISSEN
 10
7639.880761
 20
4177.849844
 30
0.0
 11
7628.880761
 21
4162.849844
 31
0.0
  0
LINE
  8
JISSEN
 10
7628.880761
 20
4162.849844
 30
0.0
 11
7000.880761
 21
4162.849844
 31
0.0
  0
LINE
  8
JISSEN
 10
7000.880761
 20
4177.849844
 30
0.0
 11
7639.880761
 21
4177.849844
 31
0.0
  0
LINE
  8
JISSEN
 10
6300.880761
 20
5977.849844
 30
0.0
 11
6360.880761
 21
5977.849844
 31
0.0
  0
LINE
  8
JISSEN
 10
6360.880761
 20
5977.849844
 30
0.0
 11
6367.880761
 21
5954.849844
 31
0.0
  0
LINE
  8
JISSEN
 10
6367.880761
 20
5954.849844
 30
0.0
 11
7000.880761
 21
5954.849844
 31
0.0
  0
LINE
  8
JISSEN
 10
6360.880761
 20
5977.849844
 30
0.0
 11
7000.880761
 21
5977.849844
 31
0.0
  0
LINE
  8
JISSEN
 10
7640.880761
 20
5977.849844
 30
0.0
 11
7000.880761
 21
5977.849844
 31
0.0
  0
LINE
  8
HASEN
 10
7633.880761
 20
5954.849844
 30
0.0
 11
7000.880761
 21
5954.849844
 31
0.0
  0
LINE
  8
HASEN
 10
7640.880761
 20
5977.849844
 30
0.0
 11
7633.880761
 21
5954.849844
 31
0.0
  0
LINE
  8
JISSEN
 10
7700.880761
 20
5977.849844
 30
0.0
 11
7640.880761
 21
5977.849844
 31
0.0
  0
LINE
  8
JISSEN
 10
6400.880761
 20
5954.849844
 30
0.0
 11
6400.880761
 21
4162.849844
 31
0.0
  0
LINE
  8
HASEN
 10
7600.880761
 20
5954.849844
 30
0.0
 11
7600.880761
 21
4162.849844
 31
0.0
  0
LINE
  8
JISSEN
 10
6300.880761
 20
4177.849844
 30
0.0
 11
6300.880761
 21
5977.849844
 31
0.0
  0
LINE
  8
JISSEN
 10
7700.880761
 20
4177.849844
 30
0.0
 11
7700.880761
 21
5977.849844
 31
0.0
  0
ARC
  8
JISSEN
 10
6520.880761
 20
5812.849844
 30
0.0
 40
10.0
 50
270.0
 51
90.0
  0
LINE
  8
JISSEN
 10
6400.880761
 20
5822.849844
 30
0.0
 11
6520.880761
 21
5822.849844
 31
0.0
  0
LINE
  8
JISSEN
 10
6400.880761
 20
5802.849844
 30
0.0
 11
6520.880761
 21
5802.849844
 31
0.0
  0
LINE
  8
ITTEN
 10
6350.880761
 20
5812.849844
 30
0.0
 11
6580.880761
 21
5812.849844
 31
0.0
  0
ARC
  8
JISSEN
 10
6520.880761
 20
5512.849844
 30
0.0
 40
10.0
 50
270.0
 51
90.0
  0
LINE
  8
JISSEN
 10
6400.880761
 20
5522.849844
 30
0.0
 11
6520.880761
 21
5522.849844
 31
0.0
  0
LINE
  8
ITTEN
 10
6350.880761
 20
5512.849844
 30
0.0
 11
6580.880761
 21
5512.849844
 31
0.0
  0
LINE
  8
JISSEN
 10
6400.880761
 20
5502.849844
 30
0.0
 11
6520.880761
 21
5502.849844
 31
0.0
  0
ARC
  8
JISSEN
 10
6520.880761
 20
5212.849844
 30
0.0
 40
10.0
 50
270.0
 51
90.0
  0
LINE
  8
JISSEN
 10
6400.880761
 20
5222.849844
 30
0.0
 11
6520.880761
 21
5222.849844
 31
0.0
  0
LINE
  8
ITTEN
 10
6350.880761
 20
5212.849844
 30
0.0
 11
6580.880761
 21
5212.849844
 31
0.0
  0
LINE
  8
JISSEN
 10
6400.880761
 20
5202.849844
 30
0.0
 11
6520.880761
 21
5202.849844
 31
0.0
  0
LINE
  8
SUNPOU
 10
6367.880761
 20
5984.849844
 30
0.0
 11
6367.880761
 21
6078.166636
 31
0.0
  0
LINE
  8
SUNPOU
 10
7633.880761
 20
5984.849844
 30
0.0
 11
7633.880761
 21
6078.166636
 31
0.0
  0
LINE
  8
SUNPOU
 10
6367.880761
 20
6048.166636
 30
0.0
 11
7633.880761
 21
6048.166636
 31
0.0
  0
INSERT
  8
SUNPOU
  2
ARROWANG
 10
6367.880761
 20
6048.166636
 30
0.0
 41
45.0
 42
45.0
 50
180.0
 43
45.0
  0
INSERT
  8
SUNPOU
  2
ARROWANG
 10
7633.880761
 20
6048.166636
 30
0.0
 41
45.0
 42
45.0
 43
45.0
  0
TEXT
  8
SUNPOU
 10
6882.309347
 20
6093.166636
 30
0.0
 40
60.0
  1
1266
  7
K
 72
     1
 11
7000.880776
 21
6093.166636
 31
0.0
  0
LINE
  8
SUNPOU
 10
6360.880761
 20
6007.849844
 30
0.0
 11
6360.880761
 21
6210.450101
 31
0.0
  0
LINE
  8
SUNPOU
 10
7640.880761
 20
6007.849844
 30
0.0
 11
7640.880761
 21
6210.450101
 31
0.0
  0
LINE
  8
SUNPOU
 10
6360.880761
 20
6180.450101
 30
0.0
 11
7640.880761
 21
6180.450101
 31
0.0
  0
INSERT
  8
SUNPOU
  2
ARROWANG
 10
6360.880761
 20
6180.450101
 30
0.0
 41
45.0
 42
45.0
 50
180.0
 43
45.0
  0
INSERT
  8
SUNPOU
  2
ARROWANG
 10
7640.880761
 20
6180.450101
 30
0.0
 41
45.0
 42
45.0
 43
45.0
  0
TEXT
  8
SUNPOU
 10
6882.309347
 20
6225.450101
 30
0.0
 40
60.0
  1
1280
  7
K
 72
     1
 11
7000.880776
 21
6225.450101
 31
0.0
  0
LINE
  8
SUNPOU
 10
6300.880761
 20
6007.849844
 30
0.0
 11
6300.880761
 21
6339.657206
 31
0.0
  0
LINE
  8
SUNPOU
 10
6400.880761
 20
5984.849844
 30
0.0
 11
6400.880761
 21
6339.657206
 31
0.0
  0
LINE
  8
SUNPOU
 10
6300.880761
 20
6309.657206
 30
0.0
 11
6400.880761
 21
6309.657206
 31
0.0
  0
INSERT
  8
SUNPOU
  2
ARROWANG
 10
6400.880761
 20
6309.657206
 30
0.0
 41
45.0
 42
45.0
 50
180.0
 43
45.0
  0
INSERT
  8
SUNPOU
  2
ARROWANG
 10
6300.880761
 20
6309.657206
 30
0.0
 41
45.0
 42
45.0
 43
45.0
  0
TEXT
  8
SUNPOU
 10
6260.880776
 20
6354.657206
 30
0.0
 40
60.0
  1
100
  7
K
 72
     1
 11
6350.880776
 21
6354.657206
 31
0.0
  0
LINE
  8
SUNPOU
 10
6400.880761
 20
6309.657206
 30
0.0
 11
6490.880761
 21
6309.657206
 31
0.0
  0
LINE
  8
SUNPOU
 10
6300.880761
 20
6309.657206
 30
0.0
 11
6210.880761
 21
6309.657206
 31
0.0
  0
LINE
  8
SUNPOU
 10
6400.880761
 20
6309.657206
 30
0.0
 11
7600.880761
 21
6309.657206
 31
0.0
  0
LINE
  8
SUNPOU
 10
7600.880761
 20
5984.849844
 30
0.0
 11
7600.880761
 21
6339.657206
 31
0.0
  0
INSERT
  8
SUNPOU
  2
ARROWANG
 10
6400.880761
 20
6309.657206
 30
0.0
 41
45.0
 42
45.0
 50
180.0
 43
45.0
  0
INSERT
  8
SUNPOU
  2
ARROWANG
 10
7600.880761
 20
6309.657206
 30
0.0
 41
45.0
 42
45.0
 43
45.0
  0
TEXT
  8
SUNPOU
 10
6882.309333
 20
6354.657206
 30
0.0
 40
60.0
  1
1200
  7
K
 72
     1
 11
7000.880761
 21
6354.657206
 31
0.0
  0
LINE
  8
SUNPOU
 10
7600.880761
 20
6309.657206
 30
0.0
 11
7700.880761
 21
6309.657206
 31
0.0
  0
LINE
  8
SUNPOU
 10
7700.880761
 20
6007.849844
 30
0.0
 11
7700.880761
 21
6339.657206
 31
0.0
  0
INSERT
  8
SUNPOU
  2
ARROWANG
 10
7700.880761
 20
6309.657206
 30
0.0
 41
45.0
 42
45.0
 50
180.0
 43
45.0
  0
INSERT
  8
SUNPOU
  2
ARROWANG
 10
7600.880761
 20
6309.657206
 30
0.0
 41
45.0
 42
45.0
 43
45.0
  0
TEXT
  8
SUNPOU
 10
7560.880761
 20
6369.657206
 30
0.0
 40
60.0
  1
100
  7
K
 72
     4
 11
7650.880761
 21
6399.657206
 31
0.0
  0
LINE
  8
SUNPOU
 10
7700.880761
 20
6309.657206
 30
0.0
 11
7790.880761
 21
6309.657206
 31
0.0
  0
LINE
  8
SUNPOU
 10
7600.880761
 20
6309.657206
 30
0.0
 11
7510.880761
 21
6309.657206
 31
0.0
  0
LINE
  8
SUNPOU
 10
6372.880761
 20
4132.849844
 30
0.0
 11
6372.880761
 21
3973.522798
 31
0.0
  0
LINE
  8
SUNPOU
 10
7628.880761
 20
4132.849844
 30
0.0
 11
7628.880761
 21
3973.522798
 31
0.0
  0
LINE
  8
SUNPOU
 10
6372.880761
 20
4003.522798
 30
0.0
 11
7628.880761
 21
4003.522798
 31
0.0
  0
INSERT
  8
SUNPOU
  2
ARROWANG
 10
7628.880761
 20
4003.522798
 30
0.0
 41
45.0
 42
45.0
 43
45.0
  0
INSERT
  8
SUNPOU
  2
ARROWANG
 10
6372.880761
 20
4003.522798
 30
0.0
 41
45.0
 42
45.0
 50
180.0
 43
45.0
  0
TEXT
  8
SUNPOU
 10
6882.309333
 20
4048.522798
 30
0.0
 40
60.0
  1
1256
  7
K
 72
     1
 11
7000.880761
 21
4048.522798
 31
0.0
  0
LINE
  8
SUNPOU
 10
6361.880761
 20
4147.849844
 30
0.0
 11
6361.880761
 21
3851.493866
 31
0.0
  0
LINE
  8
SUNPOU
 10
7639.880761
 20
4147.849844
 30
0.0
 11
7639.880761
 21
3851.493866
 31
0.0
  0
LINE
  8
SUNPOU
 10
6361.880761
 20
3881.493866
 30
0.0
 11
7639.880761
 21
3881.493866
 31
0.0
  0
INSERT
  8
SUNPOU
  2
ARROWANG
 10
6361.880761
 20
3881.493866
 30
0.0
 41
45.0
 42
45.0
 50
180.0
 43
45.0
  0
INSERT
  8
SUNPOU
  2
ARROWANG
 10
7639.880761
 20
3881.493866
 30
0.0
 41
45.0
 42
45.0
 43
45.0
  0
TEXT
  8
SUNPOU
 10
6882.309347
 20
3926.493866
 30
0.0
 40
60.0
  1
1278
  7
K
 72
     1
 11
7000.880776
 21
3926.493866
 31
0.0
  0
LINE
  8
SUNPOU
 10
6610.880761
 20
5212.849844
 30
0.0
 11
6715.856286
 21
5212.849844
 31
0.0
  0
LINE
  8
SUNPOU
 10
6685.856286
 20
5212.849844
 30
0.0
 11
6685.856286
 21
5512.849844
 31
0.0
  0
LINE
  8
SUNPOU
 10
6610.880761
 20
5512.849844
 30
0.0
 11
6715.856286
 21
5512.849844
 31
0.0
  0
INSERT
  8
SUNPOU
  2
ARROWANG
 10
6685.856286
 20
5212.849844
 30
0.0
 41
45.0
 42
45.0
 50
270.0
 43
45.0
  0
INSERT
  8
SUNPOU
  2
ARROWANG
 10
6685.856286
 20
5512.849844
 30
0.0
 41
45.0
 42
45.0
 50
90.0
 43
45.0
  0
TEXT
  8
SUNPOU
 10
6640.856286
 20
5277.135559
 30
0.0
 40
60.0
  1
300
 50
90.0
  7
K
 72
     1
 11
6640.856286
 21
5362.849844
 31
0.0
  0
LINE
  8
SUNPOU
 10
6685.856286
 20
5512.849844
 30
0.0
 11
6685.856286
 21
5812.849844
 31
0.0
  0
LINE
  8
SUNPOU
 10
6610.880761
 20
5812.849844
 30
0.0
 11
6715.856286
 21
5812.849844
 31
0.0
  0
INSERT
  8
SUNPOU
  2
ARROWANG
 10
6685.856286
 20
5512.849844
 30
0.0
 41
45.0
 42
45.0
 50
270.0
 43
45.0
  0
INSERT
  8
SUNPOU
  2
ARROWANG
 10
6685.856286
 20
5812.849844
 30
0.0
 41
45.0
 42
45.0
 50
90.0
 43
45.0
  0
TEXT
  8
SUNPOU
 10
6640.856286
 20
5577.135559
 30
0.0
 40
60.0
  1
300
 50
90.0
  7
K
 72
     1
 11
6640.856286
 21
5662.849844
 31
0.0
  0
CIRCLE
  8
SAISEN
 10
6505.906014
 20
4277.849844
 30
0.0
 40
12.5
  0
CIRCLE
  8
JISSEN
 10
7495.855508
 20
4277.849844
 30
0.0
 40
12.5
  0
LINE
  8
SUNPOU
 10
7730.880761
 20
4177.849844
 30
0.0
 11
7870.387475
 21
4177.849844
 31
0.0
  0
LINE
  8
SUNPOU
 10
7525.855508
 20
4277.849844
 30
0.0
 11
7870.387475
 21
4277.849844
 31
0.0
  0
LINE
  8
SUNPOU
 10
7840.387475
 20
4177.849844
 30
0.0
 11
7840.387475
 21
4277.849844
 31
0.0
  0
INSERT
  8
SUNPOU
  2
ARROWANG
 10
7840.387475
 20
4177.849844
 30
0.0
 41
45.0
 42
45.0
 50
90.0
 43
45.0
  0
INSERT
  8
SUNPOU
  2
ARROWANG
 10
7840.387475
 20
4277.849844
 30
0.0
 41
45.0
 42
45.0
 50
270.0
 43
45.0
  0
LINE
  8
SUNPOU
 10
7840.387475
 20
4277.849844
 30
0.0
 11
7840.387475
 21
4475.849844
 31
0.0
  0
LINE
  8
SUNPOU
 10
7840.387475
 20
4177.849844
 30
0.0
 11
7840.387477
 21
4087.849844
 31
0.0
  0
TEXT
  8
SUNPOU
 10
7795.387475
 20
4286.849844
 30
0.0
 40
60.0
  1
100
 50
90.0
  7
K
 72
     1
 11
7795.387475
 21
4376.849844
 31
0.0
  0
CIRCLE
  8
JISSEN
 10
7495.855508
 20
5877.849844
 30
0.0
 40
12.5
  0
CIRCLE
  8
SAISEN
 10
6505.906014
 20
5877.849844
 30
0.0
 40
12.5
  0
LINE
  8
SUNPOU
 10
7525.855508
 20
5877.849844
 30
0.0
 11
7855.306516
 21
5877.849844
 31
0.0
  0
LINE
  8
SUNPOU
 10
7730.880761
 20
5977.849844
 30
0.0
 11
7855.306516
 21
5977.849844
 31
0.0
  0
LINE
  8
SUNPOU
 10
7825.306516
 20
5877.849844
 30
0.0
 11
7825.306516
 21
5977.849844
 31
0.0
  0
INSERT
  8
SUNPOU
  2
ARROWANG
 10
7825.306516
 20
5877.849844
 30
0.0
 41
45.0
 42
45.0
 50
90.0
 43
45.0
  0
INSERT
  8
SUNPOU
  2
ARROWANG
 10
7825.306516
 20
5977.849844
 30
0.0
 41
45.0
 42
45.0
 50
270.0
 43
45.0
  0
LINE
  8
SUNPOU
 10
7825.306516
 20
5877.849844
 30
0.0
 11
7825.306516
 21
5679.849844
 31
0.0
  0
LINE
  8
SUNPOU
 10
7825.306516
 20
5977.849844
 30
0.0
 11
7825.306516
 21
6067.849844
 31
0.0
  0
TEXT
  8
SUNPOU
 10
7780.306516
 20
5688.849844
 30
0.0
 40
60.0
  1
100
 50
90.0
  7
K
 72
     1
 11
7780.306516
 21
5778.849844
 31
0.0
  0
LINE
  8
SUNPOU
 10
6270.880761
 20
4177.849844
 30
0.0
 11
5963.989038
 21
4177.849844
 31
0.0
  0
LINE
  8
SUNPOU
 10
6111.12496
 20
5977.849844
 30
0.0
 11
5963.989038
 21
5977.849844
 31
0.0
  0
LINE
  8
SUNPOU
 10
5993.989038
 20
4177.849844
 30
0.0
 11
5993.989038
 21
5977.849844
 31
0.0
  0
INSERT
  8
SUNPOU
  2
ARROWANG
 10
5993.989038
 20
4177.849844
 30
0.0
 41
45.0
 42
45.0
 50
270.0
 43
45.0
  0
INSERT
  8
SUNPOU
  2
ARROWANG
 10
5993.989038
 20
5977.849844
 30
0.0
 41
45.0
 42
45.0
 50
90.0
 43
45.0
  0
TEXT
  8
SUNPOU
 10
5948.989038
 20
4959.278416
 30
0.0
 40
60.0
  1
1800
 50
90.0
  7
K
 72
     1
 11
5948.989038
 21
5077.849844
 31
0.0
  0
LINE
  8
SUNPOU
 10
5993.989038
 20
4177.849844
 30
0.0
 11
5993.989038
 21
4162.849844
 31
0.0
  0
LINE
  8
SUNPOU
 10
6342.880761
 20
4162.849844
 30
0.0
 11
5963.989038
 21
4162.849844
 31
0.0
  0
INSERT
  8
SUNPOU
  2
ARROWANG
 10
5993.989038
 20
4162.849844
 30
0.0
 41
45.0
 42
45.0
 50
90.0
 43
45.0
  0
INSERT
  8
SUNPOU
  2
ARROWANG
 10
5993.989038
 20
4177.849844
 30
0.0
 41
45.0
 42
45.0
 50
270.0
 43
45.0
  0
TEXT
  8
SUNPOU
 10
5933.989038
 20
4108.921273
 30
0.0
 40
60.0
  1
15
 50
90.0
  7
K
 72
     4
 11
5903.989038
 21
4170.349844
 31
0.0
  0
LINE
  8
SUNPOU
 10
5993.989038
 20
4162.849844
 30
0.0
 11
5993.989038
 21
4072.849844
 31
0.0
  0
LINE
  8
SUNPOU
 10
5993.989038
 20
4177.849844
 30
0.0
 11
5993.989038
 21
4267.849844
 31
0.0
  0
TEXT
  8
SUNPOU
 10
9900.156925
 20
5688.849844
 30
0.0
 40
60.0
  1
100
 50
90.0
  7
K
 72
     1
 11
9900.156925
 21
5778.849844
 31
0.0
  0
LINE
  8
SUNPOU
 10
9945.156925
 20
5977.849844
 30
0.0
 11
9945.156925
 21
6067.849844
 31
0.0
  0
LINE
  8
SUNPOU
 10
9945.156925
 20
5877.849844
 30
0.0
 11
9945.156925
 21
5679.849844
 31
0.0
  0
INSERT
  8
SUNPOU
  2
ARROWANG
 10
9945.156925
 20
5977.849844
 30
0.0
 41
45.0
 42
45.0
 50
270.0
 43
45.0
  0
INSERT
  8
SUNPOU
  2
ARROWANG
 10
9945.156925
 20
5877.849844
 30
0.0
 41
45.0
 42
45.0
 50
90.0
 43
45.0
  0
LINE
  8
SUNPOU
 10
9945.156925
 20
5877.849844
 30
0.0
 11
9945.156925
 21
5977.849844
 31
0.0
  0
LINE
  8
SUNPOU
 10
9850.73117
 20
5977.849844
 30
0.0
 11
9975.156925
 21
5977.849844
 31
0.0
  0
LINE
  8
SUNPOU
 10
9645.705917
 20
5877.849844
 30
0.0
 11
9975.156925
 21
5877.849844
 31
0.0
  0
CIRCLE
  8
JISSEN
 10
8625.756423
 20
5877.849844
 30
0.0
 40
12.5
  0
CIRCLE
  8
JISSEN
 10
9615.705917
 20
5877.849844
 30
0.0
 40
12.5
  0
TEXT
  8
SUNPOU
 10
9915.237884
 20
4586.849844
 30
0.0
 40
60.0
  1
100
 50
90.0
  7
K
 72
     1
 11
9915.237884
 21
4676.849844
 31
0.0
  0
LINE
  8
SUNPOU
 10
9960.237884
 20
4477.849844
 30
0.0
 11
9960.237886
 21
4387.849844
 31
0.0
  0
LINE
  8
SUNPOU
 10
9960.237884
 20
4577.849844
 30
0.0
 11
9960.237884
 21
4775.849844
 31
0.0
  0
INSERT
  8
SUNPOU
  2
ARROWANG
 10
9960.237884
 20
4577.849844
 30
0.0
 41
45.0
 42
45.0
 50
270.0
 43
45.0
  0
INSERT
  8
SUNPOU
  2
ARROWANG
 10
9960.237884
 20
4477.849844
 30
0.0
 41
45.0
 42
45.0
 50
90.0
 43
45.0
  0
LINE
  8
SUNPOU
 10
9960.237884
 20
4477.849844
 30
0.0
 11
9960.237884
 21
4577.849844
 31
0.0
  0
LINE
  8
SUNPOU
 10
9645.705917
 20
4577.849844
 30
0.0
 11
9990.237884
 21
4577.849844
 31
0.0
  0
LINE
  8
SUNPOU
 10
9850.73117
 20
4477.849844
 30
0.0
 11
9990.237884
 21
4477.849844
 31
0.0
  0
CIRCLE
  8
JISSEN
 10
9615.705917
 20
4577.849844
 30
0.0
 40
12.5
  0
CIRCLE
  8
JISSEN
 10
8625.756423
 20
4577.849844
 30
0.0
 40
12.5
  0
TEXT
  8
SUNPOU
 10
8760.706694
 20
5577.135559
 30
0.0
 40
60.0
  1
300
 50
90.0
  7
K
 72
     1
 11
8760.706694
 21
5662.849844
 31
0.0
  0
INSERT
  8
SUNPOU
  2
ARROWANG
 10
8805.706694
 20
5812.849844
 30
0.0
 41
45.0
 42
45.0
 50
90.0
 43
45.0
  0
INSERT
  8
SUNPOU
  2
ARROWANG
 10
8805.706694
 20
5512.849844
 30
0.0
 41
45.0
 42
45.0
 50
270.0
 43
45.0
  0
LINE
  8
SUNPOU
 10
8730.73117
 20
5812.849844
 30
0.0
 11
8835.706694
 21
5812.849844
 31
0.0
  0
LINE
  8
SUNPOU
 10
8805.706694
 20
5512.849844
 30
0.0
 11
8805.706694
 21
5812.849844
 31
0.0
  0
LINE
  8
SUNPOU
 10
8730.73117
 20
5512.849844
 30
0.0
 11
8835.706694
 21
5512.849844
 31
0.0
  0
TEXT
  8
SUNPOU
 10
9002.159756
 20
4226.493866
 30
0.0
 40
60.0
  1
1278
  7
K
 72
     1
 11
9120.731184
 21
4226.493866
 31
0.0
  0
INSERT
  8
SUNPOU
  2
ARROWANG
 10
9759.73117
 20
4181.493866
 30
0.0
 41
45.0
 42
45.0
 43
45.0
  0
INSERT
  8
SUNPOU
  2
ARROWANG
 10
8481.73117
 20
4181.493866
 30
0.0
 41
45.0
 42
45.0
 50
180.0
 43
45.0
  0
LINE
  8
SUNPOU
 10
8481.73117
 20
4181.493866
 30
0.0
 11
9759.73117
 21
4181.493866
 31
0.0
  0
LINE
  8
SUNPOU
 10
9759.73117
 20
4447.849844
 30
0.0
 11
9759.73117
 21
4151.493866
 31
0.0
  0
LINE
  8
SUNPOU
 10
8481.73117
 20
4447.849844
 30
0.0
 11
8481.73117
 21
4151.493866
 31
0.0
  0
TEXT
  8
SUNPOU
 10
9002.159741
 20
4348.522798
 30
0.0
 40
60.0
  1
1256
  7
K
 72
     1
 11
9120.73117
 21
4348.522798
 31
0.0
  0
INSERT
  8
SUNPOU
  2
ARROWANG
 10
8492.73117
 20
4303.522798
 30
0.0
 41
45.0
 42
45.0
 50
180.0
 43
45.0
  0
INSERT
  8
SUNPOU
  2
ARROWANG
 10
9748.73117
 20
4303.522798
 30
0.0
 41
45.0
 42
45.0
 43
45.0
  0
LINE
  8
SUNPOU
 10
8492.73117
 20
4303.522798
 30
0.0
 11
9748.73117
 21
4303.522798
 31
0.0
  0
LINE
  8
SUNPOU
 10
9748.73117
 20
4432.849844
 30
0.0
 11
9748.73117
 21
4273.522798
 31
0.0
  0
LINE
  8
SUNPOU
 10
8492.73117
 20
4432.849844
 30
0.0
 11
8492.73117
 21
4273.522798
 31
0.0
  0
LINE
  8
SUNPOU
 10
9720.73117
 20
6309.657206
 30
0.0
 11
9630.73117
 21
6309.657206
 31
0.0
  0
LINE
  8
SUNPOU
 10
9820.73117
 20
6309.657206
 30
0.0
 11
9910.73117
 21
6309.657206
 31
0.0
  0
TEXT
  8
SUNPOU
 10
9680.73117
 20
6369.657206
 30
0.0
 40
60.0
  1
100
  7
K
 72
     4
 11
9770.73117
 21
6399.657206
 31
0.0
  0
INSERT
  8
SUNPOU
  2
ARROWANG
 10
9720.73117
 20
6309.657206
 30
0.0
 41
45.0
 42
45.0
 43
45.0
  0
INSERT
  8
SUNPOU
  2
ARROWANG
 10
9820.73117
 20
6309.657206
 30
0.0
 41
45.0
 42
45.0
 50
180.0
 43
45.0
  0
LINE
  8
SUNPOU
 10
9820.73117
 20
6007.849844
 30
0.0
 11
9820.73117
 21
6339.657206
 31
0.0
  0
LINE
  8
SUNPOU
 10
9720.73117
 20
6309.657206
 30
0.0
 11
9820.73117
 21
6309.657206
 31
0.0
  0
TEXT
  8
SUNPOU
 10
9002.159741
 20
6354.657206
 30
0.0
 40
60.0
  1
1200
  7
K
 72
     1
 11
9120.73117
 21
6354.657206
 31
0.0
  0
INSERT
  8
SUNPOU
  2
ARROWANG
 10
9720.73117
 20
6309.657206
 30
0.0
 41
45.0
 42
45.0
 43
45.0
  0
INSERT
  8
SUNPOU
  2
ARROWANG
 10
8520.73117
 20
6309.657206
 30
0.0
 41
45.0
 42
45.0
 50
180.0
 43
45.0
  0
LINE
  8
SUNPOU
 10
9720.73117
 20
5984.849844
 30
0.0
 11
9720.73117
 21
6339.657206
 31
0.0
  0
LINE
  8
SUNPOU
 10
8520.73117
 20
6309.657206
 30
0.0
 11
9720.73117
 21
6309.657206
 31
0.0
  0
LINE
  8
SUNPOU
 10
8420.73117
 20
6309.657206
 30
0.0
 11
8330.73117
 21
6309.657206
 31
0.0
  0
LINE
  8
SUNPOU
 10
8520.73117
 20
6309.657206
 30
0.0
 11
8610.73117
 21
6309.657206
 31
0.0
  0
TEXT
  8
SUNPOU
 10
8380.731184
 20
6354.657206
 30
0.0
 40
60.0
  1
100
  7
K
 72
     1
 11
8470.731184
 21
6354.657206
 31
0.0
  0
INSERT
  8
SUNPOU
  2
ARROWANG
 10
8420.73117
 20
6309.657206
 30
0.0
 41
45.0
 42
45.0
 43
45.0
  0
INSERT
  8
SUNPOU
  2
ARROWANG
 10
8520.73117
 20
6309.657206
 30
0.0
 41
45.0
 42
45.0
 50
180.0
 43
45.0
  0
LINE
  8
SUNPOU
 10
8420.73117
 20
6309.657206
 30
0.0
 11
8520.73117
 21
6309.657206
 31
0.0
  0
LINE
  8
SUNPOU
 10
8520.73117
 20
5984.849844
 30
0.0
 11
8520.73117
 21
6339.657206
 31
0.0
  0
LINE
  8
SUNPOU
 10
8420.73117
 20
6007.849844
 30
0.0
 11
8420.73117
 21
6339.657206
 31
0.0
  0
TEXT
  8
SUNPOU
 10
9002.159756
 20
6225.450101
 30
0.0
 40
60.0
  1
1280
  7
K
 72
     1
 11
9120.731184
 21
6225.450101
 31
0.0
  0
INSERT
  8
SUNPOU
  2
ARROWANG
 10
9760.73117
 20
6180.450101
 30
0.0
 41
45.0
 42
45.0
 43
45.0
  0
INSERT
  8
SUNPOU
  2
ARROWANG
 10
8480.73117
 20
6180.450101
 30
0.0
 41
45.0
 42
45.0
 50
180.0
 43
45.0
  0
LINE
  8
SUNPOU
 10
8480.73117
 20
6180.450101
 30
0.0
 11
9760.73117
 21
6180.450101
 31
0.0
  0
LINE
  8
SUNPOU
 10
9760.73117
 20
6007.849844
 30
0.0
 11
9760.73117
 21
6210.450101
 31
0.0
  0
LINE
  8
SUNPOU
 10
8480.73117
 20
6007.849844
 30
0.0
 11
8480.73117
 21
6210.450101
 31
0.0
  0
TEXT
  8
SUNPOU
 10
9002.159756
 20
6093.166636
 30
0.0
 40
60.0
  1
1266
  7
K
 72
     1
 11
9120.731184
 21
6093.166636
 31
0.0
  0
INSERT
  8
SUNPOU
  2
ARROWANG
 10
9753.73117
 20
6048.166636
 30
0.0
 41
45.0
 42
45.0
 43
45.0
  0
INSERT
  8
SUNPOU
  2
ARROWANG
 10
8487.73117
 20
6048.166636
 30
0.0
 41
45.0
 42
45.0
 50
180.0
 43
45.0
  0
LINE
  8
SUNPOU
 10
8487.73117
 20
6048.166636
 30
0.0
 11
9753.73117
 21
6048.166636
 31
0.0
  0
LINE
  8
SUNPOU
 10
9753.73117
 20
5984.849844
 30
0.0
 11
9753.73117
 21
6078.166636
 31
0.0
  0
LINE
  8
SUNPOU
 10
8487.73117
 20
5984.849844
 30
0.0
 11
8487.73117
 21
6078.166636
 31
0.0
  0
LINE
  8
JISSEN
 10
8520.73117
 20
5502.849844
 30
0.0
 11
8640.73117
 21
5502.849844
 31
0.0
  0
LINE
  8
ITTEN
 10
8470.73117
 20
5512.849844
 30
0.0
 11
8700.73117
 21
5512.849844
 31
0.0
  0
LINE
  8
JISSEN
 10
8520.73117
 20
5522.849844
 30
0.0
 11
8640.73117
 21
5522.849844
 31
0.0
  0
ARC
  8
JISSEN
 10
8640.73117
 20
5512.849844
 30
0.0
 40
10.0
 50
270.0
 51
90.0
  0
LINE
  8
ITTEN
 10
8470.73117
 20
5812.849844
 30
0.0
 11
8700.73117
 21
5812.849844
 31
0.0
  0
LINE
  8
JISSEN
 10
8520.73117
 20
5802.849844
 30
0.0
 11
8640.73117
 21
5802.849844
 31
0.0
  0
LINE
  8
JISSEN
 10
8520.73117
 20
5822.849844
 30
0.0
 11
8640.73117
 21
5822.849844
 31
0.0
  0
ARC
  8
JISSEN
 10
8640.73117
 20
5812.849844
 30
0.0
 40
10.0
 50
270.0
 51
90.0
  0
LINE
  8
JISSEN
 10
9820.73117
 20
4477.849844
 30
0.0
 11
9820.73117
 21
5977.849844
 31
0.0
  0
LINE
  8
JISSEN
 10
8420.73117
 20
4477.849844
 30
0.0
 11
8420.73117
 21
5977.849844
 31
0.0
  0
LINE
  8
HASEN
 10
9720.73117
 20
5954.849844
 30
0.0
 11
9720.73117
 21
4462.849844
 31
0.0
  0
LINE
  8
JISSEN
 10
8520.73117
 20
5954.849844
 30
0.0
 11
8520.73117
 21
4462.849844
 31
0.0
  0
LINE
  8
JISSEN
 10
9820.73117
 20
5977.849844
 30
0.0
 11
9760.73117
 21
5977.849844
 31
0.0
  0
LINE
  8
HASEN
 10
9760.73117
 20
5977.849844
 30
0.0
 11
9753.73117
 21
5954.849844
 31
0.0
  0
LINE
  8
HASEN
 10
9753.73117
 20
5954.849844
 30
0.0
 11
9120.73117
 21
5954.849844
 31
0.0
  0
LINE
  8
JISSEN
 10
9760.73117
 20
5977.849844
 30
0.0
 11
9120.73117
 21
5977.849844
 31
0.0
  0
LINE
  8
JISSEN
 10
8480.73117
 20
5977.849844
 30
0.0
 11
9120.73117
 21
5977.849844
 31
0.0
  0
LINE
  8
JISSEN
 10
8487.73117
 20
5954.849844
 30
0.0
 11
9120.73117
 21
5954.849844
 31
0.0
  0
LINE
  8
JISSEN
 10
8480.73117
 20
5977.849844
 30
0.0
 11
8487.73117
 21
5954.849844
 31
0.0
  0
LINE
  8
JISSEN
 10
8420.73117
 20
5977.849844
 30
0.0
 11
8480.73117
 21
5977.849844
 31
0.0
  0
LINE
  8
JISSEN
 10
9120.73117
 20
4477.849844
 30
0.0
 11
9759.73117
 21
4477.849844
 31
0.0
  0
LINE
  8
JISSEN
 10
9748.73117
 20
4462.849844
 30
0.0
 11
9120.73117
 21
4462.849844
 31
0.0
  0
LINE
  8
JISSEN
 10
9759.73117
 20
4477.849844
 30
0.0
 11
9748.73117
 21
4462.849844
 31
0.0
  0
LINE
  8
JISSEN
 10
9820.73117
 20
4477.849844
 30
0.0
 11
9759.73117
 21
4477.849844
 31
0.0
  0
LINE
  8
JISSEN
 10
8492.73117
 20
4462.849844
 30
0.0
 11
9120.73117
 21
4462.849844
 31
0.0
  0
LINE
  8
JISSEN
 10
8481.73117
 20
4477.849844
 30
0.0
 11
8492.73117
 21
4462.849844
 31
0.0
  0
LINE
  8
JISSEN
 10
8420.73117
 20
4477.849844
 30
0.0
 11
8481.73117
 21
4477.849844
 31
0.0
  0
LINE
  8
ITTEN
 10
9120.73117
 20
6027.849844
 30
0.0
 11
9120.73117
 21
4412.849844
 31
0.0
  0
LINE
  8
SUNPOU
 10
8457.73117
 20
5954.849844
 30
0.0
 11
8230.975369
 21
5954.849844
 31
0.0
  0
LINE
  8
SUNPOU
 10
8390.73117
 20
5977.849844
 30
0.0
 11
8230.975369
 21
5977.849844
 31
0.0
  0
LINE
  8
SUNPOU
 10
8260.975369
 20
5954.849844
 30
0.0
 11
8260.975369
 21
5977.849844
 31
0.0
  0
INSERT
  8
SUNPOU
  2
ARROWANG
 10
8260.975369
 20
5954.849844
 30
0.0
 41
45.0
 42
45.0
 50
90.0
 43
45.0
  0
INSERT
  8
SUNPOU
  2
ARROWANG
 10
8260.975369
 20
5977.849844
 30
0.0
 41
45.0
 42
45.0
 50
270.0
 43
45.0
  0
LINE
  8
SUNPOU
 10
8260.975369
 20
5977.849844
 30
0.0
 11
8260.975369
 21
6109.849844
 31
0.0
  0
LINE
  8
SUNPOU
 10
8260.975369
 20
5954.849844
 30
0.0
 11
8260.975371
 21
5864.849844
 31
0.0
  0
TEXT
  8
SUNPOU
 10
8215.975369
 20
5986.706987
 30
0.0
 40
60.0
  1
23
 50
90.0
  7
K
 72
     1
 11
8215.975369
 21
6043.849844
 31
0.0
  0
LINE
  8
SUNPOU
 10
8390.73117
 20
4477.849844
 30
0.0
 11
8079.356912
 21
4477.849844
 31
0.0
  0
LINE
  8
SUNPOU
 10
8230.975369
 20
5977.849844
 30
0.0
 11
8079.356912
 21
5977.849844
 31
0.0
  0
LINE
  8
SUNPOU
 10
8109.356912
 20
4477.849844
 30
0.0
 11
8109.356912
 21
5977.849844
 31
0.0
  0
INSERT
  8
SUNPOU
  2
ARROWANG
 10
8109.356912
 20
4477.849844
 30
0.0
 41
45.0
 42
45.0
 50
270.0
 43
45.0
  0
INSERT
  8
SUNPOU
  2
ARROWANG
 10
8109.356912
 20
5977.849844
 30
0.0
 41
45.0
 42
45.0
 50
90.0
 43
45.0
  0
TEXT
  8
SUNPOU
 10
8064.356912
 20
5109.278416
 30
0.0
 40
60.0
  1
1500
 50
90.0
  7
K
 72
     1
 11
8064.356912
 21
5227.849844
 31
0.0
  0
LINE
  8
SUNPOU
 10
8109.356912
 20
4477.849844
 30
0.0
 11
8109.356912
 21
4462.849844
 31
0.0
  0
LINE
  8
SUNPOU
 10
8462.73117
 20
4462.849844
 30
0.0
 11
8079.356912
 21
4462.849844
 31
0.0
  0
INSERT
  8
SUNPOU
  2
ARROWANG
 10
8109.356912
 20
4462.849844
 30
0.0
 41
45.0
 42
45.0
 50
90.0
 43
45.0
  0
INSERT
  8
SUNPOU
  2
ARROWANG
 10
8109.356912
 20
4477.849844
 30
0.0
 41
45.0
 42
45.0
 50
270.0
 43
45.0
  0
LINE
  8
SUNPOU
 10
8109.356912
 20
4462.849844
 30
0.0
 11
8109.356912
 21
4330.849844
 31
0.0
  0
TEXT
  8
SUNPOU
 10
8064.356912
 20
4297.135559
 30
0.0
 40
60.0
  1
15
 50
90.0
  7
K
 72
     2
 11
8064.356912
 21
4402.849844
 31
0.0
  0
LINE
  8
SUNPOU
 10
8109.356912
 20
4462.849844
 30
0.0
 11
8109.356912
 21
4372.849844
 31
0.0
  0
LINE
  8
SUNPOU
 10
8109.356912
 20
4477.849844
 30
0.0
 11
8109.356912
 21
4567.849844
 31
0.0
  0
TEXT
  8
SUNPOU
 10
3968.034088
 20
2810.83993
 30
0.0
 40
60.0
  1
23
 50
90.0
  7
K
 72
     1
 11
3968.034088
 21
2867.982787
 31
0.0
  0
LINE
  8
SUNPOU
 10
4013.034088
 20
2778.982787
 30
0.0
 11
4013.03409
 21
2688.982787
 31
0.0
  0
LINE
  8
SUNPOU
 10
4013.034088
 20
2801.982787
 30
0.0
 11
4013.034088
 21
2933.982787
 31
0.0
  0
INSERT
  8
SUNPOU
  2
ARROWANG
 10
4013.034088
 20
2801.982787
 30
0.0
 41
45.0
 42
45.0
 50
270.0
 43
45.0
  0
INSERT
  8
SUNPOU
  2
ARROWANG
 10
4013.034088
 20
2778.982787
 30
0.0
 41
45.0
 42
45.0
 50
90.0
 43
45.0
  0
LINE
  8
SUNPOU
 10
4013.034088
 20
2778.982787
 30
0.0
 11
4013.034088
 21
2801.982787
 31
0.0
  0
LINE
  8
SUNPOU
 10
4142.789889
 20
2801.982787
 30
0.0
 11
3983.034088
 21
2801.982787
 31
0.0
  0
LINE
  8
SUNPOU
 10
4209.789889
 20
2778.982787
 30
0.0
 11
3983.034088
 21
2778.982787
 31
0.0
  0
LINE
  8
ITTEN
 10
4872.789889
 20
2851.982787
 30
0.0
 11
4872.789889
 21
1536.982787
 31
0.0
  0
LINE
  8
JISSEN
 10
4172.789889
 20
1601.982787
 30
0.0
 11
4233.789889
 21
1601.982787
 31
0.0
  0
LINE
  8
JISSEN
 10
4233.789889
 20
1601.982787
 30
0.0
 11
4244.789889
 21
1586.982787
 31
0.0
  0
LINE
  8
JISSEN
 10
4244.789889
 20
1586.982787
 30
0.0
 11
4872.789889
 21
1586.982787
 31
0.0
  0
LINE
  8
JISSEN
 10
5572.789889
 20
1601.982787
 30
0.0
 11
5511.789889
 21
1601.982787
 31
0.0
  0
LINE
  8
JISSEN
 10
5511.789889
 20
1601.982787
 30
0.0
 11
5500.789889
 21
1586.982787
 31
0.0
  0
LINE
  8
JISSEN
 10
5500.789889
 20
1586.982787
 30
0.0
 11
4872.789889
 21
1586.982787
 31
0.0
  0
LINE
  8
JISSEN
 10
4872.789889
 20
1601.982787
 30
0.0
 11
5511.789889
 21
1601.982787
 31
0.0
  0
LINE
  8
JISSEN
 10
4172.789889
 20
2801.982787
 30
0.0
 11
4232.789889
 21
2801.982787
 31
0.0
  0
LINE
  8
JISSEN
 10
4232.789889
 20
2801.982787
 30
0.0
 11
4239.789889
 21
2778.982787
 31
0.0
  0
LINE
  8
JISSEN
 10
4239.789889
 20
2778.982787
 30
0.0
 11
4872.789889
 21
2778.982787
 31
0.0
  0
LINE
  8
JISSEN
 10
4232.789889
 20
2801.982787
 30
0.0
 11
4872.789889
 21
2801.982787
 31
0.0
  0
LINE
  8
JISSEN
 10
5512.789889
 20
2801.982787
 30
0.0
 11
4872.789889
 21
2801.982787
 31
0.0
  0
LINE
  8
HASEN
 10
5505.789889
 20
2778.982787
 30
0.0
 11
4872.789889
 21
2778.982787
 31
0.0
  0
LINE
  8
HASEN
 10
5512.789889
 20
2801.982787
 30
0.0
 11
5505.789889
 21
2778.982787
 31
0.0
  0
LINE
  8
JISSEN
 10
5572.789889
 20
2801.982787
 30
0.0
 11
5512.789889
 21
2801.982787
 31
0.0
  0
LINE
  8
JISSEN
 10
4272.789889
 20
2778.982787
 30
0.0
 11
4272.789889
 21
1586.982787
 31
0.0
  0
LINE
  8
HASEN
 10
5472.789889
 20
2778.982787
 30
0.0
 11
5472.789889
 21
1586.982787
 31
0.0
  0
LINE
  8
JISSEN
 10
4172.789889
 20
1601.982787
 30
0.0
 11
4172.789889
 21
2801.982787
 31
0.0
  0
LINE
  8
JISSEN
 10
5572.789889
 20
1601.982787
 30
0.0
 11
5572.789889
 21
2801.982787
 31
0.0
  0
ARC
  8
JISSEN
 10
4392.789889
 20
2636.982787
 30
0.0
 40
10.0
 50
270.0
 51
90.0
  0
LINE
  8
JISSEN
 10
4272.789889
 20
2646.982787
 30
0.0
 11
4392.789889
 21
2646.982787
 31
0.0
  0
LINE
  8
JISSEN
 10
4272.789889
 20
2626.982787
 30
0.0
 11
4392.789889
 21
2626.982787
 31
0.0
  0
LINE
  8
ITTEN
 10
4222.789889
 20
2636.982787
 30
0.0
 11
4452.789889
 21
2636.982787
 31
0.0
  0
LINE
  8
SUNPOU
 10
4239.789889
 20
2808.982787
 30
0.0
 11
4239.789889
 21
2902.299579
 31
0.0
  0
LINE
  8
SUNPOU
 10
5505.789889
 20
2808.982787
 30
0.0
 11
5505.789889
 21
2902.299579
 31
0.0
  0
LINE
  8
SUNPOU
 10
4239.789889
 20
2872.299579
 30
0.0
 11
5505.789889
 21
2872.299579
 31
0.0
  0
INSERT
  8
SUNPOU
  2
ARROWANG
 10
4239.789889
 20
2872.299579
 30
0.0
 41
45.0
 42
45.0
 50
180.0
 43
45.0
  0
INSERT
  8
SUNPOU
  2
ARROWANG
 10
5505.789889
 20
2872.299579
 30
0.0
 41
45.0
 42
45.0
 43
45.0
  0
TEXT
  8
SUNPOU
 10
4754.218475
 20
2917.299579
 30
0.0
 40
60.0
  1
1266
  7
K
 72
     1
 11
4872.789903
 21
2917.299579
 31
0.0
  0
LINE
  8
SUNPOU
 10
4232.789889
 20
2831.982787
 30
0.0
 11
4232.789889
 21
3034.583043
 31
0.0
  0
LINE
  8
SUNPOU
 10
5512.789889
 20
2831.982787
 30
0.0
 11
5512.789889
 21
3034.583043
 31
0.0
  0
LINE
  8
SUNPOU
 10
4232.789889
 20
3004.583043
 30
0.0
 11
5512.789889
 21
3004.583043
 31
0.0
  0
INSERT
  8
SUNPOU
  2
ARROWANG
 10
4232.789889
 20
3004.583043
 30
0.0
 41
45.0
 42
45.0
 50
180.0
 43
45.0
  0
INSERT
  8
SUNPOU
  2
ARROWANG
 10
5512.789889
 20
3004.583043
 30
0.0
 41
45.0
 42
45.0
 43
45.0
  0
TEXT
  8
SUNPOU
 10
4754.218475
 20
3049.583043
 30
0.0
 40
60.0
  1
1280
  7
K
 72
     1
 11
4872.789903
 21
3049.583043
 31
0.0
  0
LINE
  8
SUNPOU
 10
4172.789889
 20
2831.982787
 30
0.0
 11
4172.789889
 21
3163.790148
 31
0.0
  0
LINE
  8
SUNPOU
 10
4272.789889
 20
2808.982787
 30
0.0
 11
4272.789889
 21
3163.790148
 31
0.0
  0
LINE
  8
SUNPOU
 10
4172.789889
 20
3133.790148
 30
0.0
 11
4272.789889
 21
3133.790148
 31
0.0
  0
INSERT
  8
SUNPOU
  2
ARROWANG
 10
4272.789889
 20
3133.790148
 30
0.0
 41
45.0
 42
45.0
 50
180.0
 43
45.0
  0
INSERT
  8
SUNPOU
  2
ARROWANG
 10
4172.789889
 20
3133.790148
 30
0.0
 41
45.0
 42
45.0
 43
45.0
  0
TEXT
  8
SUNPOU
 10
4132.789903
 20
3178.790148
 30
0.0
 40
60.0
  1
100
  7
K
 72
     1
 11
4222.789903
 21
3178.790148
 31
0.0
  0
LINE
  8
SUNPOU
 10
4272.789889
 20
3133.790148
 30
0.0
 11
4362.789889
 21
3133.790148
 31
0.0
  0
LINE
  8
SUNPOU
 10
4172.789889
 20
3133.790148
 30
0.0
 11
4082.789889
 21
3133.790148
 31
0.0
  0
LINE
  8
SUNPOU
 10
4272.789889
 20
3133.790148
 30
0.0
 11
5472.789889
 21
3133.790148
 31
0.0
  0
LINE
  8
SUNPOU
 10
5472.789889
 20
2808.982787
 30
0.0
 11
5472.789889
 21
3163.790148
 31
0.0
  0
INSERT
  8
SUNPOU
  2
ARROWANG
 10
4272.789889
 20
3133.790148
 30
0.0
 41
45.0
 42
45.0
 50
180.0
 43
45.0
  0
INSERT
  8
SUNPOU
  2
ARROWANG
 10
5472.789889
 20
3133.790148
 30
0.0
 41
45.0
 42
45.0
 43
45.0
  0
TEXT
  8
SUNPOU
 10
4754.21846
 20
3178.790148
 30
0.0
 40
60.0
  1
1200
  7
K
 72
     1
 11
4872.789889
 21
3178.790148
 31
0.0
  0
LINE
  8
SUNPOU
 10
5472.789889
 20
3133.790148
 30
0.0
 11
5572.789889
 21
3133.790148
 31
0.0
  0
LINE
  8
SUNPOU
 10
5572.789889
 20
2831.982787
 30
0.0
 11
5572.789889
 21
3163.790148
 31
0.0
  0
INSERT
  8
SUNPOU
  2
ARROWANG
 10
5572.789889
 20
3133.790148
 30
0.0
 41
45.0
 42
45.0
 50
180.0
 43
45.0
  0
INSERT
  8
SUNPOU
  2
ARROWANG
 10
5472.789889
 20
3133.790148
 30
0.0
 41
45.0
 42
45.0
 43
45.0
  0
TEXT
  8
SUNPOU
 10
5432.789889
 20
3193.790148
 30
0.0
 40
60.0
  1
100
  7
K
 72
     4
 11
5522.789889
 21
3223.790148
 31
0.0
  0
LINE
  8
SUNPOU
 10
5572.789889
 20
3133.790148
 30
0.0
 11
5662.789889
 21
3133.790148
 31
0.0
  0
LINE
  8
SUNPOU
 10
5472.789889
 20
3133.790148
 30
0.0
 11
5382.789889
 21
3133.790148
 31
0.0
  0
LINE
  8
SUNPOU
 10
4244.789889
 20
1556.982787
 30
0.0
 11
4244.789889
 21
1397.655741
 31
0.0
  0
LINE
  8
SUNPOU
 10
5500.789889
 20
1556.982787
 30
0.0
 11
5500.789889
 21
1397.655741
 31
0.0
  0
LINE
  8
SUNPOU
 10
4244.789889
 20
1427.655741
 30
0.0
 11
5500.789889
 21
1427.655741
 31
0.0
  0
INSERT
  8
SUNPOU
  2
ARROWANG
 10
5500.789889
 20
1427.655741
 30
0.0
 41
45.0
 42
45.0
 43
45.0
  0
INSERT
  8
SUNPOU
  2
ARROWANG
 10
4244.789889
 20
1427.655741
 30
0.0
 41
45.0
 42
45.0
 50
180.0
 43
45.0
  0
TEXT
  8
SUNPOU
 10
4754.21846
 20
1472.655741
 30
0.0
 40
60.0
  1
1256
  7
K
 72
     1
 11
4872.789889
 21
1472.655741
 31
0.0
  0
LINE
  8
SUNPOU
 10
4233.789889
 20
1571.982787
 30
0.0
 11
4233.789889
 21
1275.626808
 31
0.0
  0
LINE
  8
SUNPOU
 10
5511.789889
 20
1571.982787
 30
0.0
 11
5511.789889
 21
1275.626808
 31
0.0
  0
LINE
  8
SUNPOU
 10
4233.789889
 20
1305.626808
 30
0.0
 11
5511.789889
 21
1305.626808
 31
0.0
  0
INSERT
  8
SUNPOU
  2
ARROWANG
 10
4233.789889
 20
1305.626808
 30
0.0
 41
45.0
 42
45.0
 50
180.0
 43
45.0
  0
INSERT
  8
SUNPOU
  2
ARROWANG
 10
5511.789889
 20
1305.626808
 30
0.0
 41
45.0
 42
45.0
 43
45.0
  0
TEXT
  8
SUNPOU
 10
4754.218475
 20
1350.626808
 30
0.0
 40
60.0
  1
1278
  7
K
 72
     1
 11
4872.789903
 21
1350.626808
 31
0.0
  0
CIRCLE
  8
SAISEN
 10
4377.815142
 20
1701.982787
 30
0.0
 40
12.5
  0
CIRCLE
  8
SAISEN
 10
5367.764636
 20
1701.982787
 30
0.0
 40
12.5
  0
LINE
  8
SUNPOU
 10
5602.789889
 20
1601.982787
 30
0.0
 11
5742.296603
 21
1601.982787
 31
0.0
  0
LINE
  8
SUNPOU
 10
5397.764636
 20
1701.982787
 30
0.0
 11
5742.296603
 21
1701.982787
 31
0.0
  0
LINE
  8
SUNPOU
 10
5712.296603
 20
1601.982787
 30
0.0
 11
5712.296603
 21
1701.982787
 31
0.0
  0
INSERT
  8
SUNPOU
  2
ARROWANG
 10
5712.296603
 20
1601.982787
 30
0.0
 41
45.0
 42
45.0
 50
90.0
 43
45.0
  0
INSERT
  8
SUNPOU
  2
ARROWANG
 10
5712.296603
 20
1701.982787
 30
0.0
 41
45.0
 42
45.0
 50
270.0
 43
45.0
  0
LINE
  8
SUNPOU
 10
5712.296603
 20
1701.982787
 30
0.0
 11
5712.296603
 21
1899.982787
 31
0.0
  0
LINE
  8
SUNPOU
 10
5712.296603
 20
1601.982787
 30
0.0
 11
5712.296605
 21
1511.982787
 31
0.0
  0
TEXT
  8
SUNPOU
 10
5667.296603
 20
1710.982787
 30
0.0
 40
60.0
  1
100
 50
90.0
  7
K
 72
     1
 11
5667.296603
 21
1800.982787
 31
0.0
  0
CIRCLE
  8
SAISEN
 10
5367.764636
 20
2701.982787
 30
0.0
 40
12.5
  0
CIRCLE
  8
SAISEN
 10
4377.815142
 20
2701.982787
 30
0.0
 40
12.5
  0
LINE
  8
SUNPOU
 10
5397.764636
 20
2701.982787
 30
0.0
 11
5727.215644
 21
2701.982787
 31
0.0
  0
LINE
  8
SUNPOU
 10
5602.789889
 20
2801.982787
 30
0.0
 11
5727.215644
 21
2801.982787
 31
0.0
  0
LINE
  8
SUNPOU
 10
5697.215644
 20
2701.982787
 30
0.0
 11
5697.215644
 21
2801.982787
 31
0.0
  0
INSERT
  8
SUNPOU
  2
ARROWANG
 10
5697.215644
 20
2701.982787
 30
0.0
 41
45.0
 42
45.0
 50
90.0
 43
45.0
  0
INSERT
  8
SUNPOU
  2
ARROWANG
 10
5697.215644
 20
2801.982787
 30
0.0
 41
45.0
 42
45.0
 50
270.0
 43
45.0
  0
LINE
  8
SUNPOU
 10
5697.215644
 20
2701.982787
 30
0.0
 11
5697.215644
 21
2503.982787
 31
0.0
  0
LINE
  8
SUNPOU
 10
5697.215644
 20
2801.982787
 30
0.0
 11
5697.215644
 21
2891.982787
 31
0.0
  0
TEXT
  8
SUNPOU
 10
5652.215644
 20
2512.982787
 30
0.0
 40
60.0
  1
100
 50
90.0
  7
K
 72
     1
 11
5652.215644
 21
2602.982787
 31
0.0
  0
LINE
  8
SUNPOU
 10
4142.789889
 20
1601.982787
 30
0.0
 11
3851.984195
 21
1601.982787
 31
0.0
  0
LINE
  8
SUNPOU
 10
3983.034088
 20
2801.982787
 30
0.0
 11
3851.984195
 21
2801.982787
 31
0.0
  0
LINE
  8
SUNPOU
 10
3881.984195
 20
1601.982787
 30
0.0
 11
3881.984195
 21
2801.982787
 31
0.0
  0
INSERT
  8
SUNPOU
  2
ARROWANG
 10
3881.984195
 20
1601.982787
 30
0.0
 41
45.0
 42
45.0
 50
270.0
 43
45.0
  0
INSERT
  8
SUNPOU
  2
ARROWANG
 10
3881.984195
 20
2801.982787
 30
0.0
 41
45.0
 42
45.0
 50
90.0
 43
45.0
  0
TEXT
  8
SUNPOU
 10
3836.984195
 20
2083.411358
 30
0.0
 40
60.0
  1
1200
 50
90.0
  7
K
 72
     1
 11
3836.984195
 21
2201.982787
 31
0.0
  0
LINE
  8
SUNPOU
 10
3881.984195
 20
1601.982787
 30
0.0
 11
3881.984195
 21
1586.982787
 31
0.0
  0
LINE
  8
SUNPOU
 10
4214.789889
 20
1586.982787
 30
0.0
 11
3851.984195
 21
1586.982787
 31
0.0
  0
INSERT
  8
SUNPOU
  2
ARROWANG
 10
3881.984195
 20
1586.982787
 30
0.0
 41
45.0
 42
45.0
 50
90.0
 43
45.0
  0
INSERT
  8
SUNPOU
  2
ARROWANG
 10
3881.984195
 20
1601.982787
 30
0.0
 41
45.0
 42
45.0
 50
270.0
 43
45.0
  0
LINE
  8
SUNPOU
 10
3881.984195
 20
1586.982787
 30
0.0
 11
3881.984195
 21
1454.982787
 31
0.0
  0
TEXT
  8
SUNPOU
 10
3836.984195
 20
1421.268501
 30
0.0
 40
60.0
  1
15
 50
90.0
  7
K
 72
     2
 11
3836.984195
 21
1526.982787
 31
0.0
  0
LINE
  8
SUNPOU
 10
3881.984195
 20
1586.982787
 30
0.0
 11
3881.984195
 21
1496.982787
 31
0.0
  0
LINE
  8
SUNPOU
 10
3881.984195
 20
1601.982787
 30
0.0
 11
3881.984195
 21
1691.982787
 31
0.0
  0
LINE
  8
ITTEN
 10
2742.228878
 20
6027.849844
 30
0.0
 11
2742.228878
 21
3504.849844
 31
0.0
  0
LINE
  8
JISSEN
 10
2042.228878
 20
3577.849844
 30
0.0
 11
2103.228878
 21
3577.849844
 31
0.0
  0
LINE
  8
JISSEN
 10
2103.228878
 20
3577.849844
 30
0.0
 11
2114.228878
 21
3562.849844
 31
0.0
  0
LINE
  8
JISSEN
 10
2114.228878
 20
3562.849844
 30
0.0
 11
2742.228878
 21
3562.849844
 31
0.0
  0
LINE
  8
JISSEN
 10
3442.228878
 20
3577.849844
 30
0.0
 11
3381.228878
 21
3577.849844
 31
0.0
  0
LINE
  8
JISSEN
 10
3381.228878
 20
3577.849844
 30
0.0
 11
3370.228878
 21
3562.849844
 31
0.0
  0
LINE
  8
JISSEN
 10
3370.228878
 20
3562.849844
 30
0.0
 11
2742.228878
 21
3562.849844
 31
0.0
  0
LINE
  8
JISSEN
 10
2742.228878
 20
3577.849844
 30
0.0
 11
3381.228878
 21
3577.849844
 31
0.0
  0
LINE
  8
JISSEN
 10
2042.228878
 20
5977.849844
 30
0.0
 11
2102.228878
 21
5977.849844
 31
0.0
  0
LINE
  8
JISSEN
 10
2102.228878
 20
5977.849844
 30
0.0
 11
2109.228878
 21
5954.849844
 31
0.0
  0
LINE
  8
JISSEN
 10
2109.228878
 20
5954.849844
 30
0.0
 11
2742.228878
 21
5954.849844
 31
0.0
  0
LINE
  8
JISSEN
 10
2102.228878
 20
5977.849844
 30
0.0
 11
2742.228878
 21
5977.849844
 31
0.0
  0
LINE
  8
JISSEN
 10
3382.228878
 20
5977.849844
 30
0.0
 11
2742.228878
 21
5977.849844
 31
0.0
  0
LINE
  8
HASEN
 10
3375.228878
 20
5954.849844
 30
0.0
 11
2742.228878
 21
5954.849844
 31
0.0
  0
LINE
  8
HASEN
 10
3382.228878
 20
5977.849844
 30
0.0
 11
3375.228878
 21
5954.849844
 31
0.0
  0
LINE
  8
JISSEN
 10
3442.228878
 20
5977.849844
 30
0.0
 11
3382.228878
 21
5977.849844
 31
0.0
  0
LINE
  8
JISSEN
 10
2142.228878
 20
5954.849844
 30
0.0
 11
2142.228878
 21
3562.849844
 31
0.0
  0
LINE
  8
HASEN
 10
3342.228878
 20
5954.849844
 30
0.0
 11
3342.228878
 21
3562.849844
 31
0.0
  0
LINE
  8
JISSEN
 10
2042.228878
 20
3577.849844
 30
0.0
 11
2042.228878
 21
5977.849844
 31
0.0
  0
LINE
  8
JISSEN
 10
3442.228878
 20
3577.849844
 30
0.0
 11
3442.228878
 21
5977.849844
 31
0.0
  0
ARC
  8
JISSEN
 10
2262.228878
 20
5812.849844
 30
0.0
 40
10.0
 50
270.0
 51
90.0
  0
LINE
  8
JISSEN
 10
2142.228878
 20
5822.849844
 30
0.0
 11
2262.228878
 21
5822.849844
 31
0.0
  0
LINE
  8
JISSEN
 10
2142.228878
 20
5802.849844
 30
0.0
 11
2262.228878
 21
5802.849844
 31
0.0
  0
LINE
  8
ITTEN
 10
2092.228878
 20
5812.849844
 30
0.0
 11
2322.228878
 21
5812.849844
 31
0.0
  0
ARC
  8
JISSEN
 10
2262.228878
 20
5512.849844
 30
0.0
 40
10.0
 50
270.0
 51
90.0
  0
LINE
  8
JISSEN
 10
2142.228878
 20
5522.849844
 30
0.0
 11
2262.228878
 21
5522.849844
 31
0.0
  0
LINE
  8
ITTEN
 10
2092.228878
 20
5512.849844
 30
0.0
 11
2322.228878
 21
5512.849844
 31
0.0
  0
LINE
  8
JISSEN
 10
2142.228878
 20
5502.849844
 30
0.0
 11
2262.228878
 21
5502.849844
 31
0.0
  0
ARC
  8
JISSEN
 10
2262.228878
 20
5212.849844
 30
0.0
 40
10.0
 50
270.0
 51
90.0
  0
LINE
  8
JISSEN
 10
2142.228878
 20
5222.849844
 30
0.0
 11
2262.228878
 21
5222.849844
 31
0.0
  0
LINE
  8
ITTEN
 10
2092.228878
 20
5212.849844
 30
0.0
 11
2322.228878
 21
5212.849844
 31
0.0
  0
LINE
  8
JISSEN
 10
2142.228878
 20
5202.849844
 30
0.0
 11
2262.228878
 21
5202.849844
 31
0.0
  0
ARC
  8
JISSEN
 10
2262.228878
 20
4912.849844
 30
0.0
 40
10.0
 50
270.0
 51
90.0
  0
LINE
  8
JISSEN
 10
2142.228878
 20
4922.849844
 30
0.0
 11
2262.228878
 21
4922.849844
 31
0.0
  0
LINE
  8
ITTEN
 10
2092.228878
 20
4912.849844
 30
0.0
 11
2322.228878
 21
4912.849844
 31
0.0
  0
LINE
  8
JISSEN
 10
2142.228878
 20
4902.849844
 30
0.0
 11
2262.228878
 21
4902.849844
 31
0.0
  0
ARC
  8
JISSEN
 10
2262.228878
 20
4612.849844
 30
0.0
 40
10.0
 50
270.0
 51
90.0
  0
LINE
  8
JISSEN
 10
2142.228878
 20
4622.849844
 30
0.0
 11
2262.228878
 21
4622.849844
 31
0.0
  0
LINE
  8
ITTEN
 10
2092.228878
 20
4612.849844
 30
0.0
 11
2322.228878
 21
4612.849844
 31
0.0
  0
LINE
  8
JISSEN
 10
2142.228878
 20
4602.849844
 30
0.0
 11
2262.228878
 21
4602.849844
 31
0.0
  0
LINE
  8
SUNPOU
 10
2012.228878
 20
3577.849844
 30
0.0
 11
1732.804378
 21
3577.849844
 31
0.0
  0
LINE
  8
SUNPOU
 10
2012.228878
 20
5977.849844
 30
0.0
 11
1732.804378
 21
5977.849844
 31
0.0
  0
LINE
  8
SUNPOU
 10
1762.804378
 20
3577.849844
 30
0.0
 11
1762.804378
 21
5977.849844
 31
0.0
  0
INSERT
  8
SUNPOU
  2
ARROWANG
 10
1762.804378
 20
3577.849844
 30
0.0
 41
45.0
 42
45.0
 50
270.0
 43
45.0
  0
INSERT
  8
SUNPOU
  2
ARROWANG
 10
1762.804378
 20
5977.849844
 30
0.0
 41
45.0
 42
45.0
 50
90.0
 43
45.0
  0
TEXT
  8
SUNPOU
 10
1717.804378
 20
4663.56413
 30
0.0
 40
60.0
  1
2400
 50
90.0
  7
K
 72
     1
 11
1717.804378
 21
4777.849844
 31
0.0
  0
LINE
  8
SUNPOU
 10
2084.228878
 20
3562.849844
 30
0.0
 11
1732.804378
 21
3562.849844
 31
0.0
  0
LINE
  8
SUNPOU
 10
1792.804378
 20
3577.849844
 30
0.0
 11
1792.804378
 21
3577.849844
 31
0.0
  0
LINE
  8
SUNPOU
 10
1762.804378
 20
3562.849844
 30
0.0
 11
1762.804378
 21
3577.849844
 31
0.0
  0
INSERT
  8
SUNPOU
  2
ARROWANG
 10
1762.804378
 20
3562.849844
 30
0.0
 41
45.0
 42
45.0
 50
90.0
 43
45.0
  0
INSERT
  8
SUNPOU
  2
ARROWANG
 10
1762.804378
 20
3577.849844
 30
0.0
 41
45.0
 42
45.0
 50
270.0
 43
45.0
  0
LINE
  8
SUNPOU
 10
1762.804378
 20
3562.849844
 30
0.0
 11
1762.804378
 21
3430.849844
 31
0.0
  0
LINE
  8
SUNPOU
 10
1762.804378
 20
3577.849844
 30
0.0
 11
1762.804378
 21
3667.849844
 31
0.0
  0
TEXT
  8
SUNPOU
 10
1717.804378
 20
3435.421273
 30
0.0
 40
60.0
  1
15
 50
90.0
  7
K
 72
     1
 11
1717.804378
 21
3496.849844
 31
0.0
  0
LINE
  8
SUNPOU
 10
2079.228878
 20
5954.849844
 30
0.0
 11
1868.533008
 21
5954.849844
 31
0.0
  0
LINE
  8
SUNPOU
 10
2012.228878
 20
5977.849844
 30
0.0
 11
1868.533008
 21
5977.849844
 31
0.0
  0
LINE
  8
SUNPOU
 10
1898.533008
 20
5954.849844
 30
0.0
 11
1898.533008
 21
5977.849844
 31
0.0
  0
INSERT
  8
SUNPOU
  2
ARROWANG
 10
1898.533008
 20
5954.849844
 30
0.0
 41
45.0
 42
45.0
 50
90.0
 43
45.0
  0
INSERT
  8
SUNPOU
  2
ARROWANG
 10
1898.533008
 20
5977.849844
 30
0.0
 41
45.0
 42
45.0
 50
270.0
 43
45.0
  0
LINE
  8
SUNPOU
 10
1898.533008
 20
5977.849844
 30
0.0
 11
1898.533008
 21
6109.849844
 31
0.0
  0
LINE
  8
SUNPOU
 10
1898.533008
 20
5954.849844
 30
0.0
 11
1898.53301
 21
5864.849844
 31
0.0
  0
TEXT
  8
SUNPOU
 10
1853.533008
 20
5986.706987
 30
0.0
 40
60.0
  1
23
 50
90.0
  7
K
 72
     1
 11
1853.533008
 21
6043.849844
 31
0.0
  0
LINE
  8
SUNPOU
 10
2109.228878
 20
5984.849844
 30
0.0
 11
2109.228878
 21
6078.166636
 31
0.0
  0
LINE
  8
SUNPOU
 10
3375.228878
 20
5984.849844
 30
0.0
 11
3375.228878
 21
6078.166636
 31
0.0
  0
LINE
  8
SUNPOU
 10
2109.228878
 20
6048.166636
 30
0.0
 11
3375.228878
 21
6048.166636
 31
0.0
  0
INSERT
  8
SUNPOU
  2
ARROWANG
 10
2109.228878
 20
6048.166636
 30
0.0
 41
45.0
 42
45.0
 50
180.0
 43
45.0
  0
INSERT
  8
SUNPOU
  2
ARROWANG
 10
3375.228878
 20
6048.166636
 30
0.0
 41
45.0
 42
45.0
 43
45.0
  0
TEXT
  8
SUNPOU
 10
2623.657464
 20
6093.166636
 30
0.0
 40
60.0
  1
1266
  7
K
 72
     1
 11
2742.228892
 21
6093.166636
 31
0.0
  0
LINE
  8
SUNPOU
 10
2102.228878
 20
6007.849844
 30
0.0
 11
2102.228878
 21
6210.450101
 31
0.0
  0
LINE
  8
SUNPOU
 10
3382.228878
 20
6007.849844
 30
0.0
 11
3382.228878
 21
6210.450101
 31
0.0
  0
LINE
  8
SUNPOU
 10
2102.228878
 20
6180.450101
 30
0.0
 11
3382.228878
 21
6180.450101
 31
0.0
  0
INSERT
  8
SUNPOU
  2
ARROWANG
 10
2102.228878
 20
6180.450101
 30
0.0
 41
45.0
 42
45.0
 50
180.0
 43
45.0
  0
INSERT
  8
SUNPOU
  2
ARROWANG
 10
3382.228878
 20
6180.450101
 30
0.0
 41
45.0
 42
45.0
 43
45.0
  0
TEXT
  8
SUNPOU
 10
2623.657464
 20
6225.450101
 30
0.0
 40
60.0
  1
1280
  7
K
 72
     1
 11
2742.228892
 21
6225.450101
 31
0.0
  0
LINE
  8
SUNPOU
 10
2042.228878
 20
6007.849844
 30
0.0
 11
2042.228878
 21
6339.657206
 31
0.0
  0
LINE
  8
SUNPOU
 10
2142.228878
 20
5984.849844
 30
0.0
 11
2142.228878
 21
6339.657206
 31
0.0
  0
LINE
  8
SUNPOU
 10
2042.228878
 20
6309.657206
 30
0.0
 11
2142.228878
 21
6309.657206
 31
0.0
  0
INSERT
  8
SUNPOU
  2
ARROWANG
 10
2142.228878
 20
6309.657206
 30
0.0
 41
45.0
 42
45.0
 50
180.0
 43
45.0
  0
INSERT
  8
SUNPOU
  2
ARROWANG
 10
2042.228878
 20
6309.657206
 30
0.0
 41
45.0
 42
45.0
 43
45.0
  0
TEXT
  8
SUNPOU
 10
2002.228892
 20
6354.657206
 30
0.0
 40
60.0
  1
100
  7
K
 72
     1
 11
2092.228892
 21
6354.657206
 31
0.0
  0
LINE
  8
SUNPOU
 10
2142.228878
 20
6309.657206
 30
0.0
 11
2232.228878
 21
6309.657206
 31
0.0
  0
LINE
  8
SUNPOU
 10
2042.228878
 20
6309.657206
 30
0.0
 11
1952.228878
 21
6309.657206
 31
0.0
  0
LINE
  8
SUNPOU
 10
2142.228878
 20
6309.657206
 30
0.0
 11
3342.228878
 21
6309.657206
 31
0.0
  0
LINE
  8
SUNPOU
 10
3342.228878
 20
5984.849844
 30
0.0
 11
3342.228878
 21
6339.657206
 31
0.0
  0
INSERT
  8
SUNPOU
  2
ARROWANG
 10
2142.228878
 20
6309.657206
 30
0.0
 41
45.0
 42
45.0
 50
180.0
 43
45.0
  0
INSERT
  8
SUNPOU
  2
ARROWANG
 10
3342.228878
 20
6309.657206
 30
0.0
 41
45.0
 42
45.0
 43
45.0
  0
TEXT
  8
SUNPOU
 10
2623.657449
 20
6354.657206
 30
0.0
 40
60.0
  1
1200
  7
K
 72
     1
 11
2742.228878
 21
6354.657206
 31
0.0
  0
LINE
  8
SUNPOU
 10
3342.228878
 20
6309.657206
 30
0.0
 11
3442.228878
 21
6309.657206
 31
0.0
  0
LINE
  8
SUNPOU
 10
3442.228878
 20
6007.849844
 30
0.0
 11
3442.228878
 21
6339.657206
 31
0.0
  0
INSERT
  8
SUNPOU
  2
ARROWANG
 10
3442.228878
 20
6309.657206
 30
0.0
 41
45.0
 42
45.0
 50
180.0
 43
45.0
  0
INSERT
  8
SUNPOU
  2
ARROWANG
 10
3342.228878
 20
6309.657206
 30
0.0
 41
45.0
 42
45.0
 43
45.0
  0
TEXT
  8
SUNPOU
 10
3302.228878
 20
6369.657206
 30
0.0
 40
60.0
  1
100
  7
K
 72
     4
 11
3392.228878
 21
6399.657206
 31
0.0
  0
LINE
  8
SUNPOU
 10
3442.228878
 20
6309.657206
 30
0.0
 11
3532.228878
 21
6309.657206
 31
0.0
  0
LINE
  8
SUNPOU
 10
3342.228878
 20
6309.657206
 30
0.0
 11
3252.228878
 21
6309.657206
 31
0.0
  0
LINE
  8
SUNPOU
 10
2114.228878
 20
3532.849844
 30
0.0
 11
2114.228878
 21
3373.522798
 31
0.0
  0
LINE
  8
SUNPOU
 10
3370.228878
 20
3532.849844
 30
0.0
 11
3370.228878
 21
3373.522798
 31
0.0
  0
LINE
  8
SUNPOU
 10
2114.228878
 20
3403.522798
 30
0.0
 11
3370.228878
 21
3403.522798
 31
0.0
  0
INSERT
  8
SUNPOU
  2
ARROWANG
 10
3370.228878
 20
3403.522798
 30
0.0
 41
45.0
 42
45.0
 43
45.0
  0
INSERT
  8
SUNPOU
  2
ARROWANG
 10
2114.228878
 20
3403.522798
 30
0.0
 41
45.0
 42
45.0
 50
180.0
 43
45.0
  0
TEXT
  8
SUNPOU
 10
2623.657449
 20
3448.522798
 30
0.0
 40
60.0
  1
1256
  7
K
 72
     1
 11
2742.228878
 21
3448.522798
 31
0.0
  0
LINE
  8
SUNPOU
 10
2103.228878
 20
3547.849844
 30
0.0
 11
2103.228878
 21
3251.493866
 31
0.0
  0
LINE
  8
SUNPOU
 10
3381.228878
 20
3547.849844
 30
0.0
 11
3381.228878
 21
3251.493866
 31
0.0
  0
LINE
  8
SUNPOU
 10
2103.228878
 20
3281.493866
 30
0.0
 11
3381.228878
 21
3281.493866
 31
0.0
  0
INSERT
  8
SUNPOU
  2
ARROWANG
 10
2103.228878
 20
3281.493866
 30
0.0
 41
45.0
 42
45.0
 50
180.0
 43
45.0
  0
INSERT
  8
SUNPOU
  2
ARROWANG
 10
3381.228878
 20
3281.493866
 30
0.0
 41
45.0
 42
45.0
 43
45.0
  0
TEXT
  8
SUNPOU
 10
2623.657464
 20
3326.493866
 30
0.0
 40
60.0
  1
1278
  7
K
 72
     1
 11
2742.228892
 21
3326.493866
 31
0.0
  0
LINE
  8
SUNPOU
 10
2352.228878
 20
4612.849844
 30
0.0
 11
2457.204402
 21
4612.849844
 31
0.0
  0
LINE
  8
SUNPOU
 10
2352.228878
 20
4912.849844
 30
0.0
 11
2457.204402
 21
4912.849844
 31
0.0
  0
LINE
  8
SUNPOU
 10
2427.204402
 20
4612.849844
 30
0.0
 11
2427.204402
 21
4912.849844
 31
0.0
  0
INSERT
  8
SUNPOU
  2
ARROWANG
 10
2427.204402
 20
4612.849844
 30
0.0
 41
45.0
 42
45.0
 50
270.0
 43
45.0
  0
INSERT
  8
SUNPOU
  2
ARROWANG
 10
2427.204402
 20
4912.849844
 30
0.0
 41
45.0
 42
45.0
 50
90.0
 43
45.0
  0
TEXT
  8
SUNPOU
 10
2382.204402
 20
4677.135559
 30
0.0
 40
60.0
  1
300
 50
90.0
  7
K
 72
     1
 11
2382.204402
 21
4762.849844
 31
0.0
  0
LINE
  8
SUNPOU
 10
2427.204402
 20
4912.849844
 30
0.0
 11
2427.204402
 21
5212.849844
 31
0.0
  0
LINE
  8
SUNPOU
 10
2352.228878
 20
5212.849844
 30
0.0
 11
2457.204402
 21
5212.849844
 31
0.0
  0
INSERT
  8
SUNPOU
  2
ARROWANG
 10
2427.204402
 20
4912.849844
 30
0.0
 41
45.0
 42
45.0
 50
270.0
 43
45.0
  0
INSERT
  8
SUNPOU
  2
ARROWANG
 10
2427.204402
 20
5212.849844
 30
0.0
 41
45.0
 42
45.0
 50
90.0
 43
45.0
  0
TEXT
  8
SUNPOU
 10
2382.204402
 20
4977.135559
 30
0.0
 40
60.0
  1
300
 50
90.0
  7
K
 72
     1
 11
2382.204402
 21
5062.849844
 31
0.0
  0
LINE
  8
SUNPOU
 10
2427.204402
 20
5212.849844
 30
0.0
 11
2427.204402
 21
5512.849844
 31
0.0
  0
LINE
  8
SUNPOU
 10
2352.228878
 20
5512.849844
 30
0.0
 11
2457.204402
 21
5512.849844
 31
0.0
  0
INSERT
  8
SUNPOU
  2
ARROWANG
 10
2427.204402
 20
5212.849844
 30
0.0
 41
45.0
 42
45.0
 50
270.0
 43
45.0
  0
INSERT
  8
SUNPOU
  2
ARROWANG
 10
2427.204402
 20
5512.849844
 30
0.0
 41
45.0
 42
45.0
 50
90.0
 43
45.0
  0
TEXT
  8
SUNPOU
 10
2382.204402
 20
5277.135559
 30
0.0
 40
60.0
  1
300
 50
90.0
  7
K
 72
     1
 11
2382.204402
 21
5362.849844
 31
0.0
  0
LINE
  8
SUNPOU
 10
2427.204402
 20
5512.849844
 30
0.0
 11
2427.204402
 21
5812.849844
 31
0.0
  0
LINE
  8
SUNPOU
 10
2352.228878
 20
5812.849844
 30
0.0
 11
2457.204402
 21
5812.849844
 31
0.0
  0
INSERT
  8
SUNPOU
  2
ARROWANG
 10
2427.204402
 20
5512.849844
 30
0.0
 41
45.0
 42
45.0
 50
270.0
 43
45.0
  0
INSERT
  8
SUNPOU
  2
ARROWANG
 10
2427.204402
 20
5812.849844
 30
0.0
 41
45.0
 42
45.0
 50
90.0
 43
45.0
  0
TEXT
  8
SUNPOU
 10
2382.204402
 20
5577.135559
 30
0.0
 40
60.0
  1
300
 50
90.0
  7
K
 72
     1
 11
2382.204402
 21
5662.849844
 31
0.0
  0
CIRCLE
  8
SAISEN
 10
2247.254131
 20
3677.849844
 30
0.0
 40
12.5
  0
CIRCLE
  8
SAISEN
 10
3237.203624
 20
3677.849844
 30
0.0
 40
12.5
  0
LINE
  8
SUNPOU
 10
3472.228878
 20
3577.849844
 30
0.0
 11
3611.735592
 21
3577.849844
 31
0.0
  0
LINE
  8
SUNPOU
 10
3267.203624
 20
3677.849844
 30
0.0
 11
3611.735592
 21
3677.849844
 31
0.0
  0
LINE
  8
SUNPOU
 10
3581.735592
 20
3577.849844
 30
0.0
 11
3581.735592
 21
3677.849844
 31
0.0
  0
INSERT
  8
SUNPOU
  2
ARROWANG
 10
3581.735592
 20
3577.849844
 30
0.0
 41
45.0
 42
45.0
 50
90.0
 43
45.0
  0
INSERT
  8
SUNPOU
  2
ARROWANG
 10
3581.735592
 20
3677.849844
 30
0.0
 41
45.0
 42
45.0
 50
270.0
 43
45.0
  0
LINE
  8
SUNPOU
 10
3581.735592
 20
3677.849844
 30
0.0
 11
3581.735592
 21
3875.849844
 31
0.0
  0
LINE
  8
SUNPOU
 10
3581.735592
 20
3577.849844
 30
0.0
 11
3581.735594
 21
3487.849844
 31
0.0
  0
TEXT
  8
SUNPOU
 10
3536.735592
 20
3686.849844
 30
0.0
 40
60.0
  1
100
 50
90.0
  7
K
 72
     1
 11
3536.735592
 21
3776.849844
 31
0.0
  0
CIRCLE
  8
SAISEN
 10
3237.203624
 20
5877.849844
 30
0.0
 40
12.5
  0
CIRCLE
  8
SAISEN
 10
2247.254131
 20
5877.849844
 30
0.0
 40
12.5
  0
LINE
  8
SUNPOU
 10
3267.203624
 20
5877.849844
 30
0.0
 11
3596.654633
 21
5877.849844
 31
0.0
  0
LINE
  8
SUNPOU
 10
3472.228878
 20
5977.849844
 30
0.0
 11
3596.654633
 21
5977.849844
 31
0.0
  0
LINE
  8
SUNPOU
 10
3566.654633
 20
5877.849844
 30
0.0
 11
3566.654633
 21
5977.849844
 31
0.0
  0
INSERT
  8
SUNPOU
  2
ARROWANG
 10
3566.654633
 20
5877.849844
 30
0.0
 41
45.0
 42
45.0
 50
90.0
 43
45.0
  0
INSERT
  8
SUNPOU
  2
ARROWANG
 10
3566.654633
 20
5977.849844
 30
0.0
 41
45.0
 42
45.0
 50
270.0
 43
45.0
  0
LINE
  8
SUNPOU
 10
3566.654633
 20
5877.849844
 30
0.0
 11
3566.654633
 21
5679.849844
 31
0.0
  0
LINE
  8
SUNPOU
 10
3566.654633
 20
5977.849844
 30
0.0
 11
3566.654633
 21
6067.849844
 31
0.0
  0
TEXT
  8
SUNPOU
 10
3521.654633
 20
5688.849844
 30
0.0
 40
60.0
  1
100
 50
90.0
  7
K
 72
     1
 11
3521.654633
 21
5778.849844
 31
0.0
  0
TEXT
  8
SUNPOU
 10
5652.215644
 20
5688.849844
 30
0.0
 40
60.0
  1
100
 50
90.0
  7
K
 72
     1
 11
5652.215644
 21
5778.849844
 31
0.0
  0
LINE
  8
SUNPOU
 10
5697.215644
 20
5977.849844
 30
0.0
 11
5697.215644
 21
6067.849844
 31
0.0
  0
LINE
  8
SUNPOU
 10
5697.215644
 20
5877.849844
 30
0.0
 11
5697.215644
 21
5679.849844
 31
0.0
  0
INSERT
  8
SUNPOU
  2
ARROWANG
 10
5697.215644
 20
5977.849844
 30
0.0
 41
45.0
 42
45.0
 50
270.0
 43
45.0
  0
INSERT
  8
SUNPOU
  2
ARROWANG
 10
5697.215644
 20
5877.849844
 30
0.0
 41
45.0
 42
45.0
 50
90.0
 43
45.0
  0
LINE
  8
SUNPOU
 10
5697.215644
 20
5877.849844
 30
0.0
 11
5697.215644
 21
5977.849844
 31
0.0
  0
LINE
  8
SUNPOU
 10
5602.789889
 20
5977.849844
 30
0.0
 11
5727.215644
 21
5977.849844
 31
0.0
  0
LINE
  8
SUNPOU
 10
5397.764636
 20
5877.849844
 30
0.0
 11
5727.215644
 21
5877.849844
 31
0.0
  0
CIRCLE
  8
SAISEN
 10
4377.815142
 20
5877.849844
 30
0.0
 40
12.5
  0
CIRCLE
  8
SAISEN
 10
5367.764636
 20
5877.849844
 30
0.0
 40
12.5
  0
TEXT
  8
SUNPOU
 10
5667.296603
 20
3986.849844
 30
0.0
 40
60.0
  1
100
 50
90.0
  7
K
 72
     1
 11
5667.296603
 21
4076.849844
 31
0.0
  0
LINE
  8
SUNPOU
 10
5712.296603
 20
3877.849844
 30
0.0
 11
5712.296605
 21
3787.849844
 31
0.0
  0
LINE
  8
SUNPOU
 10
5712.296603
 20
3977.849844
 30
0.0
 11
5712.296603
 21
4175.849844
 31
0.0
  0
INSERT
  8
SUNPOU
  2
ARROWANG
 10
5712.296603
 20
3977.849844
 30
0.0
 41
45.0
 42
45.0
 50
270.0
 43
45.0
  0
INSERT
  8
SUNPOU
  2
ARROWANG
 10
5712.296603
 20
3877.849844
 30
0.0
 41
45.0
 42
45.0
 50
90.0
 43
45.0
  0
LINE
  8
SUNPOU
 10
5712.296603
 20
3877.849844
 30
0.0
 11
5712.296603
 21
3977.849844
 31
0.0
  0
LINE
  8
SUNPOU
 10
5397.764636
 20
3977.849844
 30
0.0
 11
5742.296603
 21
3977.849844
 31
0.0
  0
LINE
  8
SUNPOU
 10
5602.789889
 20
3877.849844
 30
0.0
 11
5742.296603
 21
3877.849844
 31
0.0
  0
CIRCLE
  8
SAISEN
 10
5367.764636
 20
3977.849844
 30
0.0
 40
12.5
  0
CIRCLE
  8
SAISEN
 10
4377.815142
 20
3977.849844
 30
0.0
 40
12.5
  0
TEXT
  8
SUNPOU
 10
4512.765413
 20
5577.135559
 30
0.0
 40
60.0
  1
300
 50
90.0
  7
K
 72
     1
 11
4512.765413
 21
5662.849844
 31
0.0
  0
INSERT
  8
SUNPOU
  2
ARROWANG
 10
4557.765413
 20
5812.849844
 30
0.0
 41
45.0
 42
45.0
 50
90.0
 43
45.0
  0
INSERT
  8
SUNPOU
  2
ARROWANG
 10
4557.765413
 20
5512.849844
 30
0.0
 41
45.0
 42
45.0
 50
270.0
 43
45.0
  0
LINE
  8
SUNPOU
 10
4482.789889
 20
5812.849844
 30
0.0
 11
4587.765413
 21
5812.849844
 31
0.0
  0
LINE
  8
SUNPOU
 10
4557.765413
 20
5512.849844
 30
0.0
 11
4557.765413
 21
5812.849844
 31
0.0
  0
TEXT
  8
SUNPOU
 10
4512.765413
 20
5277.135559
 30
0.0
 40
60.0
  1
300
 50
90.0
  7
K
 72
     1
 11
4512.765413
 21
5362.849844
 31
0.0
  0
INSERT
  8
SUNPOU
  2
ARROWANG
 10
4557.765413
 20
5512.849844
 30
0.0
 41
45.0
 42
45.0
 50
90.0
 43
45.0
  0
INSERT
  8
SUNPOU
  2
ARROWANG
 10
4557.765413
 20
5212.849844
 30
0.0
 41
45.0
 42
45.0
 50
270.0
 43
45.0
  0
LINE
  8
SUNPOU
 10
4482.789889
 20
5512.849844
 30
0.0
 11
4587.765413
 21
5512.849844
 31
0.0
  0
LINE
  8
SUNPOU
 10
4557.765413
 20
5212.849844
 30
0.0
 11
4557.765413
 21
5512.849844
 31
0.0
  0
TEXT
  8
SUNPOU
 10
4512.765413
 20
4977.135559
 30
0.0
 40
60.0
  1
300
 50
90.0
  7
K
 72
     1
 11
4512.765413
 21
5062.849844
 31
0.0
  0
INSERT
  8
SUNPOU
  2
ARROWANG
 10
4557.765413
 20
5212.849844
 30
0.0
 41
45.0
 42
45.0
 50
90.0
 43
45.0
  0
INSERT
  8
SUNPOU
  2
ARROWANG
 10
4557.765413
 20
4912.849844
 30
0.0
 41
45.0
 42
45.0
 50
270.0
 43
45.0
  0
LINE
  8
SUNPOU
 10
4482.789889
 20
5212.849844
 30
0.0
 11
4587.765413
 21
5212.849844
 31
0.0
  0
LINE
  8
SUNPOU
 10
4557.765413
 20
4912.849844
 30
0.0
 11
4557.765413
 21
5212.849844
 31
0.0
  0
LINE
  8
SUNPOU
 10
4482.789889
 20
4912.849844
 30
0.0
 11
4587.765413
 21
4912.849844
 31
0.0
  0
TEXT
  8
SUNPOU
 10
4754.218475
 20
3626.493866
 30
0.0
 40
60.0
  1
1278
  7
K
 72
     1
 11
4872.789903
 21
3626.493866
 31
0.0
  0
INSERT
  8
SUNPOU
  2
ARROWANG
 10
5511.789889
 20
3581.493866
 30
0.0
 41
45.0
 42
45.0
 43
45.0
  0
INSERT
  8
SUNPOU
  2
ARROWANG
 10
4233.789889
 20
3581.493866
 30
0.0
 41
45.0
 42
45.0
 50
180.0
 43
45.0
  0
LINE
  8
SUNPOU
 10
4233.789889
 20
3581.493866
 30
0.0
 11
5511.789889
 21
3581.493866
 31
0.0
  0
LINE
  8
SUNPOU
 10
5511.789889
 20
3847.849844
 30
0.0
 11
5511.789889
 21
3551.493866
 31
0.0
  0
LINE
  8
SUNPOU
 10
4233.789889
 20
3847.849844
 30
0.0
 11
4233.789889
 21
3551.493866
 31
0.0
  0
TEXT
  8
SUNPOU
 10
4754.21846
 20
3748.522798
 30
0.0
 40
60.0
  1
1256
  7
K
 72
     1
 11
4872.789889
 21
3748.522798
 31
0.0
  0
INSERT
  8
SUNPOU
  2
ARROWANG
 10
4244.789889
 20
3703.522798
 30
0.0
 41
45.0
 42
45.0
 50
180.0
 43
45.0
  0
INSERT
  8
SUNPOU
  2
ARROWANG
 10
5500.789889
 20
3703.522798
 30
0.0
 41
45.0
 42
45.0
 43
45.0
  0
LINE
  8
SUNPOU
 10
4244.789889
 20
3703.522798
 30
0.0
 11
5500.789889
 21
3703.522798
 31
0.0
  0
LINE
  8
SUNPOU
 10
5500.789889
 20
3832.849844
 30
0.0
 11
5500.789889
 21
3673.522798
 31
0.0
  0
LINE
  8
SUNPOU
 10
4244.789889
 20
3832.849844
 30
0.0
 11
4244.789889
 21
3673.522798
 31
0.0
  0
LINE
  8
SUNPOU
 10
5472.789889
 20
6309.657206
 30
0.0
 11
5382.789889
 21
6309.657206
 31
0.0
  0
LINE
  8
SUNPOU
 10
5572.789889
 20
6309.657206
 30
0.0
 11
5662.789889
 21
6309.657206
 31
0.0
  0
TEXT
  8
SUNPOU
 10
5432.789889
 20
6369.657206
 30
0.0
 40
60.0
  1
100
  7
K
 72
     4
 11
5522.789889
 21
6399.657206
 31
0.0
  0
INSERT
  8
SUNPOU
  2
ARROWANG
 10
5472.789889
 20
6309.657206
 30
0.0
 41
45.0
 42
45.0
 43
45.0
  0
INSERT
  8
SUNPOU
  2
ARROWANG
 10
5572.789889
 20
6309.657206
 30
0.0
 41
45.0
 42
45.0
 50
180.0
 43
45.0
  0
LINE
  8
SUNPOU
 10
5572.789889
 20
6007.849844
 30
0.0
 11
5572.789889
 21
6339.657206
 31
0.0
  0
LINE
  8
SUNPOU
 10
5472.789889
 20
6309.657206
 30
0.0
 11
5572.789889
 21
6309.657206
 31
0.0
  0
TEXT
  8
SUNPOU
 10
4754.21846
 20
6354.657206
 30
0.0
 40
60.0
  1
1200
  7
K
 72
     1
 11
4872.789889
 21
6354.657206
 31
0.0
  0
INSERT
  8
SUNPOU
  2
ARROWANG
 10
5472.789889
 20
6309.657206
 30
0.0
 41
45.0
 42
45.0
 43
45.0
  0
INSERT
  8
SUNPOU
  2
ARROWANG
 10
4272.789889
 20
6309.657206
 30
0.0
 41
45.0
 42
45.0
 50
180.0
 43
45.0
  0
LINE
  8
SUNPOU
 10
5472.789889
 20
5984.849844
 30
0.0
 11
5472.789889
 21
6339.657206
 31
0.0
  0
LINE
  8
SUNPOU
 10
4272.789889
 20
6309.657206
 30
0.0
 11
5472.789889
 21
6309.657206
 31
0.0
  0
LINE
  8
SUNPOU
 10
4172.789889
 20
6309.657206
 30
0.0
 11
4082.789889
 21
6309.657206
 31
0.0
  0
LINE
  8
SUNPOU
 10
4272.789889
 20
6309.657206
 30
0.0
 11
4362.789889
 21
6309.657206
 31
0.0
  0
TEXT
  8
SUNPOU
 10
4132.789903
 20
6354.657206
 30
0.0
 40
60.0
  1
100
  7
K
 72
     1
 11
4222.789903
 21
6354.657206
 31
0.0
  0
INSERT
  8
SUNPOU
  2
ARROWANG
 10
4172.789889
 20
6309.657206
 30
0.0
 41
45.0
 42
45.0
 43
45.0
  0
INSERT
  8
SUNPOU
  2
ARROWANG
 10
4272.789889
 20
6309.657206
 30
0.0
 41
45.0
 42
45.0
 50
180.0
 43
45.0
  0
LINE
  8
SUNPOU
 10
4172.789889
 20
6309.657206
 30
0.0
 11
4272.789889
 21
6309.657206
 31
0.0
  0
LINE
  8
SUNPOU
 10
4272.789889
 20
5984.849844
 30
0.0
 11
4272.789889
 21
6339.657206
 31
0.0
  0
LINE
  8
SUNPOU
 10
4172.789889
 20
6007.849844
 30
0.0
 11
4172.789889
 21
6339.657206
 31
0.0
  0
TEXT
  8
SUNPOU
 10
4754.218475
 20
6225.450101
 30
0.0
 40
60.0
  1
1280
  7
K
 72
     1
 11
4872.789903
 21
6225.450101
 31
0.0
  0
INSERT
  8
SUNPOU
  2
ARROWANG
 10
5512.789889
 20
6180.450101
 30
0.0
 41
45.0
 42
45.0
 43
45.0
  0
INSERT
  8
SUNPOU
  2
ARROWANG
 10
4232.789889
 20
6180.450101
 30
0.0
 41
45.0
 42
45.0
 50
180.0
 43
45.0
  0
LINE
  8
SUNPOU
 10
4232.789889
 20
6180.450101
 30
0.0
 11
5512.789889
 21
6180.450101
 31
0.0
  0
LINE
  8
SUNPOU
 10
5512.789889
 20
6007.849844
 30
0.0
 11
5512.789889
 21
6210.450101
 31
0.0
  0
LINE
  8
SUNPOU
 10
4232.789889
 20
6007.849844
 30
0.0
 11
4232.789889
 21
6210.450101
 31
0.0
  0
TEXT
  8
SUNPOU
 10
4754.218475
 20
6093.166636
 30
0.0
 40
60.0
  1
1266
  7
K
 72
     1
 11
4872.789903
 21
6093.166636
 31
0.0
  0
INSERT
  8
SUNPOU
  2
ARROWANG
 10
5505.789889
 20
6048.166636
 30
0.0
 41
45.0
 42
45.0
 43
45.0
  0
INSERT
  8
SUNPOU
  2
ARROWANG
 10
4239.789889
 20
6048.166636
 30
0.0
 41
45.0
 42
45.0
 50
180.0
 43
45.0
  0
LINE
  8
SUNPOU
 10
4239.789889
 20
6048.166636
 30
0.0
 11
5505.789889
 21
6048.166636
 31
0.0
  0
LINE
  8
SUNPOU
 10
5505.789889
 20
5984.849844
 30
0.0
 11
5505.789889
 21
6078.166636
 31
0.0
  0
LINE
  8
SUNPOU
 10
4239.789889
 20
5984.849844
 30
0.0
 11
4239.789889
 21
6078.166636
 31
0.0
  0
LINE
  8
JISSEN
 10
4272.789889
 20
4902.849844
 30
0.0
 11
4392.789889
 21
4902.849844
 31
0.0
  0
LINE
  8
ITTEN
 10
4222.789889
 20
4912.849844
 30
0.0
 11
4452.789889
 21
4912.849844
 31
0.0
  0
LINE
  8
JISSEN
 10
4272.789889
 20
4922.849844
 30
0.0
 11
4392.789889
 21
4922.849844
 31
0.0
  0
ARC
  8
JISSEN
 10
4392.789889
 20
4912.849844
 30
0.0
 40
10.0
 50
270.0
 51
90.0
  0
LINE
  8
JISSEN
 10
4272.789889
 20
5202.849844
 30
0.0
 11
4392.789889
 21
5202.849844
 31
0.0
  0
LINE
  8
ITTEN
 10
4222.789889
 20
5212.849844
 30
0.0
 11
4452.789889
 21
5212.849844
 31
0.0
  0
LINE
  8
JISSEN
 10
4272.789889
 20
5222.849844
 30
0.0
 11
4392.789889
 21
5222.849844
 31
0.0
  0
ARC
  8
JISSEN
 10
4392.789889
 20
5212.849844
 30
0.0
 40
10.0
 50
270.0
 51
90.0
  0
LINE
  8
JISSEN
 10
4272.789889
 20
5502.849844
 30
0.0
 11
4392.789889
 21
5502.849844
 31
0.0
  0
LINE
  8
ITTEN
 10
4222.789889
 20
5512.849844
 30
0.0
 11
4452.789889
 21
5512.849844
 31
0.0
  0
LINE
  8
JISSEN
 10
4272.789889
 20
5522.849844
 30
0.0
 11
4392.789889
 21
5522.849844
 31
0.0
  0
ARC
  8
JISSEN
 10
4392.789889
 20
5512.849844
 30
0.0
 40
10.0
 50
270.0
 51
90.0
  0
LINE
  8
ITTEN
 10
4222.789889
 20
5812.849844
 30
0.0
 11
4452.789889
 21
5812.849844
 31
0.0
  0
LINE
  8
JISSEN
 10
4272.789889
 20
5802.849844
 30
0.0
 11
4392.789889
 21
5802.849844
 31
0.0
  0
LINE
  8
JISSEN
 10
4272.789889
 20
5822.849844
 30
0.0
 11
4392.789889
 21
5822.849844
 31
0.0
  0
ARC
  8
JISSEN
 10
4392.789889
 20
5812.849844
 30
0.0
 40
10.0
 50
270.0
 51
90.0
  0
LINE
  8
JISSEN
 10
5572.789889
 20
3877.849844
 30
0.0
 11
5572.789889
 21
5977.849844
 31
0.0
  0
LINE
  8
JISSEN
 10
4172.789889
 20
3877.849844
 30
0.0
 11
4172.789889
 21
5977.849844
 31
0.0
  0
LINE
  8
HASEN
 10
5472.789889
 20
5954.849844
 30
0.0
 11
5472.789889
 21
3862.849844
 31
0.0
  0
LINE
  8
JISSEN
 10
4272.789889
 20
5954.849844
 30
0.0
 11
4272.789889
 21
3862.849844
 31
0.0
  0
LINE
  8
JISSEN
 10
5572.789889
 20
5977.849844
 30
0.0
 11
5512.789889
 21
5977.849844
 31
0.0
  0
LINE
  8
HASEN
 10
5512.789889
 20
5977.849844
 30
0.0
 11
5505.789889
 21
5954.849844
 31
0.0
  0
LINE
  8
HASEN
 10
5505.789889
 20
5954.849844
 30
0.0
 11
4872.789889
 21
5954.849844
 31
0.0
  0
LINE
  8
JISSEN
 10
5512.789889
 20
5977.849844
 30
0.0
 11
4872.789889
 21
5977.849844
 31
0.0
  0
LINE
  8
JISSEN
 10
4232.789889
 20
5977.849844
 30
0.0
 11
4872.789889
 21
5977.849844
 31
0.0
  0
LINE
  8
JISSEN
 10
4239.789889
 20
5954.849844
 30
0.0
 11
4872.789889
 21
5954.849844
 31
0.0
  0
LINE
  8
JISSEN
 10
4232.789889
 20
5977.849844
 30
0.0
 11
4239.789889
 21
5954.849844
 31
0.0
  0
LINE
  8
JISSEN
 10
4172.789889
 20
5977.849844
 30
0.0
 11
4232.789889
 21
5977.849844
 31
0.0
  0
LINE
  8
JISSEN
 10
4872.789889
 20
3877.849844
 30
0.0
 11
5511.789889
 21
3877.849844
 31
0.0
  0
LINE
  8
JISSEN
 10
5500.789889
 20
3862.849844
 30
0.0
 11
4872.789889
 21
3862.849844
 31
0.0
  0
LINE
  8
JISSEN
 10
5511.789889
 20
3877.849844
 30
0.0
 11
5500.789889
 21
3862.849844
 31
0.0
  0
LINE
  8
JISSEN
 10
5572.789889
 20
3877.849844
 30
0.0
 11
5511.789889
 21
3877.849844
 31
0.0
  0
LINE
  8
JISSEN
 10
4244.789889
 20
3862.849844
 30
0.0
 11
4872.789889
 21
3862.849844
 31
0.0
  0
LINE
  8
JISSEN
 10
4233.789889
 20
3877.849844
 30
0.0
 11
4244.789889
 21
3862.849844
 31
0.0
  0
LINE
  8
JISSEN
 10
4172.789889
 20
3877.849844
 30
0.0
 11
4233.789889
 21
3877.849844
 31
0.0
  0
LINE
  8
ITTEN
 10
4872.789889
 20
6027.849844
 30
0.0
 11
4872.789889
 21
3812.849844
 31
0.0
  0
LINE
  8
SUNPOU
 10
4142.789889
 20
3877.849844
 30
0.0
 11
3844.138629
 21
3877.849844
 31
0.0
  0
LINE
  8
SUNPOU
 10
4142.789889
 20
5977.849844
 30
0.0
 11
3844.138629
 21
5977.849844
 31
0.0
  0
LINE
  8
SUNPOU
 10
3874.138629
 20
3877.849844
 30
0.0
 11
3874.138629
 21
5977.849844
 31
0.0
  0
INSERT
  8
SUNPOU
  2
ARROWANG
 10
3874.138629
 20
3877.849844
 30
0.0
 41
45.0
 42
45.0
 50
270.0
 43
45.0
  0
INSERT
  8
SUNPOU
  2
ARROWANG
 10
3874.138629
 20
5977.849844
 30
0.0
 41
45.0
 42
45.0
 50
90.0
 43
45.0
  0
TEXT
  8
SUNPOU
 10
3829.138629
 20
4813.56413
 30
0.0
 40
60.0
  1
2100
 50
90.0
  7
K
 72
     1
 11
3829.138629
 21
4927.849844
 31
0.0
  0
LINE
  8
SUNPOU
 10
3874.138629
 20
3877.849844
 30
0.0
 11
3874.138629
 21
3862.849844
 31
0.0
  0
LINE
  8
SUNPOU
 10
4214.789889
 20
3862.849844
 30
0.0
 11
3844.138629
 21
3862.849844
 31
0.0
  0
INSERT
  8
SUNPOU
  2
ARROWANG
 10
3874.138629
 20
3862.849844
 30
0.0
 41
45.0
 42
45.0
 50
90.0
 43
45.0
  0
INSERT
  8
SUNPOU
  2
ARROWANG
 10
3874.138629
 20
3877.849844
 30
0.0
 41
45.0
 42
45.0
 50
270.0
 43
45.0
  0
LINE
  8
SUNPOU
 10
3874.138629
 20
3862.849844
 30
0.0
 11
3874.138629
 21
3730.849844
 31
0.0
  0
TEXT
  8
SUNPOU
 10
3829.138629
 20
3697.135559
 30
0.0
 40
60.0
  1
15
 50
90.0
  7
K
 72
     2
 11
3829.138629
 21
3802.849844
 31
0.0
  0
LINE
  8
SUNPOU
 10
3874.138629
 20
3862.849844
 30
0.0
 11
3874.138629
 21
3772.849844
 31
0.0
  0
LINE
  8
SUNPOU
 10
3874.138629
 20
3877.849844
 30
0.0
 11
3874.138629
 21
3967.849844
 31
0.0
  0
LINE
  8
SUNPOU
 10
4209.789889
 20
5954.849844
 30
0.0
 11
3983.034088
 21
5954.849844
 31
0.0
  0
LINE
  8
SUNPOU
 10
4142.789889
 20
5977.849844
 30
0.0
 11
3983.034088
 21
5977.849844
 31
0.0
  0
LINE
  8
SUNPOU
 10
4013.034088
 20
5954.849844
 30
0.0
 11
4013.034088
 21
5977.849844
 31
0.0
  0
INSERT
  8
SUNPOU
  2
ARROWANG
 10
4013.034088
 20
5954.849844
 30
0.0
 41
45.0
 42
45.0
 50
90.0
 43
45.0
  0
INSERT
  8
SUNPOU
  2
ARROWANG
 10
4013.034088
 20
5977.849844
 30
0.0
 41
45.0
 42
45.0
 50
270.0
 43
45.0
  0
LINE
  8
SUNPOU
 10
4013.034088
 20
5977.849844
 30
0.0
 11
4013.034088
 21
6109.849844
 31
0.0
  0
LINE
  8
SUNPOU
 10
4013.034088
 20
5954.849844
 30
0.0
 11
4013.03409
 21
5864.849844
 31
0.0
  0
TEXT
  8
SUNPOU
 10
3968.034088
 20
5986.706987
 30
0.0
 40
60.0
  1
23
 50
90.0
  7
K
 72
     1
 11
3968.034088
 21
6043.849844
 31
0.0
  0
LINE
  8
SUNPOU
 10
7600.880761
 20
3133.790148
 30
0.0
 11
7510.880761
 21
3133.790148
 31
0.0
  0
LINE
  8
SUNPOU
 10
7700.880761
 20
3133.790148
 30
0.0
 11
7790.880761
 21
3133.790148
 31
0.0
  0
TEXT
  8
SUNPOU
 10
7560.880761
 20
3193.790148
 30
0.0
 40
60.0
  1
100
  7
K
 72
     4
 11
7650.880761
 21
3223.790148
 31
0.0
  0
INSERT
  8
SUNPOU
  2
ARROWANG
 10
7600.880761
 20
3133.790148
 30
0.0
 41
45.0
 42
45.0
 43
45.0
  0
INSERT
  8
SUNPOU
  2
ARROWANG
 10
7700.880761
 20
3133.790148
 30
0.0
 41
45.0
 42
45.0
 50
180.0
 43
45.0
  0
LINE
  8
SUNPOU
 10
7600.880761
 20
3133.790148
 30
0.0
 11
7700.880761
 21
3133.790148
 31
0.0
  0
TEXT
  8
SUNPOU
 10
6882.309333
 20
3178.790148
 30
0.0
 40
60.0
  1
1200
  7
K
 72
     1
 11
7000.880761
 21
3178.790148
 31
0.0
  0
INSERT
  8
SUNPOU
  2
ARROWANG
 10
7600.880761
 20
3133.790148
 30
0.0
 41
45.0
 42
45.0
 43
45.0
  0
INSERT
  8
SUNPOU
  2
ARROWANG
 10
6400.880761
 20
3133.790148
 30
0.0
 41
45.0
 42
45.0
 50
180.0
 43
45.0
  0
LINE
  8
SUNPOU
 10
6400.880761
 20
3133.790148
 30
0.0
 11
7600.880761
 21
3133.790148
 31
0.0
  0
LINE
  8
SUNPOU
 10
6300.880761
 20
3133.790148
 30
0.0
 11
6210.880761
 21
3133.790148
 31
0.0
  0
LINE
  8
SUNPOU
 10
6400.880761
 20
3133.790148
 30
0.0
 11
6490.880761
 21
3133.790148
 31
0.0
  0
TEXT
  8
SUNPOU
 10
6260.880776
 20
3178.790148
 30
0.0
 40
60.0
  1
100
  7
K
 72
     1
 11
6350.880776
 21
3178.790148
 31
0.0
  0
INSERT
  8
SUNPOU
  2
ARROWANG
 10
6300.880761
 20
3133.790148
 30
0.0
 41
45.0
 42
45.0
 43
45.0
  0
INSERT
  8
SUNPOU
  2
ARROWANG
 10
6400.880761
 20
3133.790148
 30
0.0
 41
45.0
 42
45.0
 50
180.0
 43
45.0
  0
LINE
  8
SUNPOU
 10
6300.880761
 20
3133.790148
 30
0.0
 11
6400.880761
 21
3133.790148
 31
0.0
  0
TEXT
  8
SUNPOU
 10
6882.309347
 20
3049.583043
 30
0.0
 40
60.0
  1
1280
  7
K
 72
     1
 11
7000.880776
 21
3049.583043
 31
0.0
  0
INSERT
  8
SUNPOU
  2
ARROWANG
 10
7640.880761
 20
3004.583043
 30
0.0
 41
45.0
 42
45.0
 43
45.0
  0
INSERT
  8
SUNPOU
  2
ARROWANG
 10
6360.880761
 20
3004.583043
 30
0.0
 41
45.0
 42
45.0
 50
180.0
 43
45.0
  0
LINE
  8
SUNPOU
 10
6360.880761
 20
3004.583043
 30
0.0
 11
7640.880761
 21
3004.583043
 31
0.0
  0
ARC
  8
JISSEN
 10
2262.228878
 20
2471.672404
 30
0.0
 40
10.0
 50
0.0
 51
90.0
  0
ARC
  8
JISSEN
 10
2242.228878
 20
2451.672404
 30
0.0
 40
10.0
 50
0.0
 51
90.0
  0
LINE
  8
JISSEN
 10
2242.228878
 20
2461.672404
 30
0.0
 11
2169.865357
 21
2461.672404
 31
0.0
  0
LINE
  8
JISSEN
 10
2262.228878
 20
2481.672404
 30
0.0
 11
2197.964809
 21
2481.672404
 31
0.0
  0
LINE
  8
JISSEN
 10
2272.228878
 20
2471.672404
 30
0.0
 11
2272.228878
 21
2331.672404
 31
0.0
  0
LINE
  8
ITTEN
 10
3166.560296
 20
2706.003823
 30
0.0
 11
3272.626313
 21
2812.06984
 31
0.0
  0
LINE
  8
HASEN
 10
3208.986703
 20
2734.288094
 30
0.0
 11
3244.274692
 21
2769.576083
 31
0.0
  0
LINE
  8
HASEN
 10
3208.986703
 20
2734.288094
 30
0.0
 11
3194.844567
 21
2748.43023
 31
0.0
  0
LINE
  8
HASEN
 10
3230.132557
 20
2783.718219
 30
0.0
 11
3194.844567
 21
2748.43023
 31
0.0
  0
CIRCLE
  8
JISSEN
 10
2742.228878
 20
2281.672404
 30
0.0
 40
700.0
  0
CIRCLE
  8
JISSEN
 10
2742.228878
 20
2281.672404
 30
0.0
 40
600.0
  0
CIRCLE
  8
JISSEN
 10
2742.228878
 20
2281.672404
 30
0.0
 40
633.0
  0
CIRCLE
  8
JISSEN
 10
2742.228878
 20
2281.672404
 30
0.0
 40
640.0
  0
LINE
  8
ITTEN
 10
2742.228878
 20
3031.672404
 30
0.0
 11
2742.228878
 21
1531.672404
 31
0.0
  0
LINE
  8
ITTEN
 10
3492.228878
 20
2281.672404
 30
0.0
 11
2468.166315
 21
2281.672404
 31
0.0
  0
POINT
  8
JISSEN
 10
2743.228878
 20
2281.672404
 30
0.0
  0
POINT
  8
JISSEN
 10
2742.228878
 20
2282.672404
 30
0.0
  0
LINE
  8
ITTEN
 10
2468.166315
 20
2281.672404
 30
0.0
 11
1992.228878
 21
2281.672404
 31
0.0
  0
LINE
  8
JISSEN
 10
2252.228878
 20
2281.672404
 30
0.0
 11
2252.228878
 21
2451.672404
 31
0.0
  0
LINE
  8
HASEN
 10
2240.183063
 20
2769.576083
 30
0.0
 11
2275.471052
 21
2734.288094
 31
0.0
  0
LINE
  8
HASEN
 10
2289.613188
 20
2748.43023
 30
0.0
 11
2275.471052
 21
2734.288094
 31
0.0
  0
LINE
  8
HASEN
 10
2289.613188
 20
2748.43023
 30
0.0
 11
2254.325199
 21
2783.718219
 31
0.0
  0
LINE
  8
ITTEN
 10
2317.897459
 20
2706.003823
 30
0.0
 11
2211.831442
 21
2812.06984
 31
0.0
  0
LINE
  8
HASEN
 10
2254.325199
 20
1779.62659
 30
0.0
 11
2289.613188
 21
1814.914579
 31
0.0
  0
LINE
  8
HASEN
 10
2275.471052
 20
1829.056715
 30
0.0
 11
2289.613188
 21
1814.914579
 31
0.0
  0
LINE
  8
HASEN
 10
2275.471052
 20
1829.056715
 30
0.0
 11
2240.183063
 21
1793.768725
 31
0.0
  0
LINE
  8
ITTEN
 10
2317.897459
 20
1857.340986
 30
0.0
 11
2211.831442
 21
1751.274969
 31
0.0
  0
LINE
  8
HASEN
 10
3244.274692
 20
1793.768725
 30
0.0
 11
3208.986703
 21
1829.056715
 31
0.0
  0
LINE
  8
HASEN
 10
3194.844567
 20
1814.914579
 30
0.0
 11
3208.986703
 21
1829.056715
 31
0.0
  0
LINE
  8
HASEN
 10
3194.844567
 20
1814.914579
 30
0.0
 11
3230.132557
 21
1779.62659
 31
0.0
  0
LINE
  8
ITTEN
 10
3166.560296
 20
1857.340986
 30
0.0
 11
3272.626313
 21
1751.274969
 31
0.0
  0
LINE
  8
JISSEN
 10
2272.228878
 20
2471.672404
 30
0.0
 11
2272.228878
 21
2281.672404
 31
0.0
  0
LINE
  8
JISSEN
 10
2262.228878
 20
2481.672404
 30
0.0
 11
2176.543453
 21
2481.672404
 31
0.0
  0
LINE
  8
JISSEN
 10
2262.228878
 20
2081.672404
 30
0.0
 11
2176.543453
 21
2081.672404
 31
0.0
  0
LINE
  8
JISSEN
 10
2242.228878
 20
2101.672404
 30
0.0
 11
2169.865357
 21
2101.672404
 31
0.0
  0
ARC
  8
JISSEN
 10
2242.228878
 20
2111.672404
 30
0.0
 40
10.0
 50
270.0
 51
0.0
  0
ARC
  8
JISSEN
 10
2262.228878
 20
2091.672404
 30
0.0
 40
10.0
 50
270.0
 51
0.0
  0
LINE
  8
JISSEN
 10
2272.228878
 20
2091.672404
 30
0.0
 11
2272.228878
 21
2281.672404
 31
0.0
  0
LINE
  8
JISSEN
 10
2252.228878
 20
2281.672404
 30
0.0
 11
2252.228878
 21
2111.672404
 31
0.0
  0
TEXT
  8
TEXT
 10
5596.665412
 20
6704.509797
 30
0.0
 40
120.0
  1
直　　壁
  7
K
  0
POLYLINE
  8
WAKU
 66
     1
 10
0.0
 20
0.0
 30
0.0
 70
     1
  0
VERTEX
  8
WAKU
 10
0.0
 20
0.0
 30
0.0
  0
VERTEX
  8
WAKU
 10
11850.0
 20
0.0
 30
0.0
  0
VERTEX
  8
WAKU
 10
11850.0
 20
8190.0
 30
0.0
  0
VERTEX
  8
WAKU
 10
0.0
 20
8190.0
 30
0.0
  0
SEQEND
  8
WAKU
  0
TEXT
  8
TEXT
 10
11288.46282
 20
533.03699
 30
0.0
 40
120.0
  1
1/30
  7
K
  0
ENDSEC
  0
EOF
