  0
SECTION
  2
HEADER
  9
$ACADVER
  1
AC1009
  9
$INSBASE
 10
0.0
 20
0.0
 30
0.0
  9
$EXTMIN
 10
0.0
 20
0.0
 30
0.0
  9
$EXTMAX
 10
11850.0
 20
8190.0
 30
0.0
  9
$LIMMIN
 10
0.0
 20
0.0
  9
$LIMMAX
 10
11850.0
 20
8190.0
  9
$ORTHOMODE
 70
     0
  9
$REGENMODE
 70
     1
  9
$FILLMODE
 70
     1
  9
$QTEXTMODE
 70
     0
  9
$MIRRTEXT
 70
     0
  9
$DRAGMODE
 70
     2
  9
$LTSCALE
 40
150.0
  9
$OSMODE
 70
    33
  9
$ATTMODE
 70
     1
  9
$TEXTSIZE
 40
350.0
  9
$TRACEWID
 40
0.05
  9
$TEXTSTYLE
  7
K
  9
$CLAYER
  8
TEXT
  9
$CELTYPE
  6
BYLAYER
  9
$CECOLOR
 62
   256
  9
$DIMSCALE
 40
30.0
  9
$DIMASZ
 40
1.5
  9
$DIMEXO
 40
1.0
  9
$DIMDLI
 40
6.0
  9
$DIMRND
 40
0.0
  9
$DIMDLE
 40
0.0
  9
$DIMEXE
 40
1.0
  9
$DIMTP
 40
495.0
  9
$DIMTM
 40
0.0
  9
$DIMTXT
 40
3.0
  9
$DIMCEN
 40
0.0
  9
$DIMTSZ
 40
0.0
  9
$DIMTOL
 70
     0
  9
$DIMLIM
 70
     0
  9
$DIMTIH
 70
     0
  9
$DIMTOH
 70
     0
  9
$DIMSE1
 70
     0
  9
$DIMSE2
 70
     0
  9
$DIMTAD
 70
     1
  9
$DIMZIN
 70
     8
  9
$DIMBLK
  1
ARROW
  9
$DIMASO
 70
     0
  9
$DIMSHO
 70
     0
  9
$DIMPOST
  1

  9
$DIMAPOST
  1

  9
$DIMALT
 70
     0
  9
$DIMALTD
 70
     2
  9
$DIMALTF
 40
25.4
  9
$DIMLFAC
 40
1.0
  9
$DIMTOFL
 70
     1
  9
$DIMTVP
 40
0.0
  9
$DIMTIX
 70
     1
  9
$DIMSOXD
 70
     0
  9
$DIMSAH
 70
     0
  9
$DIMBLK1
  1

  9
$DIMBLK2
  1

  9
$DIMSTYLE
  2
*UNNAMED
  9
$DIMCLRD
 70
     0
  9
$DIMCLRE
 70
     0
  9
$DIMCLRT
 70
     0
  9
$DIMTFAC
 40
1.0
  9
$DIMGAP
 40
0.09
  9
$LUNITS
 70
     2
  9
$LUPREC
 70
     2
  9
$AXISMODE
 70
     1
  9
$AXISUNIT
 10
100.0
 20
100.0
  9
$SKETCHINC
 40
0.1
  9
$FILLETRAD
 40
10.0
  9
$AUNITS
 70
     0
  9
$AUPREC
 70
     2
  9
$MENU
  1
d:stdgx5
  9
$ELEVATION
 40
0.0
  9
$PELEVATION
 40
0.0
  9
$THICKNESS
 40
0.0
  9
$LIMCHECK
 70
     0
  9
$BLIPMODE
 70
     1
  9
$CHAMFERA
 40
0.0
  9
$CHAMFERB
 40
0.0
  9
$SKPOLY
 70
     0
  9
$TDCREATE
 40
2449303.460381944
  9
$TDUPDATE
 40
2450246.685729166
  9
$TDINDWG
 40
0.3220138889
  9
$TDUSRTIMER
 40
0.3220138889
  9
$USRTIMER
 70
     1
  9
$ANGBASE
 50
0.0
  9
$ANGDIR
 70
     0
  9
$PDMODE
 70
     0
  9
$PDSIZE
 40
0.0
  9
$PLINEWID
 40
0.0
  9
$COORDS
 70
     2
  9
$SPLFRAME
 70
     0
  9
$SPLINETYPE
 70
     6
  9
$SPLINESEGS
 70
     8
  9
$ATTDIA
 70
     0
  9
$ATTREQ
 70
     1
  9
$HANDLING
 70
     0
  9
$HANDSEED
  5
0
  9
$SURFTAB1
 70
     6
  9
$SURFTAB2
 70
     6
  9
$SURFTYPE
 70
     6
  9
$SURFU
 70
     6
  9
$SURFV
 70
     6
  9
$UCSNAME
  2

  9
$UCSORG
 10
0.0
 20
0.0
 30
0.0
  9
$UCSXDIR
 10
1.0
 20
0.0
 30
0.0
  9
$UCSYDIR
 10
0.0
 20
1.0
 30
0.0
  9
$PUCSNAME
  2

  9
$PUCSORG
 10
0.0
 20
0.0
 30
0.0
  9
$PUCSXDIR
 10
1.0
 20
0.0
 30
0.0
  9
$PUCSYDIR
 10
0.0
 20
1.0
 30
0.0
  9
$USERI1
 70
     3
  9
$USERI2
 70
    33
  9
$USERI3
 70
     0
  9
$USERI4
 70
     1
  9
$USERI5
 70
     0
  9
$USERR1
 40
30.0
  9
$USERR2
 40
3.0
  9
$USERR3
 40
3.0
  9
$USERR4
 40
1.5
  9
$USERR5
 40
10.0
  9
$WORLDVIEW
 70
     1
  9
$SHADEDGE
 70
     3
  9
$SHADEDIF
 70
    70
  9
$TILEMODE
 70
     1
  9
$MAXACTVP
 70
    16
  9
$PINSBASE
 10
0.0
 20
0.0
 30
0.0
  9
$PLIMCHECK
 70
     0
  9
$PEXTMIN
 10
1.000000E+20
 20
1.000000E+20
 30
1.000000E+20
  9
$PEXTMAX
 10
-1.000000E+20
 20
-1.000000E+20
 30
-1.000000E+20
  9
$PLIMMIN
 10
0.0
 20
0.0
  9
$PLIMMAX
 10
12.0
 20
9.0
  9
$UNITMODE
 70
     0
  9
$VISRETAIN
 70
     0
  0
ENDSEC
  0
SECTION
  2
TABLES
  0
TABLE
  2
VPORT
 70
    10
  0
VPORT
  2
*ACTIVE
 70
     0
 10
0.0
 20
0.0
 11
1.0
 21
1.0
 12
6691.515737
 22
4095.0
 13
0.0
 23
0.0
 14
1.0
 24
1.0
 15
10.0
 25
10.0
 16
0.0
 26
0.0
 36
1.0
 17
0.0
 27
0.0
 37
0.0
 40
8190.0
 41
1.63407
 42
50.0
 43
0.0
 44
0.0
 50
0.0
 51
0.0
 71
     0
 72
   500
 73
     1
 74
     0
 75
     0
 76
     0
 77
     0
 78
     0
  0
VPORT
  2
2
 70
     0
 10
0.5
 20
0.0
 11
1.0
 21
1.0
 12
0.924031
 22
1.052651
 13
0.0
 23
0.0
 14
1.0
 24
1.0
 15
10.0
 25
10.0
 16
0.0
 26
0.0
 36
1.0
 17
0.0
 27
0.0
 37
0.0
 40
2.105302
 41
0.877814
 42
50.0
 43
0.0
 44
0.0
 50
0.0
 51
0.0
 71
     0
 72
   500
 73
     1
 74
     1
 75
     0
 76
     0
 77
     0
 78
     0
  0
VPORT
  2
2
 70
     0
 10
0.0
 20
0.0
 11
0.5
 21
1.0
 12
0.924031
 22
1.052651
 13
0.0
 23
0.0
 14
1.0
 24
1.0
 15
10.0
 25
10.0
 16
0.0
 26
0.0
 36
1.0
 17
0.0
 27
0.0
 37
0.0
 40
2.105302
 41
0.877814
 42
50.0
 43
0.0
 44
0.0
 50
0.0
 51
0.0
 71
     0
 72
   500
 73
     1
 74
     1
 75
     0
 76
     0
 77
     0
 78
     0
  0
VPORT
  2
3
 70
     0
 10
0.0
 20
0.5
 11
1.0
 21
1.0
 12
2.83217
 22
1.052651
 13
0.0
 23
0.0
 14
1.0
 24
1.0
 15
10.0
 25
10.0
 16
0.0
 26
0.0
 36
1.0
 17
0.0
 27
0.0
 37
0.0
 40
2.105302
 41
3.571429
 42
50.0
 43
0.0
 44
0.0
 50
0.0
 51
0.0
 71
     0
 72
   500
 73
     1
 74
     1
 75
     0
 76
     0
 77
     0
 78
     0
  0
VPORT
  2
3
 70
     0
 10
0.0
 20
0.0
 11
1.0
 21
0.5
 12
2.856742
 22
1.052651
 13
0.0
 23
0.0
 14
1.0
 24
1.0
 15
10.0
 25
10.0
 16
0.0
 26
0.0
 36
1.0
 17
0.0
 27
0.0
 37
0.0
 40
2.105302
 41
3.594771
 42
50.0
 43
0.0
 44
0.0
 50
0.0
 51
0.0
 71
     0
 72
   500
 73
     1
 74
     1
 75
     0
 76
     0
 77
     0
 78
     0
  0
VPORT
  2
4
 70
     0
 10
0.5
 20
0.0
 11
1.0
 21
0.5
 12
2.886858
 22
1.052651
 13
0.0
 23
0.0
 14
1.0
 24
1.0
 15
10.0
 25
10.0
 16
0.0
 26
0.0
 36
1.0
 17
0.0
 27
0.0
 37
0.0
 40
4.275207
 41
1.784314
 42
50.0
 43
0.0
 44
0.0
 50
0.0
 51
0.0
 71
     0
 72
   500
 73
     1
 74
     1
 75
     0
 76
     0
 77
     0
 78
     0
  0
VPORT
  2
4
 70
     0
 10
0.5
 20
0.5
 11
1.0
 21
1.0
 12
2.86209
 22
1.052651
 13
0.0
 23
0.0
 14
1.0
 24
1.0
 15
10.0
 25
10.0
 16
0.0
 26
0.0
 36
1.0
 17
0.0
 27
0.0
 37
0.0
 40
4.275207
 41
1.772727
 42
50.0
 43
0.0
 44
0.0
 50
0.0
 51
0.0
 71
     0
 72
   500
 73
     1
 74
     1
 75
     0
 76
     0
 77
     0
 78
     0
  0
VPORT
  2
4
 70
     0
 10
0.0
 20
0.5
 11
0.5
 21
1.0
 12
2.86209
 22
1.052651
 13
0.0
 23
0.0
 14
1.0
 24
1.0
 15
10.0
 25
10.0
 16
0.0
 26
0.0
 36
1.0
 17
0.0
 27
0.0
 37
0.0
 40
4.275207
 41
1.772727
 42
50.0
 43
0.0
 44
0.0
 50
0.0
 51
0.0
 71
     0
 72
   500
 73
     1
 74
     1
 75
     0
 76
     0
 77
     0
 78
     0
  0
VPORT
  2
4
 70
     0
 10
0.0
 20
0.0
 11
0.5
 21
0.5
 12
2.886858
 22
1.052651
 13
0.0
 23
0.0
 14
1.0
 24
1.0
 15
10.0
 25
10.0
 16
0.0
 26
0.0
 36
1.0
 17
0.0
 27
0.0
 37
0.0
 40
4.275207
 41
1.784314
 42
50.0
 43
0.0
 44
0.0
 50
0.0
 51
0.0
 71
     0
 72
   500
 73
     1
 74
     1
 75
     0
 76
     0
 77
     0
 78
     0
  0
ENDTAB
  0
TABLE
  2
LTYPE
 70
     5
  0
LTYPE
  2
CONTINUOUS
 70
    64
  3
実線
 72
    65
 73
     0
 40
0.0
  0
LTYPE
  2
DASHED
 70
    64
  3
__ __ __ __ __ __ __ __ __ __ __ __ __ __ __
 72
    65
 73
     2
 40
0.75
 49
0.5
 49
-0.25
  0
LTYPE
  2
CENTER
 70
    64
  3
____ _ ____ _ ____ _ ____ _ ____ _ ____ _ ____
 72
    65
 73
     4
 40
2.0
 49
1.25
 49
-0.25
 49
0.25
 49
-0.25
  0
LTYPE
  2
PHANTOM
 70
    64
  3
_____ _ _ _____ _ _ _____ _ _ _____ _ _ ____
 72
    65
 73
     6
 40
2.5
 49
1.25
 49
-0.25
 49
0.25
 49
-0.25
 49
0.25
 49
-0.25
  0
LTYPE
  2
HIDDEN
 70
    64
  3
_ _ _ _ _ _ _ _ _ _ _ _ _ _ _ _ _ _ _ _ _ _ _
 72
    65
 73
     2
 40
0.375
 49
0.25
 49
-0.125
  0
ENDTAB
  0
TABLE
  2
LAYER
 70
    14
  0
LAYER
  2
0
 70
     0
 62
     7
  6
CONTINUOUS
  0
LAYER
  2
HASEN
 70
    64
 62
     2
  6
DASHED
  0
LAYER
  2
ITTEN
 70
    64
 62
     1
  6
CENTER
  0
LAYER
  2
SUNPOU
 70
    64
 62
     3
  6
CONTINUOUS
  0
LAYER
  2
TEXT
 70
    64
 62
     3
  6
CONTINUOUS
  0
LAYER
  2
SAISEN
 70
    64
 62
     4
  6
CONTINUOUS
  0
LAYER
  2
JISSEN
 70
    64
 62
     7
  6
CONTINUOUS
  0
LAYER
  2
WAKU
 70
    64
 62
    -5
  6
CONTINUOUS
  0
ENDTAB
  0
TABLE
  2
STYLE
 70
     2
  0
STYLE
  2
STANDARD
 70
     0
 40
0.0
 41
1.0
 50
0.0
 71
     0
 42
0.2
  3
ROMANS
  4
EXTFONT
  0
STYLE
  2
K
 70
    64
 40
0.0
 41
1.0
 50
0.0
 71
     0
 42
350.0
  3
ROMANS
  4
EXTFONT
  0
ENDTAB
  0
TABLE
  2
VIEW
 70
     0
  0
ENDTAB
  0
TABLE
  2
UCS
 70
     0
  0
ENDTAB
  0
TABLE
  2
APPID
 70
     1
  0
APPID
  2
ACAD
 70
    64
  0
ENDTAB
  0
TABLE
  2
DIMSTYLE
 70
     0
  0
ENDTAB
  0
ENDSEC
  0
SECTION
  2
BLOCKS
  0
BLOCK
  8
SUNPOU
  2
ARROWANG
 70
    64
 10
0.0
 20
0.0
 30
0.0
  3
ARROWANG
  0
LINE
  8
SUNPOU
 10
0.0
 20
0.0
 30
0.0
 11
-1.5
 21
0.401924
 31
0.0
  0
LINE
  8
SUNPOU
 10
0.0
 20
0.0
 30
0.0
 11
-1.5
 21
-0.401924
 31
0.0
  0
ENDBLK
  8
SUNPOU
  0
ENDSEC
  0
SECTION
  2
ENTITIES
  0
TEXT
  8
JISSEN
 10
2740.152288
 20
7763.297
 30
0.0
 40
300.0
  1
組立マンホール構造図（内径１２００ｍｍ）
  7
K
  0
TEXT
  8
TEXT
 10
3631.880393
 20
3726.648539
 30
0.0
 40
90.0
  1
Ｍ２Ｔ３１２
  7
K
  0
TEXT
  8
TEXT
 10
8028.916338
 20
3246.83553
 30
0.0
 40
90.0
  1
Ｍ２ＴＰ
  7
K
  0
TEXT
  8
TEXT
 10
9859.778925
 20
5511.902533
 30
0.0
 40
90.0
  1
Ｍ２Ｔ６９
  7
K
  0
TEXT
  8
TEXT
 10
9815.884749
 20
7199.969394
 30
0.0
 40
90.0
  1
Ｍ２Ｔ４９
  7
K
  0
TEXT
  8
TEXT
 10
7786.657941
 20
7195.16954
 30
0.0
 40
90.0
  1
Ｍ２Ｔ３９
  7
K
  0
TEXT
  8
TEXT
 10
5524.116246
 20
7212.29338
 30
0.0
 40
90.0
  1
Ｍ２Ｔ６６
  7
K
  0
TEXT
  8
TEXT
 10
3360.166706
 20
7217.748059
 30
0.0
 40
90.0
  1
Ｍ２Ｔ４６
  7
K
  0
TEXT
  8
TEXT
 10
1302.754257
 20
7182.184609
 30
0.0
 40
90.0
  1
Ｍ２Ｔ３６
  7
K
  0
TEXT
  8
SUNPOU
 10
3871.52663
 20
1347.391619
 30
0.0
 40
60.0
  1
%%C1200
 50
325.91153
  7
K
 72
     1
 11
3985.104661
 21
1270.526841
 31
0.0
  0
INSERT
  8
SUNPOU
  2
ARROWANG
 10
3462.979521
 20
1569.542456
 30
0.0
 41
45.0
 42
45.0
 50
145.91153
 43
45.0
  0
INSERT
  8
SUNPOU
  2
ARROWANG
 10
4456.78729
 20
896.975643
 30
0.0
 41
45.0
 42
45.0
 50
325.91153
 43
45.0
  0
LINE
  8
SUNPOU
 10
4456.78729
 20
896.975643
 30
0.0
 11
3462.979521
 21
1569.542456
 31
0.0
  0
TEXT
  8
SUNPOU
 10
4100.288368
 20
1483.616192
 30
0.0
 40
60.0
  1
675
 50
90.0
  7
K
 72
     1
 11
4100.288368
 21
1570.759049
 31
0.0
  0
INSERT
  8
SUNPOU
  2
ARROWANG
 10
4145.288368
 20
1908.259049
 30
0.0
 41
45.0
 42
45.0
 50
90.0
 43
45.0
  0
INSERT
  8
SUNPOU
  2
ARROWANG
 10
4145.288368
 20
1233.259049
 30
0.0
 41
45.0
 42
45.0
 50
270.0
 43
45.0
  0
LINE
  8
SUNPOU
 10
4145.288368
 20
1233.259049
 30
0.0
 11
4145.288368
 21
1908.259049
 31
0.0
  0
LINE
  8
SUNPOU
 10
3989.883406
 20
1908.259049
 30
0.0
 11
4175.288368
 21
1908.259049
 31
0.0
  0
LINE
  8
SUNPOU
 10
3989.883406
 20
1233.259049
 30
0.0
 11
4175.288368
 21
1233.259049
 31
0.0
  0
CIRCLE
  8
JISSEN
 10
4437.180483
 20
1710.556127
 30
0.0
 40
12.5
  0
CIRCLE
  8
JISSEN
 10
4634.883406
 20
1233.259049
 30
0.0
 40
12.5
  0
CIRCLE
  8
JISSEN
 10
4437.180483
 20
755.961972
 30
0.0
 40
12.5
  0
CIRCLE
  8
JISSEN
 10
3959.883406
 20
558.259049
 30
0.0
 40
12.5
  0
CIRCLE
  8
JISSEN
 10
3482.586328
 20
755.961972
 30
0.0
 40
12.5
  0
CIRCLE
  8
JISSEN
 10
3284.883406
 20
1233.259049
 30
0.0
 40
12.5
  0
CIRCLE
  8
JISSEN
 10
3482.586328
 20
1710.556127
 30
0.0
 40
12.5
  0
CIRCLE
  8
JISSEN
 10
3959.883406
 20
1908.259049
 30
0.0
 40
12.5
  0
LINE
  8
JISSEN
 10
4659.883406
 20
2871.115699
 30
0.0
 11
3959.883406
 21
2871.115699
 31
0.0
  0
LINE
  8
JISSEN
 10
4709.883406
 20
2921.115699
 30
0.0
 11
3959.883406
 21
2921.115699
 31
0.0
  0
TEXT
  8
SUNPOU
 10
4768.847082
 20
2647.972842
 30
0.0
 40
60.0
  1
40
 50
90.0
  7
K
 72
     1
 11
4768.847082
 21
2705.115699
 31
0.0
  0
LINE
  8
SUNPOU
 10
4813.847082
 20
2811.115699
 30
0.0
 11
4813.847082
 21
2901.115699
 31
0.0
  0
LINE
  8
SUNPOU
 10
4813.847082
 20
2771.115699
 30
0.0
 11
4813.847082
 21
2639.115699
 31
0.0
  0
INSERT
  8
SUNPOU
  2
ARROWANG
 10
4813.847082
 20
2811.115699
 30
0.0
 41
45.0
 42
45.0
 50
270.0
 43
45.0
  0
INSERT
  8
SUNPOU
  2
ARROWANG
 10
4813.847082
 20
2771.115699
 30
0.0
 41
45.0
 42
45.0
 50
90.0
 43
45.0
  0
LINE
  8
SUNPOU
 10
4813.847082
 20
2771.115699
 30
0.0
 11
4813.847082
 21
2811.115699
 31
0.0
  0
LINE
  8
SUNPOU
 10
4479.727718
 20
2811.115699
 30
0.0
 11
4843.847082
 21
2811.115699
 31
0.0
  0
LINE
  8
SUNPOU
 10
4684.752971
 20
2771.115699
 30
0.0
 11
4843.847082
 21
2771.115699
 31
0.0
  0
CIRCLE
  8
SAISEN
 10
4449.727718
 20
2811.115699
 30
0.0
 40
12.5
  0
CIRCLE
  8
SAISEN
 10
3459.778224
 20
2811.115699
 30
0.0
 40
12.5
  0
CIRCLE
  8
JISSEN
 10
3959.883406
 20
1233.259049
 30
0.0
 40
750.0
  0
TEXT
  8
SUNPOU
 10
3841.311992
 20
3605.012391
 30
0.0
 40
60.0
  1
1500
  7
K
 72
     1
 11
3959.88342
 21
3605.012391
 31
0.0
  0
INSERT
  8
SUNPOU
  2
ARROWANG
 10
4709.883406
 20
3560.012391
 30
0.0
 41
45.0
 42
45.0
 43
45.0
  0
INSERT
  8
SUNPOU
  2
ARROWANG
 10
3209.883406
 20
3560.012391
 30
0.0
 41
45.0
 42
45.0
 50
180.0
 43
45.0
  0
LINE
  8
SUNPOU
 10
3209.883406
 20
3560.012391
 30
0.0
 11
4709.883406
 21
3560.012391
 31
0.0
  0
LINE
  8
SUNPOU
 10
4709.883406
 20
3433.11805
 30
0.0
 11
4709.883406
 21
3590.012391
 31
0.0
  0
LINE
  8
SUNPOU
 10
3209.883406
 20
3433.11805
 30
0.0
 11
3209.883406
 21
3590.012391
 31
0.0
  0
TEXT
  8
SUNPOU
 10
4544.883406
 20
3448.11805
 30
0.0
 40
60.0
  1
150
  7
K
 72
     1
 11
4634.883406
 21
3448.11805
 31
0.0
  0
INSERT
  8
SUNPOU
  2
ARROWANG
 10
4709.883406
 20
3403.11805
 30
0.0
 41
45.0
 42
45.0
 43
45.0
  0
INSERT
  8
SUNPOU
  2
ARROWANG
 10
4559.883406
 20
3403.11805
 30
0.0
 41
45.0
 42
45.0
 50
180.0
 43
45.0
  0
LINE
  8
SUNPOU
 10
4709.883406
 20
3101.115699
 30
0.0
 11
4709.883406
 21
3433.11805
 31
0.0
  0
LINE
  8
SUNPOU
 10
4559.883406
 20
3403.11805
 30
0.0
 11
4709.883406
 21
3403.11805
 31
0.0
  0
TEXT
  8
SUNPOU
 10
3841.311977
 20
3448.11805
 30
0.0
 40
60.0
  1
1200
  7
K
 72
     1
 11
3959.883406
 21
3448.11805
 31
0.0
  0
INSERT
  8
SUNPOU
  2
ARROWANG
 10
4559.883406
 20
3403.11805
 30
0.0
 41
45.0
 42
45.0
 43
45.0
  0
INSERT
  8
SUNPOU
  2
ARROWANG
 10
3359.883406
 20
3403.11805
 30
0.0
 41
45.0
 42
45.0
 50
180.0
 43
45.0
  0
LINE
  8
SUNPOU
 10
4559.883406
 20
3078.115699
 30
0.0
 11
4559.883406
 21
3433.11805
 31
0.0
  0
LINE
  8
SUNPOU
 10
3359.883406
 20
3403.11805
 30
0.0
 11
4559.883406
 21
3403.11805
 31
0.0
  0
TEXT
  8
SUNPOU
 10
3194.88342
 20
3448.11805
 30
0.0
 40
60.0
  1
150
  7
K
 72
     1
 11
3284.88342
 21
3448.11805
 31
0.0
  0
INSERT
  8
SUNPOU
  2
ARROWANG
 10
3359.883406
 20
3403.11805
 30
0.0
 41
45.0
 42
45.0
 43
45.0
  0
INSERT
  8
SUNPOU
  2
ARROWANG
 10
3209.883406
 20
3403.11805
 30
0.0
 41
45.0
 42
45.0
 50
180.0
 43
45.0
  0
LINE
  8
SUNPOU
 10
3209.883406
 20
3403.11805
 30
0.0
 11
3359.883406
 21
3403.11805
 31
0.0
  0
LINE
  8
SUNPOU
 10
3359.883406
 20
3078.115699
 30
0.0
 11
3359.883406
 21
3433.11805
 31
0.0
  0
LINE
  8
SUNPOU
 10
3209.883406
 20
3101.115699
 30
0.0
 11
3209.883406
 21
3433.11805
 31
0.0
  0
TEXT
  8
SUNPOU
 10
4519.883406
 20
2339.603126
 30
0.0
 40
60.0
  1
100
  7
K
 72
     1
 11
4609.883406
 21
2339.603126
 31
0.0
  0
INSERT
  8
SUNPOU
  2
ARROWANG
 10
4659.883406
 20
2294.603126
 30
0.0
 41
45.0
 42
45.0
 43
45.0
  0
INSERT
  8
SUNPOU
  2
ARROWANG
 10
4559.883406
 20
2294.603126
 30
0.0
 41
45.0
 42
45.0
 50
180.0
 43
45.0
  0
LINE
  8
SUNPOU
 10
4659.883406
 20
2741.115699
 30
0.0
 11
4659.883406
 21
2264.603126
 31
0.0
  0
LINE
  8
SUNPOU
 10
4559.883406
 20
2294.603126
 30
0.0
 11
4659.883406
 21
2294.603126
 31
0.0
  0
TEXT
  8
SUNPOU
 10
3841.311977
 20
2339.603126
 30
0.0
 40
60.0
  1
1200
  7
K
 72
     1
 11
3959.883406
 21
2339.603126
 31
0.0
  0
INSERT
  8
SUNPOU
  2
ARROWANG
 10
4559.883406
 20
2294.603126
 30
0.0
 41
45.0
 42
45.0
 43
45.0
  0
INSERT
  8
SUNPOU
  2
ARROWANG
 10
3359.883406
 20
2294.603126
 30
0.0
 41
45.0
 42
45.0
 50
180.0
 43
45.0
  0
LINE
  8
SUNPOU
 10
4559.883406
 20
2726.115699
 30
0.0
 11
4559.883406
 21
2264.603126
 31
0.0
  0
LINE
  8
SUNPOU
 10
3359.883406
 20
2294.603126
 30
0.0
 11
4559.883406
 21
2294.603126
 31
0.0
  0
TEXT
  8
SUNPOU
 10
3219.88342
 20
2339.603126
 30
0.0
 40
60.0
  1
100
  7
K
 72
     1
 11
3309.88342
 21
2339.603126
 31
0.0
  0
INSERT
  8
SUNPOU
  2
ARROWANG
 10
3359.883406
 20
2294.603126
 30
0.0
 41
45.0
 42
45.0
 43
45.0
  0
INSERT
  8
SUNPOU
  2
ARROWANG
 10
3259.883406
 20
2294.603126
 30
0.0
 41
45.0
 42
45.0
 50
180.0
 43
45.0
  0
LINE
  8
SUNPOU
 10
3259.883406
 20
2294.603126
 30
0.0
 11
3359.883406
 21
2294.603126
 31
0.0
  0
LINE
  8
SUNPOU
 10
3359.883406
 20
2726.115699
 30
0.0
 11
3359.883406
 21
2264.603126
 31
0.0
  0
LINE
  8
SUNPOU
 10
3259.883406
 20
2741.115699
 30
0.0
 11
3259.883406
 21
2264.603126
 31
0.0
  0
LINE
  8
SUNPOU
 10
2816.670779
 20
2771.115699
 30
0.0
 11
2816.670779
 21
2861.115699
 31
0.0
  0
LINE
  8
SUNPOU
 10
2816.670779
 20
2756.115699
 30
0.0
 11
2816.670779
 21
2666.115699
 31
0.0
  0
TEXT
  8
SUNPOU
 10
11187.760507
 20
6158.49026
 30
0.0
 40
60.0
  1
15
 50
90.0
  7
K
 72
     2
 11
11187.760507
 21
6264.204545
 31
0.0
  0
LINE
  8
SUNPOU
 10
2816.670779
 20
2756.115699
 30
0.0
 11
2816.670779
 21
2624.115699
 31
0.0
  0
INSERT
  8
SUNPOU
  2
ARROWANG
 10
2816.670779
 20
2771.115699
 30
0.0
 41
45.0
 42
45.0
 50
270.0
 43
45.0
  0
INSERT
  8
SUNPOU
  2
ARROWANG
 10
2816.670779
 20
2756.115699
 30
0.0
 41
45.0
 42
45.0
 50
90.0
 43
45.0
  0
LINE
  8
SUNPOU
 10
3301.883406
 20
2756.115699
 30
0.0
 11
2786.670779
 21
2756.115699
 31
0.0
  0
LINE
  8
SUNPOU
 10
2816.670779
 20
2771.115699
 30
0.0
 11
2816.670779
 21
2756.115699
 31
0.0
  0
TEXT
  8
SUNPOU
 10
2771.670779
 20
2835.401413
 30
0.0
 40
60.0
  1
300
 50
90.0
  7
K
 72
     1
 11
2771.670779
 21
2921.115699
 31
0.0
  0
INSERT
  8
SUNPOU
  2
ARROWANG
 10
2816.670779
 20
3071.115699
 30
0.0
 41
45.0
 42
45.0
 50
90.0
 43
45.0
  0
INSERT
  8
SUNPOU
  2
ARROWANG
 10
2816.670779
 20
2771.115699
 30
0.0
 41
45.0
 42
45.0
 50
270.0
 43
45.0
  0
LINE
  8
SUNPOU
 10
2816.670779
 20
2771.115699
 30
0.0
 11
2816.670779
 21
3071.115699
 31
0.0
  0
LINE
  8
SUNPOU
 10
2945.858679
 20
3071.115699
 30
0.0
 11
2786.670779
 21
3071.115699
 31
0.0
  0
LINE
  8
SUNPOU
 10
2945.858679
 20
2771.115699
 30
0.0
 11
2786.670779
 21
2771.115699
 31
0.0
  0
TEXT
  8
SUNPOU
 10
2941.750483
 20
2653.693981
 30
0.0
 40
60.0
  1
100
 50
90.0
  7
K
 72
     1
 11
2941.750483
 21
2743.693981
 31
0.0
  0
INSERT
  8
SUNPOU
  2
ARROWANG
 10
2975.858679
 20
2771.115699
 30
0.0
 41
45.0
 42
45.0
 50
270.0
 43
45.0
  0
INSERT
  8
SUNPOU
  2
ARROWANG
 10
2975.858679
 20
2871.115699
 30
0.0
 41
45.0
 42
45.0
 50
90.0
 43
45.0
  0
LINE
  8
SUNPOU
 10
3229.883406
 20
2771.115699
 30
0.0
 11
2945.858679
 21
2771.115699
 31
0.0
  0
LINE
  8
SUNPOU
 10
2975.858679
 20
2871.115699
 30
0.0
 11
2975.858679
 21
2771.115699
 31
0.0
  0
TEXT
  8
SUNPOU
 10
3066.668268
 20
2841.536475
 30
0.0
 40
60.0
  1
50
 50
90.0
  7
K
 72
     4
 11
3036.668268
 21
2898.679332
 31
0.0
  0
LINE
  8
SUNPOU
 10
3229.883406
 20
2871.115699
 30
0.0
 11
2945.858679
 21
2871.115699
 31
0.0
  0
LINE
  8
SUNPOU
 10
2975.858679
 20
2921.115699
 30
0.0
 11
2975.858679
 21
2871.115699
 31
0.0
  0
TEXT
  8
SUNPOU
 10
2930.858679
 20
2906.115699
 30
0.0
 40
60.0
  1
150
 50
90.0
  7
K
 72
     1
 11
2930.858679
 21
2996.115699
 31
0.0
  0
INSERT
  8
SUNPOU
  2
ARROWANG
 10
2975.858679
 20
3071.115699
 30
0.0
 41
45.0
 42
45.0
 50
90.0
 43
45.0
  0
INSERT
  8
SUNPOU
  2
ARROWANG
 10
2975.858679
 20
2921.115699
 30
0.0
 41
45.0
 42
45.0
 50
270.0
 43
45.0
  0
LINE
  8
SUNPOU
 10
2975.858679
 20
2921.115699
 30
0.0
 11
2975.858679
 21
3071.115699
 31
0.0
  0
LINE
  8
SUNPOU
 10
3075.722492
 20
3071.115699
 30
0.0
 11
2945.858679
 21
3071.115699
 31
0.0
  0
LINE
  8
SUNPOU
 10
3179.883406
 20
2921.115699
 30
0.0
 11
2945.858679
 21
2921.115699
 31
0.0
  0
TEXT
  8
SUNPOU
 10
3060.722492
 20
3079.972842
 30
0.0
 40
60.0
  1
23
 50
90.0
  7
K
 72
     1
 11
3060.722492
 21
3137.115699
 31
0.0
  0
LINE
  8
SUNPOU
 10
3105.722492
 20
3048.115699
 30
0.0
 11
3105.722494
 21
2958.115699
 31
0.0
  0
LINE
  8
SUNPOU
 10
3105.722492
 20
3071.115699
 30
0.0
 11
3105.722492
 21
3203.115699
 31
0.0
  0
INSERT
  8
SUNPOU
  2
ARROWANG
 10
3105.722492
 20
3071.115699
 30
0.0
 41
45.0
 42
45.0
 50
270.0
 43
45.0
  0
INSERT
  8
SUNPOU
  2
ARROWANG
 10
3105.722492
 20
3048.115699
 30
0.0
 41
45.0
 42
45.0
 50
90.0
 43
45.0
  0
LINE
  8
SUNPOU
 10
3105.722492
 20
3048.115699
 30
0.0
 11
3105.722492
 21
3071.115699
 31
0.0
  0
LINE
  8
SUNPOU
 10
3179.883406
 20
3071.115699
 30
0.0
 11
3075.722492
 21
3071.115699
 31
0.0
  0
LINE
  8
SUNPOU
 10
3296.883406
 20
3048.115699
 30
0.0
 11
3075.722492
 21
3048.115699
 31
0.0
  0
LINE
  8
JISSEN
 10
4659.883406
 20
2771.115699
 30
0.0
 11
4659.883406
 21
2871.115699
 31
0.0
  0
LINE
  8
JISSEN
 10
4709.883406
 20
2921.115699
 30
0.0
 11
4659.883406
 21
2871.115699
 31
0.0
  0
LINE
  8
JISSEN
 10
3209.883406
 20
2921.115699
 30
0.0
 11
3259.883406
 21
2871.115699
 31
0.0
  0
LINE
  8
JISSEN
 10
4709.883406
 20
3071.115699
 30
0.0
 11
4709.883406
 21
2921.115699
 31
0.0
  0
LINE
  8
JISSEN
 10
3209.883406
 20
3071.115699
 30
0.0
 11
3209.883406
 21
2921.115699
 31
0.0
  0
LINE
  8
JISSEN
 10
3469.883406
 20
1233.259049
 30
0.0
 11
3469.883406
 21
1063.259049
 31
0.0
  0
LINE
  8
JISSEN
 10
3489.883406
 20
1043.259049
 30
0.0
 11
3489.883406
 21
1233.259049
 31
0.0
  0
ARC
  8
JISSEN
 10
3479.883406
 20
1043.259049
 30
0.0
 40
10.0
 50
270.0
 51
0.0
  0
ARC
  8
JISSEN
 10
3459.883406
 20
1063.259049
 30
0.0
 40
10.0
 50
270.0
 51
0.0
  0
LINE
  8
JISSEN
 10
3459.883406
 20
1053.259049
 30
0.0
 11
3387.519885
 21
1053.259049
 31
0.0
  0
LINE
  8
JISSEN
 10
3479.883406
 20
1033.259049
 30
0.0
 11
3394.197981
 21
1033.259049
 31
0.0
  0
LINE
  8
JISSEN
 10
3479.883406
 20
1433.259049
 30
0.0
 11
3394.197981
 21
1433.259049
 31
0.0
  0
LINE
  8
JISSEN
 10
3489.883406
 20
1423.259049
 30
0.0
 11
3489.883406
 21
1233.259049
 31
0.0
  0
LINE
  8
ITTEN
 10
4384.214824
 20
808.927631
 30
0.0
 11
4490.280841
 21
702.861614
 31
0.0
  0
LINE
  8
HASEN
 10
4412.499095
 20
766.501224
 30
0.0
 11
4447.787085
 21
731.213235
 31
0.0
  0
LINE
  8
HASEN
 10
4412.499095
 20
766.501224
 30
0.0
 11
4426.641231
 21
780.64336
 31
0.0
  0
LINE
  8
HASEN
 10
4461.92922
 20
745.35537
 30
0.0
 11
4426.641231
 21
780.64336
 31
0.0
  0
LINE
  8
ITTEN
 10
3535.551987
 20
808.927631
 30
0.0
 11
3429.48597
 21
702.861614
 31
0.0
  0
LINE
  8
HASEN
 10
3493.12558
 20
780.64336
 30
0.0
 11
3457.837591
 21
745.35537
 31
0.0
  0
LINE
  8
HASEN
 10
3493.12558
 20
780.64336
 30
0.0
 11
3507.267716
 21
766.501224
 31
0.0
  0
LINE
  8
HASEN
 10
3471.979727
 20
731.213235
 30
0.0
 11
3507.267716
 21
766.501224
 31
0.0
  0
LINE
  8
ITTEN
 10
3535.551987
 20
1657.590468
 30
0.0
 11
3429.48597
 21
1763.656485
 31
0.0
  0
LINE
  8
HASEN
 10
3507.267716
 20
1700.016875
 30
0.0
 11
3471.979727
 21
1735.304864
 31
0.0
  0
LINE
  8
HASEN
 10
3507.267716
 20
1700.016875
 30
0.0
 11
3493.12558
 21
1685.874739
 31
0.0
  0
LINE
  8
HASEN
 10
3457.837591
 20
1721.162728
 30
0.0
 11
3493.12558
 21
1685.874739
 31
0.0
  0
LINE
  8
JISSEN
 10
3469.883406
 20
1233.259049
 30
0.0
 11
3469.883406
 21
1403.259049
 31
0.0
  0
LINE
  8
ITTEN
 10
3685.820843
 20
1233.259049
 30
0.0
 11
3209.883406
 21
1233.259049
 31
0.0
  0
POINT
  8
JISSEN
 10
3959.883406
 20
1234.259049
 30
0.0
  0
POINT
  8
JISSEN
 10
3960.883406
 20
1233.259049
 30
0.0
  0
LINE
  8
ITTEN
 10
4709.883406
 20
1233.259049
 30
0.0
 11
3685.820843
 21
1233.259049
 31
0.0
  0
LINE
  8
ITTEN
 10
3959.883406
 20
1983.259049
 30
0.0
 11
3959.883406
 21
483.259049
 31
0.0
  0
CIRCLE
  8
JISSEN
 10
3959.883406
 20
1233.259049
 30
0.0
 40
640.0
  0
CIRCLE
  8
JISSEN
 10
3959.883406
 20
1233.259049
 30
0.0
 40
633.0
  0
CIRCLE
  8
JISSEN
 10
3959.883406
 20
1233.259049
 30
0.0
 40
600.0
  0
CIRCLE
  8
HASEN
 10
3959.883406
 20
1233.259049
 30
0.0
 40
700.0
  0
LINE
  8
HASEN
 10
4447.787085
 20
1735.304864
 30
0.0
 11
4412.499095
 21
1700.016875
 31
0.0
  0
LINE
  8
HASEN
 10
4426.641231
 20
1685.874739
 30
0.0
 11
4412.499095
 21
1700.016875
 31
0.0
  0
LINE
  8
HASEN
 10
4426.641231
 20
1685.874739
 30
0.0
 11
4461.92922
 21
1721.162728
 31
0.0
  0
LINE
  8
ITTEN
 10
4384.214824
 20
1657.590468
 30
0.0
 11
4490.280841
 21
1763.656485
 31
0.0
  0
LINE
  8
JISSEN
 10
3489.883406
 20
1423.259049
 30
0.0
 11
3489.883406
 21
1283.259049
 31
0.0
  0
LINE
  8
JISSEN
 10
3479.883406
 20
1433.259049
 30
0.0
 11
3415.619337
 21
1433.259049
 31
0.0
  0
LINE
  8
JISSEN
 10
3459.883406
 20
1413.259049
 30
0.0
 11
3387.519885
 21
1413.259049
 31
0.0
  0
ARC
  8
JISSEN
 10
3459.883406
 20
1403.259049
 30
0.0
 40
10.0
 50
0.0
 51
90.0
  0
ARC
  8
JISSEN
 10
3479.883406
 20
1423.259049
 30
0.0
 40
10.0
 50
0.0
 51
90.0
  0
LINE
  8
SUNPOU
 10
3519.883406
 20
2906.115699
 30
0.0
 11
3673.531709
 21
2906.115699
 31
0.0
  0
ARC
  8
JISSEN
 10
3479.883406
 20
2906.115699
 30
0.0
 40
10.0
 50
270.0
 51
90.0
  0
LINE
  8
JISSEN
 10
3359.883406
 20
2916.115699
 30
0.0
 11
3479.883406
 21
2916.115699
 31
0.0
  0
LINE
  8
JISSEN
 10
3359.883406
 20
2896.115699
 30
0.0
 11
3479.883406
 21
2896.115699
 31
0.0
  0
LINE
  8
ITTEN
 10
3309.883406
 20
2906.115699
 30
0.0
 11
3539.883406
 21
2906.115699
 31
0.0
  0
TEXT
  8
SUNPOU
 10
3841.311992
 20
2506.066623
 30
0.0
 40
60.0
  1
1278
  7
K
 72
     1
 11
3959.88342
 21
2506.066623
 31
0.0
  0
INSERT
  8
SUNPOU
  2
ARROWANG
 10
4598.883406
 20
2461.066623
 30
0.0
 41
45.0
 42
45.0
 43
45.0
  0
INSERT
  8
SUNPOU
  2
ARROWANG
 10
3320.883406
 20
2461.066623
 30
0.0
 41
45.0
 42
45.0
 50
180.0
 43
45.0
  0
LINE
  8
SUNPOU
 10
3320.883406
 20
2461.066623
 30
0.0
 11
4598.883406
 21
2461.066623
 31
0.0
  0
LINE
  8
SUNPOU
 10
4598.883406
 20
2741.115699
 30
0.0
 11
4598.883406
 21
2431.066623
 31
0.0
  0
LINE
  8
SUNPOU
 10
3320.883406
 20
2741.115699
 30
0.0
 11
3320.883406
 21
2431.066623
 31
0.0
  0
TEXT
  8
SUNPOU
 10
3841.311977
 20
2641.788652
 30
0.0
 40
60.0
  1
1256
  7
K
 72
     1
 11
3959.883406
 21
2641.788652
 31
0.0
  0
INSERT
  8
SUNPOU
  2
ARROWANG
 10
3331.883406
 20
2596.788652
 30
0.0
 41
45.0
 42
45.0
 50
180.0
 43
45.0
  0
INSERT
  8
SUNPOU
  2
ARROWANG
 10
4587.883406
 20
2596.788652
 30
0.0
 41
45.0
 42
45.0
 43
45.0
  0
LINE
  8
SUNPOU
 10
3331.883406
 20
2596.788652
 30
0.0
 11
4587.883406
 21
2596.788652
 31
0.0
  0
LINE
  8
SUNPOU
 10
4587.883406
 20
2726.115699
 30
0.0
 11
4587.883406
 21
2566.788652
 31
0.0
  0
LINE
  8
SUNPOU
 10
3331.883406
 20
2726.115699
 30
0.0
 11
3331.883406
 21
2566.788652
 31
0.0
  0
LINE
  8
SUNPOU
 10
4599.883406
 20
3101.115699
 30
0.0
 11
4599.883406
 21
3303.715955
 31
0.0
  0
LINE
  8
SUNPOU
 10
3319.883406
 20
3101.115699
 30
0.0
 11
3319.883406
 21
3303.715955
 31
0.0
  0
TEXT
  8
SUNPOU
 10
3841.311992
 20
3186.43249
 30
0.0
 40
60.0
  1
1266
  7
K
 72
     1
 11
3959.88342
 21
3186.43249
 31
0.0
  0
INSERT
  8
SUNPOU
  2
ARROWANG
 10
4592.883406
 20
3141.43249
 30
0.0
 41
45.0
 42
45.0
 43
45.0
  0
INSERT
  8
SUNPOU
  2
ARROWANG
 10
3326.883406
 20
3141.43249
 30
0.0
 41
45.0
 42
45.0
 50
180.0
 43
45.0
  0
LINE
  8
SUNPOU
 10
3326.883406
 20
3141.43249
 30
0.0
 11
4592.883406
 21
3141.43249
 31
0.0
  0
LINE
  8
SUNPOU
 10
4592.883406
 20
3078.115699
 30
0.0
 11
4592.883406
 21
3171.43249
 31
0.0
  0
LINE
  8
SUNPOU
 10
3326.883406
 20
3078.115699
 30
0.0
 11
3326.883406
 21
3171.43249
 31
0.0
  0
LINE
  8
JISSEN
 10
4659.883406
 20
2771.115699
 30
0.0
 11
4659.883406
 21
2871.115699
 31
0.0
  0
LINE
  8
JISSEN
 10
3259.883406
 20
2771.115699
 30
0.0
 11
3259.883406
 21
2871.115699
 31
0.0
  0
LINE
  8
HASEN
 10
4559.883406
 20
3048.115699
 30
0.0
 11
4559.883406
 21
2756.115699
 31
0.0
  0
LINE
  8
JISSEN
 10
3359.883406
 20
3048.115699
 30
0.0
 11
3359.883406
 21
2756.115699
 31
0.0
  0
LINE
  8
JISSEN
 10
4709.883406
 20
3071.115699
 30
0.0
 11
4599.883406
 21
3071.115699
 31
0.0
  0
LINE
  8
HASEN
 10
4599.883406
 20
3071.115699
 30
0.0
 11
4592.883406
 21
3048.115699
 31
0.0
  0
LINE
  8
HASEN
 10
4592.883406
 20
3048.115699
 30
0.0
 11
3959.883406
 21
3048.115699
 31
0.0
  0
LINE
  8
JISSEN
 10
4599.883406
 20
3071.115699
 30
0.0
 11
3959.883406
 21
3071.115699
 31
0.0
  0
LINE
  8
JISSEN
 10
3319.883406
 20
3071.115699
 30
0.0
 11
3959.883406
 21
3071.115699
 31
0.0
  0
LINE
  8
JISSEN
 10
3326.883406
 20
3048.115699
 30
0.0
 11
3959.883406
 21
3048.115699
 31
0.0
  0
LINE
  8
JISSEN
 10
3319.883406
 20
3071.115699
 30
0.0
 11
3326.883406
 21
3048.115699
 31
0.0
  0
LINE
  8
JISSEN
 10
3209.883406
 20
3071.115699
 30
0.0
 11
3319.883406
 21
3071.115699
 31
0.0
  0
LINE
  8
JISSEN
 10
3959.883406
 20
2771.115699
 30
0.0
 11
4598.883406
 21
2771.115699
 31
0.0
  0
LINE
  8
JISSEN
 10
4587.883406
 20
2756.115699
 30
0.0
 11
3959.883406
 21
2756.115699
 31
0.0
  0
LINE
  8
JISSEN
 10
4598.883406
 20
2771.115699
 30
0.0
 11
4587.883406
 21
2756.115699
 31
0.0
  0
LINE
  8
JISSEN
 10
4659.883406
 20
2771.115699
 30
0.0
 11
4598.883406
 21
2771.115699
 31
0.0
  0
LINE
  8
JISSEN
 10
3331.883406
 20
2756.115699
 30
0.0
 11
3959.883406
 21
2756.115699
 31
0.0
  0
LINE
  8
JISSEN
 10
3320.883406
 20
2771.115699
 30
0.0
 11
3331.883406
 21
2756.115699
 31
0.0
  0
LINE
  8
JISSEN
 10
3259.883406
 20
2771.115699
 30
0.0
 11
3320.883406
 21
2771.115699
 31
0.0
  0
LINE
  8
ITTEN
 10
3959.883406
 20
3121.115699
 30
0.0
 11
3959.883406
 21
2706.115699
 31
0.0
  0
TEXT
  8
SUNPOU
 10
3841.311992
 20
3318.715955
 30
0.0
 40
60.0
  1
1280
  7
K
 72
     1
 11
3959.88342
 21
3318.715955
 31
0.0
  0
INSERT
  8
SUNPOU
  2
ARROWANG
 10
4599.883406
 20
3273.715955
 30
0.0
 41
45.0
 42
45.0
 43
45.0
  0
INSERT
  8
SUNPOU
  2
ARROWANG
 10
3319.883406
 20
3273.715955
 30
0.0
 41
45.0
 42
45.0
 50
180.0
 43
45.0
  0
LINE
  8
SUNPOU
 10
3319.883406
 20
3273.715955
 30
0.0
 11
4599.883406
 21
3273.715955
 31
0.0
  0
LINE
  8
SUNPOU
 10
3389.883406
 20
2756.115699
 30
0.0
 11
3673.531709
 21
2756.115699
 31
0.0
  0
LINE
  8
SUNPOU
 10
3613.531709
 20
2906.115699
 30
0.0
 11
3613.531709
 21
2906.115699
 31
0.0
  0
LINE
  8
SUNPOU
 10
3643.531709
 20
2756.115699
 30
0.0
 11
3643.531709
 21
2906.115699
 31
0.0
  0
INSERT
  8
SUNPOU
  2
ARROWANG
 10
3643.531709
 20
2756.115699
 30
0.0
 41
45.0
 42
45.0
 50
270.0
 43
45.0
  0
INSERT
  8
SUNPOU
  2
ARROWANG
 10
3643.531709
 20
2906.115699
 30
0.0
 41
45.0
 42
45.0
 50
90.0
 43
45.0
  0
TEXT
  8
SUNPOU
 10
3598.531709
 20
2741.115699
 30
0.0
 40
60.0
  1
150
 50
90.0
  7
K
 72
     1
 11
3598.531709
 21
2831.115699
 31
0.0
  0
TEXT
  8
SUNPOU
 10
9893.616887
 20
4519.064801
 30
0.0
 40
60.0
  1
300
 50
90.0
  7
K
 72
     1
 11
9893.616887
 21
4604.779087
 31
0.0
  0
INSERT
  8
SUNPOU
  2
ARROWANG
 10
9932.815377
 20
4760.828766
 30
0.0
 41
45.0
 42
45.0
 50
90.0
 43
45.0
  0
INSERT
  8
SUNPOU
  2
ARROWANG
 10
9932.815377
 20
4460.828766
 30
0.0
 41
45.0
 42
45.0
 50
270.0
 43
45.0
  0
LINE
  8
SUNPOU
 10
9932.815377
 20
4460.828766
 30
0.0
 11
9932.815377
 21
4760.828766
 31
0.0
  0
LINE
  8
SUNPOU
 10
9816.835488
 20
4760.828766
 30
0.0
 11
9962.815377
 21
4760.828766
 31
0.0
  0
LINE
  8
SUNPOU
 10
9962.815377
 20
4460.828766
 30
0.0
 11
9962.815377
 21
4460.828766
 31
0.0
  0
LINE
  8
SUNPOU
 10
9318.540065
 20
4325.828766
 30
0.0
 11
9318.540065
 21
4415.828766
 31
0.0
  0
LINE
  8
SUNPOU
 10
9318.540065
 20
4310.828766
 30
0.0
 11
9318.540065
 21
4220.828766
 31
0.0
  0
TEXT
  8
SUNPOU
 10
9273.540065
 20
4145.114481
 30
0.0
 40
60.0
  1
15
 50
90.0
  7
K
 72
     2
 11
9273.540065
 21
4250.828766
 31
0.0
  0
LINE
  8
SUNPOU
 10
9318.540065
 20
4310.828766
 30
0.0
 11
9318.540065
 21
4178.828766
 31
0.0
  0
INSERT
  8
SUNPOU
  2
ARROWANG
 10
9318.540065
 20
4325.828766
 30
0.0
 41
45.0
 42
45.0
 50
270.0
 43
45.0
  0
INSERT
  8
SUNPOU
  2
ARROWANG
 10
9318.540065
 20
4310.828766
 30
0.0
 41
45.0
 42
45.0
 50
90.0
 43
45.0
  0
LINE
  8
SUNPOU
 10
9584.751826
 20
4310.828766
 30
0.0
 11
9288.540065
 21
4310.828766
 31
0.0
  0
LINE
  8
SUNPOU
 10
9318.540065
 20
4325.828766
 30
0.0
 11
9318.540065
 21
4310.828766
 31
0.0
  0
TEXT
  8
SUNPOU
 10
9273.540065
 20
4538.685909
 30
0.0
 40
60.0
  1
600
 50
90.0
  7
K
 72
     1
 11
9273.540065
 21
4625.828766
 31
0.0
  0
INSERT
  8
SUNPOU
  2
ARROWANG
 10
9318.540065
 20
4925.828766
 30
0.0
 41
45.0
 42
45.0
 50
90.0
 43
45.0
  0
INSERT
  8
SUNPOU
  2
ARROWANG
 10
9318.540065
 20
4325.828766
 30
0.0
 41
45.0
 42
45.0
 50
270.0
 43
45.0
  0
LINE
  8
SUNPOU
 10
9318.540065
 20
4325.828766
 30
0.0
 11
9318.540065
 21
4925.828766
 31
0.0
  0
LINE
  8
SUNPOU
 10
9409.102673
 20
4925.828766
 30
0.0
 11
9288.540065
 21
4925.828766
 31
0.0
  0
LINE
  8
SUNPOU
 10
9512.751826
 20
4325.828766
 30
0.0
 11
9288.540065
 21
4325.828766
 31
0.0
  0
LINE
  8
ITTEN
 10
10102.021581
 20
4974.663814
 30
0.0
 11
10258.612507
 21
4261.993719
 31
0.0
  0
LINE
  8
HASEN
 10
10842.751826
 20
4310.828766
 30
0.0
 11
10562.751826
 21
4882.828766
 31
0.0
  0
LINE
  8
JISSEN
 10
9647.882261
 20
4310.828766
 30
0.0
 11
9662.751826
 21
4882.828766
 31
0.0
  0
LINE
  8
JISSEN
 10
10682.751826
 20
4925.828766
 30
0.0
 11
10942.751826
 21
4365.828766
 31
0.0
  0
LINE
  8
SUNPOU
 10
11101.845937
 20
6229.204545
 30
0.0
 11
11101.845937
 21
6319.204545
 31
0.0
  0
INSERT
  8
SUNPOU
  2
ARROWANG
 10
11101.845937
 20
6229.204545
 30
0.0
 41
45.0
 42
45.0
 50
270.0
 43
45.0
  0
TEXT
  8
SUNPOU
 10
9394.102673
 20
4934.685909
 30
0.0
 40
60.0
  1
23
 50
90.0
  7
K
 72
     1
 11
9394.102673
 21
4991.828766
 31
0.0
  0
LINE
  8
SUNPOU
 10
9439.102673
 20
4902.828766
 30
0.0
 11
9439.102675
 21
4812.828766
 31
0.0
  0
LINE
  8
SUNPOU
 10
9439.102673
 20
4925.828766
 30
0.0
 11
9439.102673
 21
5057.828766
 31
0.0
  0
INSERT
  8
SUNPOU
  2
ARROWANG
 10
9439.102673
 20
4925.828766
 30
0.0
 41
45.0
 42
45.0
 50
270.0
 43
45.0
  0
INSERT
  8
SUNPOU
  2
ARROWANG
 10
9439.102673
 20
4902.828766
 30
0.0
 41
45.0
 42
45.0
 50
90.0
 43
45.0
  0
LINE
  8
SUNPOU
 10
9439.102673
 20
4902.828766
 30
0.0
 11
9439.102673
 21
4925.828766
 31
0.0
  0
LINE
  8
SUNPOU
 10
9597.751826
 20
4925.828766
 30
0.0
 11
9409.102673
 21
4925.828766
 31
0.0
  0
LINE
  8
SUNPOU
 10
9604.751826
 20
4902.828766
 30
0.0
 11
9409.102673
 21
4902.828766
 31
0.0
  0
TEXT
  8
SUNPOU
 10
9955.215311
 20
5381.151275
 30
0.0
 40
60.0
  1
1140
  7
K
 72
     1
 11
10073.78674
 21
5381.151275
 31
0.0
  0
INSERT
  8
SUNPOU
  2
ARROWANG
 10
10682.751826
 20
5355.788691
 30
0.0
 41
45.0
 42
45.0
 43
45.0
  0
INSERT
  8
SUNPOU
  2
ARROWANG
 10
9542.751826
 20
5355.788691
 30
0.0
 41
45.0
 42
45.0
 50
180.0
 43
45.0
  0
LINE
  8
SUNPOU
 10
9542.751826
 20
5355.788691
 30
0.0
 11
10682.751826
 21
5355.788691
 31
0.0
  0
LINE
  8
SUNPOU
 10
10682.751826
 20
5229.530971
 30
0.0
 11
10682.751826
 21
5385.788691
 31
0.0
  0
LINE
  8
SUNPOU
 10
9542.751826
 20
5229.530971
 30
0.0
 11
9542.751826
 21
5385.788691
 31
0.0
  0
TEXT
  8
SUNPOU
 10
10532.751826
 20
5244.530971
 30
0.0
 40
60.0
  1
120
  7
K
 72
     1
 11
10622.751826
 21
5244.530971
 31
0.0
  0
INSERT
  8
SUNPOU
  2
ARROWANG
 10
10682.751826
 20
5199.530971
 30
0.0
 41
45.0
 42
45.0
 43
45.0
  0
INSERT
  8
SUNPOU
  2
ARROWANG
 10
10562.751826
 20
5199.530971
 30
0.0
 41
45.0
 42
45.0
 50
180.0
 43
45.0
  0
LINE
  8
SUNPOU
 10
10682.751826
 20
4955.828766
 30
0.0
 11
10682.751826
 21
5229.530971
 31
0.0
  0
LINE
  8
SUNPOU
 10
10562.751826
 20
5199.530971
 30
0.0
 11
10682.751826
 21
5199.530971
 31
0.0
  0
TEXT
  8
SUNPOU
 10
10002.741654
 20
5232.187452
 30
0.0
 40
60.0
  1
900
  7
K
 72
     1
 11
10088.45594
 21
5232.187452
 31
0.0
  0
INSERT
  8
SUNPOU
  2
ARROWANG
 10
10562.751826
 20
5199.530971
 30
0.0
 41
45.0
 42
45.0
 43
45.0
  0
INSERT
  8
SUNPOU
  2
ARROWANG
 10
9662.751826
 20
5199.530971
 30
0.0
 41
45.0
 42
45.0
 50
180.0
 43
45.0
  0
LINE
  8
SUNPOU
 10
10562.751826
 20
4912.828766
 30
0.0
 11
10562.751826
 21
5229.530971
 31
0.0
  0
LINE
  8
SUNPOU
 10
9662.751826
 20
5199.530971
 30
0.0
 11
10562.751826
 21
5199.530971
 31
0.0
  0
TEXT
  8
SUNPOU
 10
9512.751841
 20
5244.530971
 30
0.0
 40
60.0
  1
120
  7
K
 72
     1
 11
9602.751841
 21
5244.530971
 31
0.0
  0
INSERT
  8
SUNPOU
  2
ARROWANG
 10
9662.751826
 20
5199.530971
 30
0.0
 41
45.0
 42
45.0
 43
45.0
  0
INSERT
  8
SUNPOU
  2
ARROWANG
 10
9542.751826
 20
5199.530971
 30
0.0
 41
45.0
 42
45.0
 50
180.0
 43
45.0
  0
LINE
  8
SUNPOU
 10
9542.751826
 20
5199.530971
 30
0.0
 11
9662.751826
 21
5199.530971
 31
0.0
  0
LINE
  8
SUNPOU
 10
9662.751826
 20
4932.828766
 30
0.0
 11
9662.751826
 21
5229.530971
 31
0.0
  0
LINE
  8
SUNPOU
 10
9542.751826
 20
4955.828766
 30
0.0
 11
9542.751826
 21
5229.530971
 31
0.0
  0
TEXT
  8
SUNPOU
 10
10010.076276
 20
5117.168305
 30
0.0
 40
60.0
  1
970
  7
K
 72
     1
 11
10095.790562
 21
5117.168305
 31
0.0
  0
INSERT
  8
SUNPOU
  2
ARROWANG
 10
10597.751826
 20
5099.099617
 30
0.0
 41
45.0
 42
45.0
 43
45.0
  0
INSERT
  8
SUNPOU
  2
ARROWANG
 10
9627.751826
 20
5099.099617
 30
0.0
 41
45.0
 42
45.0
 50
180.0
 43
45.0
  0
LINE
  8
SUNPOU
 10
9627.751826
 20
5099.099617
 30
0.0
 11
10597.751826
 21
5099.099617
 31
0.0
  0
LINE
  8
SUNPOU
 10
10597.751826
 20
4955.828766
 30
0.0
 11
10597.751826
 21
5129.099617
 31
0.0
  0
LINE
  8
SUNPOU
 10
9627.751826
 20
4955.828766
 30
0.0
 11
9627.751826
 21
5129.099617
 31
0.0
  0
TEXT
  8
SUNPOU
 10
10013.044635
 20
5012.248399
 30
0.0
 40
60.0
  1
956
  7
K
 72
     1
 11
10098.758921
 21
5012.248399
 31
0.0
  0
INSERT
  8
SUNPOU
  2
ARROWANG
 10
9634.751826
 20
4981.836193
 30
0.0
 41
45.0
 42
45.0
 50
180.0
 43
45.0
  0
INSERT
  8
SUNPOU
  2
ARROWANG
 10
10590.751826
 20
4981.836193
 30
0.0
 41
45.0
 42
45.0
 43
45.0
  0
LINE
  8
SUNPOU
 10
9634.751826
 20
4981.836193
 30
0.0
 11
10590.751826
 21
4981.836193
 31
0.0
  0
LINE
  8
SUNPOU
 10
10590.751826
 20
4932.828766
 30
0.0
 11
10590.751826
 21
5011.836193
 31
0.0
  0
LINE
  8
SUNPOU
 10
9634.751826
 20
4932.828766
 30
0.0
 11
9634.751826
 21
5011.836193
 31
0.0
  0
LINE
  8
JISSEN
 10
10122.618493
 20
4902.828766
 30
0.0
 11
10112.751826
 21
4902.828766
 31
0.0
  0
LINE
  8
JISSEN
 10
10231.40294
 20
4385.828766
 30
0.0
 11
10942.751826
 21
4385.828766
 31
0.0
  0
LINE
  8
HASEN
 10
10562.751826
 20
4902.828766
 30
0.0
 11
10562.751826
 21
4882.828766
 31
0.0
  0
LINE
  8
HASEN
 10
10590.751826
 20
4902.828766
 30
0.0
 11
10122.618493
 21
4902.828766
 31
0.0
  0
LINE
  8
HASEN
 10
10597.751826
 20
4925.828766
 30
0.0
 11
10590.751826
 21
4902.828766
 31
0.0
  0
LINE
  8
JISSEN
 10
9634.751826
 20
4902.828766
 30
0.0
 11
10112.751826
 21
4902.828766
 31
0.0
  0
LINE
  8
JISSEN
 10
9627.751826
 20
4925.828766
 30
0.0
 11
9634.751826
 21
4902.828766
 31
0.0
  0
LINE
  8
JISSEN
 10
9662.751826
 20
4882.828766
 30
0.0
 11
9662.751826
 21
4902.828766
 31
0.0
  0
LINE
  8
SUNPOU
 10
9902.815377
 20
4460.828766
 30
0.0
 11
9902.815377
 21
4460.828766
 31
0.0
  0
LINE
  8
JISSEN
 10
9542.751826
 20
4925.828766
 30
0.0
 11
10682.751826
 21
4925.828766
 31
0.0
  0
LINE
  8
JISSEN
 10
9542.751826
 20
4925.828766
 30
0.0
 11
9542.751826
 21
4325.828766
 31
0.0
  0
TEXT
  8
SUNPOU
 10
9887.815377
 20
4295.828766
 30
0.0
 40
60.0
  1
150
 50
90.0
  7
K
 72
     1
 11
9887.815377
 21
4385.828766
 31
0.0
  0
INSERT
  8
SUNPOU
  2
ARROWANG
 10
9932.815377
 20
4310.828766
 30
0.0
 41
45.0
 42
45.0
 50
270.0
 43
45.0
  0
INSERT
  8
SUNPOU
  2
ARROWANG
 10
9932.815377
 20
4460.828766
 30
0.0
 41
45.0
 42
45.0
 50
90.0
 43
45.0
  0
LINE
  8
SUNPOU
 10
9672.751826
 20
4310.828766
 30
0.0
 11
9962.815377
 21
4310.828766
 31
0.0
  0
LINE
  8
SUNPOU
 10
9932.815377
 20
4460.828766
 30
0.0
 11
9932.815377
 21
4310.828766
 31
0.0
  0
LINE
  8
SUNPOU
 10
9802.751826
 20
4460.828766
 30
0.0
 11
9962.815377
 21
4460.828766
 31
0.0
  0
LINE
  8
ITTEN
 10
9600.810882
 20
4460.828766
 30
0.0
 11
9830.810882
 21
4460.828766
 31
0.0
  0
LINE
  8
JISSEN
 10
9655.901792
 20
4450.828766
 30
0.0
 11
9770.810882
 21
4450.828766
 31
0.0
  0
LINE
  8
JISSEN
 10
9656.629064
 20
4470.828766
 30
0.0
 11
9770.810882
 21
4470.828766
 31
0.0
  0
ARC
  8
JISSEN
 10
9770.810882
 20
4460.828766
 30
0.0
 40
10.0
 50
270.0
 51
90.0
  0
LINE
  8
JISSEN
 10
9542.751826
 20
4325.828766
 30
0.0
 11
9603.751826
 21
4325.828766
 31
0.0
  0
LINE
  8
JISSEN
 10
9603.751826
 20
4325.828766
 30
0.0
 11
9614.751826
 21
4310.828766
 31
0.0
  0
LINE
  8
JISSEN
 10
9614.751826
 20
4310.828766
 30
0.0
 11
10242.751826
 21
4310.828766
 31
0.0
  0
LINE
  8
JISSEN
 10
10942.751826
 20
4325.828766
 30
0.0
 11
10881.751826
 21
4325.828766
 31
0.0
  0
LINE
  8
JISSEN
 10
10881.751826
 20
4325.828766
 30
0.0
 11
10870.751826
 21
4310.828766
 31
0.0
  0
LINE
  8
JISSEN
 10
10870.751826
 20
4310.828766
 30
0.0
 11
10242.751826
 21
4310.828766
 31
0.0
  0
LINE
  8
JISSEN
 10
10244.586397
 20
4325.828766
 30
0.0
 11
10881.751826
 21
4325.828766
 31
0.0
  0
LINE
  8
SUNPOU
 10
9614.751826
 20
4280.828766
 30
0.0
 11
9614.751826
 21
4121.50172
 31
0.0
  0
LINE
  8
SUNPOU
 10
10870.751826
 20
4280.828766
 30
0.0
 11
10870.751826
 21
4121.50172
 31
0.0
  0
LINE
  8
SUNPOU
 10
9614.751826
 20
4151.50172
 30
0.0
 11
10870.751826
 21
4151.50172
 31
0.0
  0
INSERT
  8
SUNPOU
  2
ARROWANG
 10
10870.751826
 20
4151.50172
 30
0.0
 41
45.0
 42
45.0
 43
45.0
  0
INSERT
  8
SUNPOU
  2
ARROWANG
 10
9614.751826
 20
4151.50172
 30
0.0
 41
45.0
 42
45.0
 50
180.0
 43
45.0
  0
TEXT
  8
SUNPOU
 10
10124.180398
 20
4196.50172
 30
0.0
 40
60.0
  1
1256
  7
K
 72
     1
 11
10242.751826
 21
4196.50172
 31
0.0
  0
LINE
  8
SUNPOU
 10
9603.751826
 20
4295.828766
 30
0.0
 11
9603.751826
 21
3999.472788
 31
0.0
  0
LINE
  8
SUNPOU
 10
10881.751826
 20
4295.828766
 30
0.0
 11
10881.751826
 21
3999.472788
 31
0.0
  0
LINE
  8
SUNPOU
 10
9603.751826
 20
4029.472788
 30
0.0
 11
10881.751826
 21
4029.472788
 31
0.0
  0
INSERT
  8
SUNPOU
  2
ARROWANG
 10
9603.751826
 20
4029.472788
 30
0.0
 41
45.0
 42
45.0
 50
180.0
 43
45.0
  0
INSERT
  8
SUNPOU
  2
ARROWANG
 10
10881.751826
 20
4029.472788
 30
0.0
 41
45.0
 42
45.0
 43
45.0
  0
TEXT
  8
SUNPOU
 10
10124.180413
 20
4074.472788
 30
0.0
 40
60.0
  1
1278
  7
K
 72
     1
 11
10242.751841
 21
4074.472788
 31
0.0
  0
LINE
  8
SUNPOU
 10
9542.751826
 20
4295.828766
 30
0.0
 11
9542.751826
 21
3867.774381
 31
0.0
  0
LINE
  8
SUNPOU
 10
9642.751826
 20
4280.828766
 30
0.0
 11
9642.751826
 21
3867.774381
 31
0.0
  0
LINE
  8
SUNPOU
 10
9542.751826
 20
3897.774381
 30
0.0
 11
9642.751826
 21
3897.774381
 31
0.0
  0
INSERT
  8
SUNPOU
  2
ARROWANG
 10
9542.751826
 20
3897.774381
 30
0.0
 41
45.0
 42
45.0
 50
180.0
 43
45.0
  0
INSERT
  8
SUNPOU
  2
ARROWANG
 10
9642.751826
 20
3897.774381
 30
0.0
 41
45.0
 42
45.0
 43
45.0
  0
TEXT
  8
SUNPOU
 10
9502.751841
 20
3942.774381
 30
0.0
 40
60.0
  1
100
  7
K
 72
     1
 11
9592.751841
 21
3942.774381
 31
0.0
  0
LINE
  8
SUNPOU
 10
9642.751826
 20
3897.774381
 30
0.0
 11
10842.751826
 21
3897.774381
 31
0.0
  0
LINE
  8
SUNPOU
 10
10842.751826
 20
4280.828766
 30
0.0
 11
10842.751826
 21
3867.774381
 31
0.0
  0
INSERT
  8
SUNPOU
  2
ARROWANG
 10
9642.751826
 20
3897.774381
 30
0.0
 41
45.0
 42
45.0
 50
180.0
 43
45.0
  0
INSERT
  8
SUNPOU
  2
ARROWANG
 10
10842.751826
 20
3897.774381
 30
0.0
 41
45.0
 42
45.0
 43
45.0
  0
TEXT
  8
SUNPOU
 10
10124.180398
 20
3942.774381
 30
0.0
 40
60.0
  1
1200
  7
K
 72
     1
 11
10242.751826
 21
3942.774381
 31
0.0
  0
LINE
  8
JISSEN
 10
10942.751826
 20
4325.828766
 30
0.0
 11
10942.751826
 21
4385.828766
 31
0.0
  0
LINE
  8
SUNPOU
 10
10842.751826
 20
3867.774381
 30
0.0
 11
10842.751826
 21
3867.774381
 31
0.0
  0
LINE
  8
SUNPOU
 10
10942.751826
 20
4295.828766
 30
0.0
 11
10942.751826
 21
3867.774381
 31
0.0
  0
LINE
  8
SUNPOU
 10
10842.751826
 20
3897.774381
 30
0.0
 11
10942.751826
 21
3897.774381
 31
0.0
  0
INSERT
  8
SUNPOU
  2
ARROWANG
 10
10842.751826
 20
3897.774381
 30
0.0
 41
45.0
 42
45.0
 50
180.0
 43
45.0
  0
INSERT
  8
SUNPOU
  2
ARROWANG
 10
10942.751826
 20
3897.774381
 30
0.0
 41
45.0
 42
45.0
 43
45.0
  0
TEXT
  8
SUNPOU
 10
10802.751841
 20
3942.774381
 30
0.0
 40
60.0
  1
100
  7
K
 72
     1
 11
10892.751841
 21
3942.774381
 31
0.0
  0
CIRCLE
  8
SAISEN
 10
9747.77708
 20
4365.828766
 30
0.0
 40
12.5
  0
CIRCLE
  8
SAISEN
 10
10737.726573
 20
4365.828766
 30
0.0
 40
12.5
  0
LINE
  8
SUNPOU
 10
10972.751826
 20
4325.828766
 30
0.0
 11
11131.845937
 21
4325.828766
 31
0.0
  0
LINE
  8
SUNPOU
 10
10767.726573
 20
4365.828766
 30
0.0
 11
11131.845937
 21
4365.828766
 31
0.0
  0
LINE
  8
SUNPOU
 10
11101.845937
 20
4325.828766
 30
0.0
 11
11101.845937
 21
4365.828766
 31
0.0
  0
INSERT
  8
SUNPOU
  2
ARROWANG
 10
11101.845937
 20
4325.828766
 30
0.0
 41
45.0
 42
45.0
 50
90.0
 43
45.0
  0
INSERT
  8
SUNPOU
  2
ARROWANG
 10
11101.845937
 20
4365.828766
 30
0.0
 41
45.0
 42
45.0
 50
270.0
 43
45.0
  0
LINE
  8
SUNPOU
 10
11101.845937
 20
4325.828766
 30
0.0
 11
11101.845937
 21
4193.828766
 31
0.0
  0
LINE
  8
SUNPOU
 10
11101.845937
 20
4365.828766
 30
0.0
 11
11101.845937
 21
4455.828766
 31
0.0
  0
TEXT
  8
SUNPOU
 10
11056.845937
 20
4202.685909
 30
0.0
 40
60.0
  1
40
 50
90.0
  7
K
 72
     1
 11
11056.845937
 21
4259.828766
 31
0.0
  0
LINE
  8
SUNPOU
 10
9902.815377
 20
4460.828766
 30
0.0
 11
9902.815377
 21
4460.828766
 31
0.0
  0
LINE
  8
SUNPOU
 10
11091.552489
 20
6189.204545
 30
0.0
 11
11091.552489
 21
6189.204545
 31
0.0
  0
ARC
  8
JISSEN
 10
9776.835488
 20
4760.828766
 30
0.0
 40
10.0
 50
270.0
 51
90.0
  0
LINE
  8
JISSEN
 10
9662.65367
 20
4770.828766
 30
0.0
 11
9776.835488
 21
4770.828766
 31
0.0
  0
LINE
  8
JISSEN
 10
9661.926397
 20
4750.828766
 30
0.0
 11
9776.835488
 21
4750.828766
 31
0.0
  0
LINE
  8
ITTEN
 10
9606.835488
 20
4760.828766
 30
0.0
 11
9836.835488
 21
4760.828766
 31
0.0
  0
LINE
  8
SUNPOU
 10
9962.815377
 20
4460.828766
 30
0.0
 11
9962.815377
 21
4460.828766
 31
0.0
  0
TEXT
  8
SUNPOU
 10
9887.815377
 20
6352.315566
 30
0.0
 40
60.0
  1
230
 50
90.0
  7
K
 72
     1
 11
9887.815377
 21
6438.029852
 31
0.0
  0
INSERT
  8
SUNPOU
  2
ARROWANG
 10
9932.815377
 20
6554.204545
 30
0.0
 41
45.0
 42
45.0
 50
90.0
 43
45.0
  0
INSERT
  8
SUNPOU
  2
ARROWANG
 10
9932.815377
 20
6324.204545
 30
0.0
 41
45.0
 42
45.0
 50
270.0
 43
45.0
  0
LINE
  8
SUNPOU
 10
9932.815377
 20
6324.204545
 30
0.0
 11
9932.815377
 21
6554.204545
 31
0.0
  0
LINE
  8
SUNPOU
 10
9818.915148
 20
6554.204545
 30
0.0
 11
9962.815377
 21
6554.204545
 31
0.0
  0
LINE
  8
SUNPOU
 10
9962.815377
 20
6324.204545
 30
0.0
 11
9962.815377
 21
6324.204545
 31
0.0
  0
LINE
  8
ITTEN
 10
9608.915148
 20
6554.204545
 30
0.0
 11
9838.915148
 21
6554.204545
 31
0.0
  0
LINE
  8
JISSEN
 10
9664.006057
 20
6544.204545
 30
0.0
 11
9778.915148
 21
6544.204545
 31
0.0
  0
LINE
  8
JISSEN
 10
9664.73333
 20
6564.204545
 30
0.0
 11
9778.915148
 21
6564.204545
 31
0.0
  0
ARC
  8
JISSEN
 10
9778.915148
 20
6554.204545
 30
0.0
 40
10.0
 50
270.0
 51
90.0
  0
TEXT
  8
SUNPOU
 10
9273.540065
 20
6328.49026
 30
0.0
 40
60.0
  1
450
 50
90.0
  7
K
 72
     1
 11
9273.540065
 21
6414.204545
 31
0.0
  0
INSERT
  8
SUNPOU
  2
ARROWANG
 10
9318.540065
 20
6639.204545
 30
0.0
 41
45.0
 42
45.0
 50
90.0
 43
45.0
  0
INSERT
  8
SUNPOU
  2
ARROWANG
 10
9318.540065
 20
6189.204545
 30
0.0
 41
45.0
 42
45.0
 50
270.0
 43
45.0
  0
LINE
  8
SUNPOU
 10
9318.540065
 20
6189.204545
 30
0.0
 11
9318.540065
 21
6639.204545
 31
0.0
  0
LINE
  8
SUNPOU
 10
9409.102673
 20
6639.204545
 30
0.0
 11
9288.540065
 21
6639.204545
 31
0.0
  0
LINE
  8
SUNPOU
 10
9288.540065
 20
6189.204545
 30
0.0
 11
9288.540065
 21
6189.204545
 31
0.0
  0
LINE
  8
ITTEN
 10
10098.798896
 20
6687.218249
 30
0.0
 11
10261.835192
 21
6126.190842
 31
0.0
  0
LINE
  8
HASEN
 10
10842.751826
 20
6174.204545
 30
0.0
 11
10562.751826
 21
6596.204545
 31
0.0
  0
LINE
  8
JISSEN
 10
9647.882261
 20
6174.204545
 30
0.0
 11
9662.751826
 21
6596.204545
 31
0.0
  0
LINE
  8
JISSEN
 10
10682.751826
 20
6639.204545
 30
0.0
 11
10942.751826
 21
6249.204545
 31
0.0
  0
LINE
  8
SUNPOU
 10
9902.815377
 20
6324.204545
 30
0.0
 11
9902.815377
 21
6324.204545
 31
0.0
  0
TEXT
  8
SUNPOU
 10
11056.845937
 20
6066.061688
 30
0.0
 40
60.0
  1
40
 50
90.0
  7
K
 72
     1
 11
11056.845937
 21
6123.204545
 31
0.0
  0
LINE
  8
SUNPOU
 10
11101.845937
 20
6189.204545
 30
0.0
 11
11101.845937
 21
6057.204545
 31
0.0
  0
INSERT
  8
SUNPOU
  2
ARROWANG
 10
11101.845937
 20
6189.204545
 30
0.0
 41
45.0
 42
45.0
 50
90.0
 43
45.0
  0
LINE
  8
SUNPOU
 10
11101.845937
 20
6189.204545
 30
0.0
 11
11101.845937
 21
6229.204545
 31
0.0
  0
LINE
  8
SUNPOU
 10
10767.726573
 20
6229.204545
 30
0.0
 11
11131.845937
 21
6229.204545
 31
0.0
  0
LINE
  8
SUNPOU
 10
10972.751826
 20
6189.204545
 30
0.0
 11
11131.845937
 21
6189.204545
 31
0.0
  0
TEXT
  8
SUNPOU
 10
8238.179778
 20
4829.312027
 30
0.0
 40
60.0
  1
%%C1400
 50
23.968357
  7
K
 72
     1
 11
8363.496799
 21
4885.023852
 31
0.0
  0
INSERT
  8
SUNPOU
  2
ARROWANG
 10
7568.185723
 20
4516.985458
 30
0.0
 41
45.0
 42
45.0
 50
203.968357
 43
45.0
  0
INSERT
  8
SUNPOU
  2
ARROWANG
 10
8847.46365
 20
5085.710335
 30
0.0
 41
45.0
 42
45.0
 50
23.968357
 43
45.0
  0
LINE
  8
SUNPOU
 10
8847.46365
 20
5085.710335
 30
0.0
 11
7568.185723
 21
4516.985458
 31
0.0
  0
LINE
  8
ITTEN
 10
8957.824686
 20
4801.347896
 30
0.0
 11
7457.824686
 21
4801.347896
 31
0.0
  0
LINE
  8
ITTEN
 10
8207.824686
 20
5551.347896
 30
0.0
 11
8207.824686
 21
4051.347896
 31
0.0
  0
LINE
  8
JISSEN
 10
7717.824686
 20
4801.347896
 30
0.0
 11
7717.824686
 21
4631.347896
 31
0.0
  0
LINE
  8
JISSEN
 10
7737.824686
 20
4611.347896
 30
0.0
 11
7737.824686
 21
4801.347896
 31
0.0
  0
LINE
  8
JISSEN
 10
7674.711799
 20
4601.347896
 30
0.0
 11
7727.824686
 21
4601.347896
 31
0.0
  0
LINE
  8
JISSEN
 10
7707.824686
 20
4621.347896
 30
0.0
 11
7665.392874
 21
4621.347896
 31
0.0
  0
ARC
  8
JISSEN
 10
7727.824686
 20
4611.347896
 30
0.0
 40
10.0
 50
270.0
 51
0.0
  0
ARC
  8
JISSEN
 10
7707.824686
 20
4631.347896
 30
0.0
 40
10.0
 50
270.0
 51
0.0
  0
ARC
  8
JISSEN
 10
7707.824686
 20
4971.347896
 30
0.0
 40
10.0
 50
0.0
 51
90.0
  0
ARC
  8
JISSEN
 10
7727.824686
 20
4991.347896
 30
0.0
 40
10.0
 50
0.0
 51
90.0
  0
LINE
  8
JISSEN
 10
7674.711799
 20
5001.347896
 30
0.0
 11
7727.824686
 21
5001.347896
 31
0.0
  0
CIRCLE
  8
SAISEN
 10
10737.726573
 20
6229.204545
 30
0.0
 40
12.5
  0
CIRCLE
  8
SAISEN
 10
9747.77708
 20
6229.204545
 30
0.0
 40
12.5
  0
LINE
  8
ITTEN
 10
8632.156105
 20
5225.679314
 30
0.0
 11
8738.222122
 21
5331.745332
 31
0.0
  0
LINE
  8
HASEN
 10
8674.582512
 20
5253.963586
 30
0.0
 11
8709.870501
 21
5289.251575
 31
0.0
  0
LINE
  8
HASEN
 10
8674.582512
 20
5253.963586
 30
0.0
 11
8660.440376
 21
5268.105721
 31
0.0
  0
LINE
  8
HASEN
 10
8695.728365
 20
5303.393711
 30
0.0
 11
8660.440376
 21
5268.105721
 31
0.0
  0
LINE
  8
ITTEN
 10
8632.156105
 20
4377.016478
 30
0.0
 11
8738.222122
 21
4270.950461
 31
0.0
  0
LINE
  8
HASEN
 10
8660.440376
 20
4334.590071
 30
0.0
 11
8695.728365
 21
4299.302081
 31
0.0
  0
LINE
  8
HASEN
 10
8660.440376
 20
4334.590071
 30
0.0
 11
8674.582512
 21
4348.732206
 31
0.0
  0
LINE
  8
HASEN
 10
8709.870501
 20
4313.444217
 30
0.0
 11
8674.582512
 21
4348.732206
 31
0.0
  0
LINE
  8
ITTEN
 10
7783.493268
 20
4377.016478
 30
0.0
 11
7677.427251
 21
4270.950461
 31
0.0
  0
LINE
  8
HASEN
 10
7741.066861
 20
4348.732206
 30
0.0
 11
7705.778872
 21
4313.444217
 31
0.0
  0
LINE
  8
HASEN
 10
7741.066861
 20
4348.732206
 30
0.0
 11
7755.208997
 21
4334.590071
 31
0.0
  0
LINE
  8
HASEN
 10
7719.921007
 20
4299.302081
 30
0.0
 11
7755.208997
 21
4334.590071
 31
0.0
  0
CIRCLE
  8
HASEN
 10
8207.824686
 20
4801.347896
 30
0.0
 40
600.0
  0
CIRCLE
  8
JISSEN
 10
8207.824686
 20
4801.347896
 30
0.0
 40
700.0
  0
TEXT
  8
SUNPOU
 10
10802.751841
 20
5806.15016
 30
0.0
 40
60.0
  1
100
  7
K
 72
     1
 11
10892.751841
 21
5806.15016
 31
0.0
  0
INSERT
  8
SUNPOU
  2
ARROWANG
 10
10942.751826
 20
5761.15016
 30
0.0
 41
45.0
 42
45.0
 43
45.0
  0
INSERT
  8
SUNPOU
  2
ARROWANG
 10
10842.751826
 20
5761.15016
 30
0.0
 41
45.0
 42
45.0
 50
180.0
 43
45.0
  0
LINE
  8
SUNPOU
 10
10842.751826
 20
5761.15016
 30
0.0
 11
10942.751826
 21
5761.15016
 31
0.0
  0
LINE
  8
SUNPOU
 10
10942.751826
 20
6159.204545
 30
0.0
 11
10942.751826
 21
5731.15016
 31
0.0
  0
LINE
  8
SUNPOU
 10
10842.751826
 20
5731.15016
 30
0.0
 11
10842.751826
 21
5731.15016
 31
0.0
  0
LINE
  8
JISSEN
 10
10942.751826
 20
6189.204545
 30
0.0
 11
10942.751826
 21
6249.204545
 31
0.0
  0
TEXT
  8
SUNPOU
 10
10124.180398
 20
5806.15016
 30
0.0
 40
60.0
  1
1200
  7
K
 72
     1
 11
10242.751826
 21
5806.15016
 31
0.0
  0
INSERT
  8
SUNPOU
  2
ARROWANG
 10
10842.751826
 20
5761.15016
 30
0.0
 41
45.0
 42
45.0
 43
45.0
  0
INSERT
  8
SUNPOU
  2
ARROWANG
 10
9642.751826
 20
5761.15016
 30
0.0
 41
45.0
 42
45.0
 50
180.0
 43
45.0
  0
LINE
  8
SUNPOU
 10
10842.751826
 20
6144.204545
 30
0.0
 11
10842.751826
 21
5731.15016
 31
0.0
  0
LINE
  8
SUNPOU
 10
9642.751826
 20
5761.15016
 30
0.0
 11
10842.751826
 21
5761.15016
 31
0.0
  0
TEXT
  8
SUNPOU
 10
9502.751841
 20
5806.15016
 30
0.0
 40
60.0
  1
100
  7
K
 72
     1
 11
9592.751841
 21
5806.15016
 31
0.0
  0
INSERT
  8
SUNPOU
  2
ARROWANG
 10
9642.751826
 20
5761.15016
 30
0.0
 41
45.0
 42
45.0
 43
45.0
  0
INSERT
  8
SUNPOU
  2
ARROWANG
 10
9542.751826
 20
5761.15016
 30
0.0
 41
45.0
 42
45.0
 50
180.0
 43
45.0
  0
LINE
  8
SUNPOU
 10
9542.751826
 20
5761.15016
 30
0.0
 11
9642.751826
 21
5761.15016
 31
0.0
  0
LINE
  8
SUNPOU
 10
9642.751826
 20
6144.204545
 30
0.0
 11
9642.751826
 21
5731.15016
 31
0.0
  0
LINE
  8
SUNPOU
 10
9542.751826
 20
6159.204545
 30
0.0
 11
9542.751826
 21
5731.15016
 31
0.0
  0
TEXT
  8
SUNPOU
 10
10124.180413
 20
5937.848567
 30
0.0
 40
60.0
  1
1278
  7
K
 72
     1
 11
10242.751841
 21
5937.848567
 31
0.0
  0
INSERT
  8
SUNPOU
  2
ARROWANG
 10
10881.751826
 20
5892.848567
 30
0.0
 41
45.0
 42
45.0
 43
45.0
  0
INSERT
  8
SUNPOU
  2
ARROWANG
 10
9603.751826
 20
5892.848567
 30
0.0
 41
45.0
 42
45.0
 50
180.0
 43
45.0
  0
LINE
  8
SUNPOU
 10
9603.751826
 20
5892.848567
 30
0.0
 11
10881.751826
 21
5892.848567
 31
0.0
  0
LINE
  8
SUNPOU
 10
10881.751826
 20
6159.204545
 30
0.0
 11
10881.751826
 21
5862.848567
 31
0.0
  0
LINE
  8
SUNPOU
 10
9603.751826
 20
6159.204545
 30
0.0
 11
9603.751826
 21
5862.848567
 31
0.0
  0
TEXT
  8
SUNPOU
 10
10124.180398
 20
6059.877499
 30
0.0
 40
60.0
  1
1256
  7
K
 72
     1
 11
10242.751826
 21
6059.877499
 31
0.0
  0
INSERT
  8
SUNPOU
  2
ARROWANG
 10
9614.751826
 20
6014.877499
 30
0.0
 41
45.0
 42
45.0
 50
180.0
 43
45.0
  0
INSERT
  8
SUNPOU
  2
ARROWANG
 10
10870.751826
 20
6014.877499
 30
0.0
 41
45.0
 42
45.0
 43
45.0
  0
LINE
  8
SUNPOU
 10
9614.751826
 20
6014.877499
 30
0.0
 11
10870.751826
 21
6014.877499
 31
0.0
  0
LINE
  8
SUNPOU
 10
10870.751826
 20
6144.204545
 30
0.0
 11
10870.751826
 21
5984.877499
 31
0.0
  0
LINE
  8
SUNPOU
 10
9614.751826
 20
6144.204545
 30
0.0
 11
9614.751826
 21
5984.877499
 31
0.0
  0
LINE
  8
JISSEN
 10
10243.523215
 20
6189.204545
 30
0.0
 11
10881.751826
 21
6189.204545
 31
0.0
  0
LINE
  8
JISSEN
 10
10870.751826
 20
6174.204545
 30
0.0
 11
10242.751826
 21
6174.204545
 31
0.0
  0
LINE
  8
JISSEN
 10
10881.751826
 20
6189.204545
 30
0.0
 11
10870.751826
 21
6174.204545
 31
0.0
  0
LINE
  8
JISSEN
 10
10942.751826
 20
6189.204545
 30
0.0
 11
10881.751826
 21
6189.204545
 31
0.0
  0
LINE
  8
JISSEN
 10
9614.751826
 20
6174.204545
 30
0.0
 11
10242.751826
 21
6174.204545
 31
0.0
  0
LINE
  8
JISSEN
 10
9603.751826
 20
6189.204545
 30
0.0
 11
9614.751826
 21
6174.204545
 31
0.0
  0
LINE
  8
JISSEN
 10
9542.751826
 20
6189.204545
 30
0.0
 11
9603.751826
 21
6189.204545
 31
0.0
  0
ARC
  8
JISSEN
 10
9770.810882
 20
6324.204545
 30
0.0
 40
10.0
 50
270.0
 51
90.0
  0
LINE
  8
JISSEN
 10
9656.629064
 20
6334.204545
 30
0.0
 11
9770.810882
 21
6334.204545
 31
0.0
  0
LINE
  8
JISSEN
 10
9655.901792
 20
6314.204545
 30
0.0
 11
9770.810882
 21
6314.204545
 31
0.0
  0
LINE
  8
ITTEN
 10
9600.810882
 20
6324.204545
 30
0.0
 11
9830.810882
 21
6324.204545
 31
0.0
  0
LINE
  8
SUNPOU
 10
9802.751826
 20
6324.204545
 30
0.0
 11
9962.815377
 21
6324.204545
 31
0.0
  0
LINE
  8
SUNPOU
 10
9932.815377
 20
6324.204545
 30
0.0
 11
9932.815377
 21
6174.204545
 31
0.0
  0
LINE
  8
SUNPOU
 10
9672.751826
 20
6174.204545
 30
0.0
 11
9962.815377
 21
6174.204545
 31
0.0
  0
INSERT
  8
SUNPOU
  2
ARROWANG
 10
9932.815377
 20
6324.204545
 30
0.0
 41
45.0
 42
45.0
 50
90.0
 43
45.0
  0
INSERT
  8
SUNPOU
  2
ARROWANG
 10
9932.815377
 20
6174.204545
 30
0.0
 41
45.0
 42
45.0
 50
270.0
 43
45.0
  0
TEXT
  8
SUNPOU
 10
9887.815377
 20
6159.204545
 30
0.0
 40
60.0
  1
150
 50
90.0
  7
K
 72
     1
 11
9887.815377
 21
6249.204545
 31
0.0
  0
LINE
  8
JISSEN
 10
9542.751826
 20
6639.204545
 30
0.0
 11
9542.751826
 21
6189.204545
 31
0.0
  0
LINE
  8
JISSEN
 10
9542.751826
 20
6639.204545
 30
0.0
 11
10682.751826
 21
6639.204545
 31
0.0
  0
LINE
  8
HASEN
 10
7705.778872
 20
5289.251575
 30
0.0
 11
7741.066861
 21
5253.963586
 31
0.0
  0
LINE
  8
HASEN
 10
7755.208997
 20
5268.105721
 30
0.0
 11
7741.066861
 21
5253.963586
 31
0.0
  0
LINE
  8
HASEN
 10
7755.208997
 20
5268.105721
 30
0.0
 11
7719.921007
 21
5303.393711
 31
0.0
  0
LINE
  8
ITTEN
 10
7783.493268
 20
5225.679314
 30
0.0
 11
7677.427251
 21
5331.745332
 31
0.0
  0
LINE
  8
JISSEN
 10
7737.824686
 20
4991.347896
 30
0.0
 11
7737.824686
 21
4801.347896
 31
0.0
  0
LINE
  8
JISSEN
 10
7717.824686
 20
4801.347896
 30
0.0
 11
7717.824686
 21
4971.347896
 31
0.0
  0
LINE
  8
SUNPOU
 10
9902.815377
 20
6324.204545
 30
0.0
 11
9902.815377
 21
6324.204545
 31
0.0
  0
LINE
  8
JISSEN
 10
9662.751826
 20
6596.204545
 30
0.0
 11
9662.751826
 21
6616.204545
 31
0.0
  0
LINE
  8
JISSEN
 10
9627.751826
 20
6639.204545
 30
0.0
 11
9634.751826
 21
6616.204545
 31
0.0
  0
LINE
  8
JISSEN
 10
9634.751826
 20
6616.204545
 30
0.0
 11
10112.751826
 21
6616.204545
 31
0.0
  0
LINE
  8
HASEN
 10
10597.751826
 20
6639.204545
 30
0.0
 11
10590.751826
 21
6616.204545
 31
0.0
  0
LINE
  8
HASEN
 10
10590.751826
 20
6616.204545
 30
0.0
 11
10122.618493
 21
6616.204545
 31
0.0
  0
LINE
  8
HASEN
 10
10562.751826
 20
6616.204545
 30
0.0
 11
10562.751826
 21
6596.204545
 31
0.0
  0
LINE
  8
JISSEN
 10
10226.08703
 20
6249.204545
 30
0.0
 11
10942.751826
 21
6249.204545
 31
0.0
  0
LINE
  8
JISSEN
 10
10122.618493
 20
6616.204545
 30
0.0
 11
10112.751826
 21
6616.204545
 31
0.0
  0
LINE
  8
SUNPOU
 10
9634.751826
 20
6646.204545
 30
0.0
 11
9634.751826
 21
6725.211972
 31
0.0
  0
LINE
  8
SUNPOU
 10
10590.751826
 20
6646.204545
 30
0.0
 11
10590.751826
 21
6725.211972
 31
0.0
  0
LINE
  8
SUNPOU
 10
9634.751826
 20
6695.211972
 30
0.0
 11
10590.751826
 21
6695.211972
 31
0.0
  0
INSERT
  8
SUNPOU
  2
ARROWANG
 10
10590.751826
 20
6695.211972
 30
0.0
 41
45.0
 42
45.0
 43
45.0
  0
INSERT
  8
SUNPOU
  2
ARROWANG
 10
9634.751826
 20
6695.211972
 30
0.0
 41
45.0
 42
45.0
 50
180.0
 43
45.0
  0
TEXT
  8
SUNPOU
 10
10013.044635
 20
6725.624178
 30
0.0
 40
60.0
  1
956
  7
K
 72
     1
 11
10098.758921
 21
6725.624178
 31
0.0
  0
LINE
  8
SUNPOU
 10
9627.751826
 20
6669.204545
 30
0.0
 11
9627.751826
 21
6842.475396
 31
0.0
  0
LINE
  8
SUNPOU
 10
10597.751826
 20
6669.204545
 30
0.0
 11
10597.751826
 21
6842.475396
 31
0.0
  0
LINE
  8
SUNPOU
 10
9627.751826
 20
6812.475396
 30
0.0
 11
10597.751826
 21
6812.475396
 31
0.0
  0
INSERT
  8
SUNPOU
  2
ARROWANG
 10
9627.751826
 20
6812.475396
 30
0.0
 41
45.0
 42
45.0
 50
180.0
 43
45.0
  0
INSERT
  8
SUNPOU
  2
ARROWANG
 10
10597.751826
 20
6812.475396
 30
0.0
 41
45.0
 42
45.0
 43
45.0
  0
TEXT
  8
SUNPOU
 10
10010.076276
 20
6830.544083
 30
0.0
 40
60.0
  1
970
  7
K
 72
     1
 11
10095.790562
 21
6830.544083
 31
0.0
  0
LINE
  8
SUNPOU
 10
9542.751826
 20
6669.204545
 30
0.0
 11
9542.751826
 21
6942.906749
 31
0.0
  0
LINE
  8
SUNPOU
 10
9662.751826
 20
6646.204545
 30
0.0
 11
9662.751826
 21
6942.906749
 31
0.0
  0
LINE
  8
SUNPOU
 10
9542.751826
 20
6912.906749
 30
0.0
 11
9662.751826
 21
6912.906749
 31
0.0
  0
INSERT
  8
SUNPOU
  2
ARROWANG
 10
9542.751826
 20
6912.906749
 30
0.0
 41
45.0
 42
45.0
 50
180.0
 43
45.0
  0
INSERT
  8
SUNPOU
  2
ARROWANG
 10
9662.751826
 20
6912.906749
 30
0.0
 41
45.0
 42
45.0
 43
45.0
  0
TEXT
  8
SUNPOU
 10
9512.751841
 20
6957.906749
 30
0.0
 40
60.0
  1
120
  7
K
 72
     1
 11
9602.751841
 21
6957.906749
 31
0.0
  0
LINE
  8
SUNPOU
 10
9662.751826
 20
6912.906749
 30
0.0
 11
10562.751826
 21
6912.906749
 31
0.0
  0
LINE
  8
SUNPOU
 10
10562.751826
 20
6626.204545
 30
0.0
 11
10562.751826
 21
6942.906749
 31
0.0
  0
INSERT
  8
SUNPOU
  2
ARROWANG
 10
9662.751826
 20
6912.906749
 30
0.0
 41
45.0
 42
45.0
 50
180.0
 43
45.0
  0
INSERT
  8
SUNPOU
  2
ARROWANG
 10
10562.751826
 20
6912.906749
 30
0.0
 41
45.0
 42
45.0
 43
45.0
  0
TEXT
  8
SUNPOU
 10
10002.741654
 20
6945.563231
 30
0.0
 40
60.0
  1
900
  7
K
 72
     1
 11
10088.45594
 21
6945.563231
 31
0.0
  0
LINE
  8
SUNPOU
 10
10562.751826
 20
6912.906749
 30
0.0
 11
10682.751826
 21
6912.906749
 31
0.0
  0
LINE
  8
SUNPOU
 10
10682.751826
 20
6669.204545
 30
0.0
 11
10682.751826
 21
6942.906749
 31
0.0
  0
INSERT
  8
SUNPOU
  2
ARROWANG
 10
10562.751826
 20
6912.906749
 30
0.0
 41
45.0
 42
45.0
 50
180.0
 43
45.0
  0
INSERT
  8
SUNPOU
  2
ARROWANG
 10
10682.751826
 20
6912.906749
 30
0.0
 41
45.0
 42
45.0
 43
45.0
  0
TEXT
  8
SUNPOU
 10
10532.751826
 20
6957.906749
 30
0.0
 40
60.0
  1
120
  7
K
 72
     1
 11
10622.751826
 21
6957.906749
 31
0.0
  0
LINE
  8
SUNPOU
 10
9542.751826
 20
6942.906749
 30
0.0
 11
9542.751826
 21
7099.16447
 31
0.0
  0
LINE
  8
SUNPOU
 10
10682.751826
 20
6942.906749
 30
0.0
 11
10682.751826
 21
7099.16447
 31
0.0
  0
LINE
  8
SUNPOU
 10
9542.751826
 20
7069.16447
 30
0.0
 11
10682.751826
 21
7069.16447
 31
0.0
  0
INSERT
  8
SUNPOU
  2
ARROWANG
 10
9542.751826
 20
7069.16447
 30
0.0
 41
45.0
 42
45.0
 50
180.0
 43
45.0
  0
INSERT
  8
SUNPOU
  2
ARROWANG
 10
10682.751826
 20
7069.16447
 30
0.0
 41
45.0
 42
45.0
 43
45.0
  0
TEXT
  8
SUNPOU
 10
9955.215311
 20
7094.527054
 30
0.0
 40
60.0
  1
1140
  7
K
 72
     1
 11
10073.78674
 21
7094.527054
 31
0.0
  0
LINE
  8
SUNPOU
 10
9512.751826
 20
6189.204545
 30
0.0
 11
9288.540065
 21
6189.204545
 31
0.0
  0
LINE
  8
SUNPOU
 10
9318.540065
 20
6189.204545
 30
0.0
 11
9318.540065
 21
6174.204545
 31
0.0
  0
LINE
  8
SUNPOU
 10
9584.751826
 20
6174.204545
 30
0.0
 11
9288.540065
 21
6174.204545
 31
0.0
  0
INSERT
  8
SUNPOU
  2
ARROWANG
 10
9318.540065
 20
6174.204545
 30
0.0
 41
45.0
 42
45.0
 50
90.0
 43
45.0
  0
LINE
  8
SUNPOU
 10
9318.540065
 20
6174.204545
 30
0.0
 11
9318.540065
 21
6042.204545
 31
0.0
  0
TEXT
  8
SUNPOU
 10
9273.540065
 20
6008.49026
 30
0.0
 40
60.0
  1
15
 50
90.0
  7
K
 72
     2
 11
9273.540065
 21
6114.204545
 31
0.0
  0
LINE
  8
SUNPOU
 10
9318.540065
 20
6174.204545
 30
0.0
 11
9318.540065
 21
6084.204545
 31
0.0
  0
LINE
  8
SUNPOU
 10
9604.751826
 20
6616.204545
 30
0.0
 11
9409.102673
 21
6616.204545
 31
0.0
  0
LINE
  8
SUNPOU
 10
9597.751826
 20
6639.204545
 30
0.0
 11
9409.102673
 21
6639.204545
 31
0.0
  0
LINE
  8
SUNPOU
 10
9439.102673
 20
6616.204545
 30
0.0
 11
9439.102673
 21
6639.204545
 31
0.0
  0
INSERT
  8
SUNPOU
  2
ARROWANG
 10
9439.102673
 20
6616.204545
 30
0.0
 41
45.0
 42
45.0
 50
90.0
 43
45.0
  0
INSERT
  8
SUNPOU
  2
ARROWANG
 10
9439.102673
 20
6639.204545
 30
0.0
 41
45.0
 42
45.0
 50
270.0
 43
45.0
  0
LINE
  8
SUNPOU
 10
9439.102673
 20
6639.204545
 30
0.0
 11
9439.102673
 21
6771.204545
 31
0.0
  0
LINE
  8
SUNPOU
 10
9439.102673
 20
6616.204545
 30
0.0
 11
9439.102675
 21
6526.204545
 31
0.0
  0
TEXT
  8
SUNPOU
 10
9394.102673
 20
6648.061688
 30
0.0
 40
60.0
  1
23
 50
90.0
  7
K
 72
     1
 11
9394.102673
 21
6705.204545
 31
0.0
  0
CIRCLE
  8
JISSEN
 10
7618.831222
 20
4536.347896
 30
0.0
 40
10.0
  0
CIRCLE
  8
JISSEN
 10
8077.824686
 20
5331.347896
 30
0.0
 40
10.0
  0
CIRCLE
  8
JISSEN
 10
8536.81815
 20
4536.347896
 30
0.0
 40
10.0
  0
LINE
  8
ITTEN
 10
8697.824686
 20
4801.347896
 30
0.0
 11
7457.824686
 21
4801.347896
 31
0.0
  0
LINE
  8
ITTEN
 10
8077.824686
 20
5421.347896
 30
0.0
 11
8077.824686
 21
4181.347896
 31
0.0
  0
CIRCLE
  8
JISSEN
 10
8077.824686
 20
4801.347896
 30
0.0
 40
485.0
  0
CIRCLE
  8
JISSEN
 10
8077.824686
 20
4801.347896
 30
0.0
 40
478.0
  0
CIRCLE
  8
JISSEN
 10
8077.824686
 20
4801.347896
 30
0.0
 40
570.0
  0
CIRCLE
  8
JISSEN
 10
8077.824686
 20
4801.347896
 30
0.0
 40
450.0
  0
LINE
  8
JISSEN
 10
7707.824686
 20
4981.347896
 30
0.0
 11
7665.392874
 21
4981.347896
 31
0.0
  0
POINT
  8
SUNPOU
 10
8076.824686
 20
4801.347896
 30
0.0
  0
LINE
  8
SUNPOU
 10
8417.159063
 20
4505.793872
 30
0.0
 11
7738.49031
 21
5096.90192
 31
0.0
  0
INSERT
  8
SUNPOU
  2
ARROWANG
 10
8417.159063
 20
4505.793872
 30
0.0
 41
45.0
 42
45.0
 50
318.944732
 43
45.0
  0
INSERT
  8
SUNPOU
  2
ARROWANG
 10
7738.49031
 20
5096.90192
 30
0.0
 41
45.0
 42
45.0
 50
138.944732
 43
45.0
  0
TEXT
  8
SUNPOU
 10
8025.508938
 20
4906.589606
 30
0.0
 40
60.0
  1
%%C900
 50
318.944732
  7
K
 72
     1
 11
8107.380089
 21
4835.281334
 31
0.0
  0
TEXT
  8
SUNPOU
 10
7354.045098
 20
6648.061688
 30
0.0
 40
60.0
  1
23
 50
90.0
  7
K
 72
     1
 11
7354.045098
 21
6705.204545
 31
0.0
  0
LINE
  8
SUNPOU
 10
7399.045098
 20
6616.204545
 30
0.0
 11
7399.0451
 21
6526.204545
 31
0.0
  0
LINE
  8
SUNPOU
 10
7399.045098
 20
6639.204545
 30
0.0
 11
7399.045098
 21
6771.204545
 31
0.0
  0
INSERT
  8
SUNPOU
  2
ARROWANG
 10
7399.045098
 20
6639.204545
 30
0.0
 41
45.0
 42
45.0
 50
270.0
 43
45.0
  0
INSERT
  8
SUNPOU
  2
ARROWANG
 10
7399.045098
 20
6616.204545
 30
0.0
 41
45.0
 42
45.0
 50
90.0
 43
45.0
  0
LINE
  8
SUNPOU
 10
7399.045098
 20
6616.204545
 30
0.0
 11
7399.045098
 21
6639.204545
 31
0.0
  0
LINE
  8
SUNPOU
 10
7557.694252
 20
6639.204545
 30
0.0
 11
7369.045098
 21
6639.204545
 31
0.0
  0
LINE
  8
SUNPOU
 10
7564.694252
 20
6616.204545
 30
0.0
 11
7369.045098
 21
6616.204545
 31
0.0
  0
LINE
  8
SUNPOU
 10
7278.48249
 20
6339.204545
 30
0.0
 11
7278.48249
 21
6429.204545
 31
0.0
  0
LINE
  8
SUNPOU
 10
7278.48249
 20
6324.204545
 30
0.0
 11
7278.48249
 21
6234.204545
 31
0.0
  0
TEXT
  8
SUNPOU
 10
7233.48249
 20
6158.49026
 30
0.0
 40
60.0
  1
15
 50
90.0
  7
K
 72
     2
 11
7233.48249
 21
6264.204545
 31
0.0
  0
LINE
  8
SUNPOU
 10
7278.48249
 20
6324.204545
 30
0.0
 11
7278.48249
 21
6192.204545
 31
0.0
  0
INSERT
  8
SUNPOU
  2
ARROWANG
 10
7278.48249
 20
6339.204545
 30
0.0
 41
45.0
 42
45.0
 50
270.0
 43
45.0
  0
INSERT
  8
SUNPOU
  2
ARROWANG
 10
7278.48249
 20
6324.204545
 30
0.0
 41
45.0
 42
45.0
 50
90.0
 43
45.0
  0
LINE
  8
SUNPOU
 10
7544.694252
 20
6324.204545
 30
0.0
 11
7248.48249
 21
6324.204545
 31
0.0
  0
LINE
  8
SUNPOU
 10
7278.48249
 20
6339.204545
 30
0.0
 11
7278.48249
 21
6324.204545
 31
0.0
  0
TEXT
  8
SUNPOU
 10
7233.48249
 20
6403.49026
 30
0.0
 40
60.0
  1
300
 50
90.0
  7
K
 72
     1
 11
7233.48249
 21
6489.204545
 31
0.0
  0
INSERT
  8
SUNPOU
  2
ARROWANG
 10
7278.48249
 20
6639.204545
 30
0.0
 41
45.0
 42
45.0
 50
90.0
 43
45.0
  0
INSERT
  8
SUNPOU
  2
ARROWANG
 10
7278.48249
 20
6339.204545
 30
0.0
 41
45.0
 42
45.0
 50
270.0
 43
45.0
  0
LINE
  8
SUNPOU
 10
7278.48249
 20
6339.204545
 30
0.0
 11
7278.48249
 21
6639.204545
 31
0.0
  0
LINE
  8
SUNPOU
 10
7472.694252
 20
6639.204545
 30
0.0
 11
7248.48249
 21
6639.204545
 31
0.0
  0
LINE
  8
SUNPOU
 10
7472.694252
 20
6339.204545
 30
0.0
 11
7248.48249
 21
6339.204545
 31
0.0
  0
TEXT
  8
SUNPOU
 10
7915.157736
 20
7094.527054
 30
0.0
 40
60.0
  1
1140
  7
K
 72
     1
 11
8033.729165
 21
7094.527054
 31
0.0
  0
INSERT
  8
SUNPOU
  2
ARROWANG
 10
8642.694252
 20
7069.16447
 30
0.0
 41
45.0
 42
45.0
 43
45.0
  0
INSERT
  8
SUNPOU
  2
ARROWANG
 10
7502.694252
 20
7069.16447
 30
0.0
 41
45.0
 42
45.0
 50
180.0
 43
45.0
  0
LINE
  8
SUNPOU
 10
7502.694252
 20
7069.16447
 30
0.0
 11
8642.694252
 21
7069.16447
 31
0.0
  0
LINE
  8
SUNPOU
 10
8642.694252
 20
6942.906749
 30
0.0
 11
8642.694252
 21
7099.16447
 31
0.0
  0
LINE
  8
SUNPOU
 10
7502.694252
 20
6942.906749
 30
0.0
 11
7502.694252
 21
7099.16447
 31
0.0
  0
TEXT
  8
SUNPOU
 10
8492.694252
 20
6957.906749
 30
0.0
 40
60.0
  1
120
  7
K
 72
     1
 11
8582.694252
 21
6957.906749
 31
0.0
  0
INSERT
  8
SUNPOU
  2
ARROWANG
 10
8642.694252
 20
6912.906749
 30
0.0
 41
45.0
 42
45.0
 43
45.0
  0
INSERT
  8
SUNPOU
  2
ARROWANG
 10
8522.694252
 20
6912.906749
 30
0.0
 41
45.0
 42
45.0
 50
180.0
 43
45.0
  0
LINE
  8
SUNPOU
 10
8642.694252
 20
6669.204545
 30
0.0
 11
8642.694252
 21
6942.906749
 31
0.0
  0
LINE
  8
SUNPOU
 10
8522.694252
 20
6912.906749
 30
0.0
 11
8642.694252
 21
6912.906749
 31
0.0
  0
TEXT
  8
SUNPOU
 10
7962.684079
 20
6945.563231
 30
0.0
 40
60.0
  1
900
  7
K
 72
     1
 11
8048.398365
 21
6945.563231
 31
0.0
  0
INSERT
  8
SUNPOU
  2
ARROWANG
 10
8522.694252
 20
6912.906749
 30
0.0
 41
45.0
 42
45.0
 43
45.0
  0
INSERT
  8
SUNPOU
  2
ARROWANG
 10
7622.694252
 20
6912.906749
 30
0.0
 41
45.0
 42
45.0
 50
180.0
 43
45.0
  0
LINE
  8
SUNPOU
 10
8522.694252
 20
6626.204545
 30
0.0
 11
8522.694252
 21
6942.906749
 31
0.0
  0
LINE
  8
SUNPOU
 10
7622.694252
 20
6912.906749
 30
0.0
 11
8522.694252
 21
6912.906749
 31
0.0
  0
TEXT
  8
SUNPOU
 10
7472.694266
 20
6957.906749
 30
0.0
 40
60.0
  1
120
  7
K
 72
     1
 11
7562.694266
 21
6957.906749
 31
0.0
  0
INSERT
  8
SUNPOU
  2
ARROWANG
 10
7622.694252
 20
6912.906749
 30
0.0
 41
45.0
 42
45.0
 43
45.0
  0
INSERT
  8
SUNPOU
  2
ARROWANG
 10
7502.694252
 20
6912.906749
 30
0.0
 41
45.0
 42
45.0
 50
180.0
 43
45.0
  0
LINE
  8
SUNPOU
 10
7502.694252
 20
6912.906749
 30
0.0
 11
7622.694252
 21
6912.906749
 31
0.0
  0
LINE
  8
SUNPOU
 10
7622.694252
 20
6646.204545
 30
0.0
 11
7622.694252
 21
6942.906749
 31
0.0
  0
LINE
  8
SUNPOU
 10
7502.694252
 20
6669.204545
 30
0.0
 11
7502.694252
 21
6942.906749
 31
0.0
  0
TEXT
  8
SUNPOU
 10
7970.018701
 20
6830.544083
 30
0.0
 40
60.0
  1
970
  7
K
 72
     1
 11
8055.732987
 21
6830.544083
 31
0.0
  0
INSERT
  8
SUNPOU
  2
ARROWANG
 10
8557.694252
 20
6812.475396
 30
0.0
 41
45.0
 42
45.0
 43
45.0
  0
INSERT
  8
SUNPOU
  2
ARROWANG
 10
7587.694252
 20
6812.475396
 30
0.0
 41
45.0
 42
45.0
 50
180.0
 43
45.0
  0
LINE
  8
SUNPOU
 10
7587.694252
 20
6812.475396
 30
0.0
 11
8557.694252
 21
6812.475396
 31
0.0
  0
LINE
  8
SUNPOU
 10
8557.694252
 20
6669.204545
 30
0.0
 11
8557.694252
 21
6842.475396
 31
0.0
  0
LINE
  8
SUNPOU
 10
7587.694252
 20
6669.204545
 30
0.0
 11
7587.694252
 21
6842.475396
 31
0.0
  0
TEXT
  8
SUNPOU
 10
7972.98706
 20
6725.624178
 30
0.0
 40
60.0
  1
956
  7
K
 72
     1
 11
8058.701346
 21
6725.624178
 31
0.0
  0
INSERT
  8
SUNPOU
  2
ARROWANG
 10
7594.694252
 20
6695.211972
 30
0.0
 41
45.0
 42
45.0
 50
180.0
 43
45.0
  0
INSERT
  8
SUNPOU
  2
ARROWANG
 10
8550.694252
 20
6695.211972
 30
0.0
 41
45.0
 42
45.0
 43
45.0
  0
LINE
  8
SUNPOU
 10
7594.694252
 20
6695.211972
 30
0.0
 11
8550.694252
 21
6695.211972
 31
0.0
  0
LINE
  8
SUNPOU
 10
8550.694252
 20
6646.204545
 30
0.0
 11
8550.694252
 21
6725.211972
 31
0.0
  0
LINE
  8
SUNPOU
 10
7594.694252
 20
6646.204545
 30
0.0
 11
7594.694252
 21
6725.211972
 31
0.0
  0
LINE
  8
JISSEN
 10
8082.560918
 20
6616.204545
 30
0.0
 11
8072.694252
 21
6616.204545
 31
0.0
  0
LINE
  8
JISSEN
 10
8175.650773
 20
6399.204545
 30
0.0
 11
8902.694252
 21
6399.204545
 31
0.0
  0
LINE
  8
ITTEN
 10
8052.982213
 20
6685.154905
 30
0.0
 11
8227.536725
 21
6278.254186
 31
0.0
  0
LINE
  8
HASEN
 10
8522.694252
 20
6596.204545
 30
0.0
 11
8802.694252
 21
6324.204545
 31
0.0
  0
LINE
  8
HASEN
 10
8522.694252
 20
6616.204545
 30
0.0
 11
8522.694252
 21
6596.204545
 31
0.0
  0
LINE
  8
HASEN
 10
8550.694252
 20
6616.204545
 30
0.0
 11
8082.560918
 21
6616.204545
 31
0.0
  0
LINE
  8
HASEN
 10
8557.694252
 20
6639.204545
 30
0.0
 11
8550.694252
 21
6616.204545
 31
0.0
  0
LINE
  8
JISSEN
 10
7594.694252
 20
6616.204545
 30
0.0
 11
8072.694252
 21
6616.204545
 31
0.0
  0
LINE
  8
JISSEN
 10
7587.694252
 20
6639.204545
 30
0.0
 11
7594.694252
 21
6616.204545
 31
0.0
  0
LINE
  8
JISSEN
 10
7622.694252
 20
6596.204545
 30
0.0
 11
7622.694252
 21
6616.204545
 31
0.0
  0
LINE
  8
JISSEN
 10
7607.824686
 20
6324.204545
 30
0.0
 11
7622.694252
 21
6596.204545
 31
0.0
  0
LINE
  8
JISSEN
 10
8642.694252
 20
6639.204545
 30
0.0
 11
8902.694252
 21
6399.204545
 31
0.0
  0
LINE
  8
SUNPOU
 10
7862.757802
 20
6474.204545
 30
0.0
 11
7862.757802
 21
6474.204545
 31
0.0
  0
LINE
  8
JISSEN
 10
7502.694252
 20
6639.204545
 30
0.0
 11
8642.694252
 21
6639.204545
 31
0.0
  0
LINE
  8
JISSEN
 10
7502.694252
 20
6639.204545
 30
0.0
 11
7502.694252
 21
6339.204545
 31
0.0
  0
TEXT
  8
SUNPOU
 10
7847.757802
 20
6309.204545
 30
0.0
 40
60.0
  1
150
 50
90.0
  7
K
 72
     1
 11
7847.757802
 21
6399.204545
 31
0.0
  0
INSERT
  8
SUNPOU
  2
ARROWANG
 10
7892.757802
 20
6324.204545
 30
0.0
 41
45.0
 42
45.0
 50
270.0
 43
45.0
  0
INSERT
  8
SUNPOU
  2
ARROWANG
 10
7892.757802
 20
6474.204545
 30
0.0
 41
45.0
 42
45.0
 50
90.0
 43
45.0
  0
LINE
  8
SUNPOU
 10
7632.694252
 20
6324.204545
 30
0.0
 11
7922.757802
 21
6324.204545
 31
0.0
  0
LINE
  8
SUNPOU
 10
7892.757802
 20
6474.204545
 30
0.0
 11
7892.757802
 21
6324.204545
 31
0.0
  0
LINE
  8
SUNPOU
 10
7762.694252
 20
6474.204545
 30
0.0
 11
7922.757802
 21
6474.204545
 31
0.0
  0
LINE
  8
ITTEN
 10
7560.753308
 20
6474.204545
 30
0.0
 11
7790.753308
 21
6474.204545
 31
0.0
  0
LINE
  8
JISSEN
 10
7615.844217
 20
6464.204545
 30
0.0
 11
7730.753308
 21
6464.204545
 31
0.0
  0
LINE
  8
JISSEN
 10
7616.57149
 20
6484.204545
 30
0.0
 11
7730.753308
 21
6484.204545
 31
0.0
  0
ARC
  8
JISSEN
 10
7730.753308
 20
6474.204545
 30
0.0
 40
10.0
 50
270.0
 51
90.0
  0
LINE
  8
JISSEN
 10
7502.694252
 20
6339.204545
 30
0.0
 11
7563.694252
 21
6339.204545
 31
0.0
  0
LINE
  8
JISSEN
 10
7563.694252
 20
6339.204545
 30
0.0
 11
7574.694252
 21
6324.204545
 31
0.0
  0
LINE
  8
JISSEN
 10
7574.694252
 20
6324.204545
 30
0.0
 11
8202.694252
 21
6324.204545
 31
0.0
  0
LINE
  8
JISSEN
 10
8902.694252
 20
6339.204545
 30
0.0
 11
8841.694252
 21
6339.204545
 31
0.0
  0
LINE
  8
JISSEN
 10
8841.694252
 20
6339.204545
 30
0.0
 11
8830.694252
 21
6324.204545
 31
0.0
  0
LINE
  8
JISSEN
 10
8830.694252
 20
6324.204545
 30
0.0
 11
8202.694252
 21
6324.204545
 31
0.0
  0
LINE
  8
JISSEN
 10
8195.563104
 20
6339.204545
 30
0.0
 11
8841.694252
 21
6339.204545
 31
0.0
  0
LINE
  8
SUNPOU
 10
7574.694252
 20
6294.204545
 30
0.0
 11
7574.694252
 21
6134.877499
 31
0.0
  0
LINE
  8
SUNPOU
 10
8830.694252
 20
6294.204545
 30
0.0
 11
8830.694252
 21
6134.877499
 31
0.0
  0
LINE
  8
SUNPOU
 10
7574.694252
 20
6164.877499
 30
0.0
 11
8830.694252
 21
6164.877499
 31
0.0
  0
INSERT
  8
SUNPOU
  2
ARROWANG
 10
8830.694252
 20
6164.877499
 30
0.0
 41
45.0
 42
45.0
 43
45.0
  0
INSERT
  8
SUNPOU
  2
ARROWANG
 10
7574.694252
 20
6164.877499
 30
0.0
 41
45.0
 42
45.0
 50
180.0
 43
45.0
  0
TEXT
  8
SUNPOU
 10
8084.122823
 20
6209.877499
 30
0.0
 40
60.0
  1
1256
  7
K
 72
     1
 11
8202.694252
 21
6209.877499
 31
0.0
  0
LINE
  8
SUNPOU
 10
7563.694252
 20
6309.204545
 30
0.0
 11
7563.694252
 21
6012.848567
 31
0.0
  0
LINE
  8
SUNPOU
 10
8841.694252
 20
6309.204545
 30
0.0
 11
8841.694252
 21
6012.848567
 31
0.0
  0
LINE
  8
SUNPOU
 10
7563.694252
 20
6042.848567
 30
0.0
 11
8841.694252
 21
6042.848567
 31
0.0
  0
INSERT
  8
SUNPOU
  2
ARROWANG
 10
7563.694252
 20
6042.848567
 30
0.0
 41
45.0
 42
45.0
 50
180.0
 43
45.0
  0
INSERT
  8
SUNPOU
  2
ARROWANG
 10
8841.694252
 20
6042.848567
 30
0.0
 41
45.0
 42
45.0
 43
45.0
  0
TEXT
  8
SUNPOU
 10
8084.122838
 20
6087.848567
 30
0.0
 40
60.0
  1
1278
  7
K
 72
     1
 11
8202.694266
 21
6087.848567
 31
0.0
  0
LINE
  8
SUNPOU
 10
7502.694252
 20
6309.204545
 30
0.0
 11
7502.694252
 21
5881.15016
 31
0.0
  0
LINE
  8
SUNPOU
 10
7602.694252
 20
6294.204545
 30
0.0
 11
7602.694252
 21
5881.15016
 31
0.0
  0
LINE
  8
SUNPOU
 10
7502.694252
 20
5911.15016
 30
0.0
 11
7602.694252
 21
5911.15016
 31
0.0
  0
INSERT
  8
SUNPOU
  2
ARROWANG
 10
7502.694252
 20
5911.15016
 30
0.0
 41
45.0
 42
45.0
 50
180.0
 43
45.0
  0
INSERT
  8
SUNPOU
  2
ARROWANG
 10
7602.694252
 20
5911.15016
 30
0.0
 41
45.0
 42
45.0
 43
45.0
  0
TEXT
  8
SUNPOU
 10
7462.694266
 20
5956.15016
 30
0.0
 40
60.0
  1
100
  7
K
 72
     1
 11
7552.694266
 21
5956.15016
 31
0.0
  0
LINE
  8
SUNPOU
 10
7602.694252
 20
5911.15016
 30
0.0
 11
8802.694252
 21
5911.15016
 31
0.0
  0
LINE
  8
SUNPOU
 10
8802.694252
 20
6294.204545
 30
0.0
 11
8802.694252
 21
5881.15016
 31
0.0
  0
INSERT
  8
SUNPOU
  2
ARROWANG
 10
7602.694252
 20
5911.15016
 30
0.0
 41
45.0
 42
45.0
 50
180.0
 43
45.0
  0
INSERT
  8
SUNPOU
  2
ARROWANG
 10
8802.694252
 20
5911.15016
 30
0.0
 41
45.0
 42
45.0
 43
45.0
  0
TEXT
  8
SUNPOU
 10
8084.122823
 20
5956.15016
 30
0.0
 40
60.0
  1
1200
  7
K
 72
     1
 11
8202.694252
 21
5956.15016
 31
0.0
  0
LINE
  8
JISSEN
 10
8902.694252
 20
6339.204545
 30
0.0
 11
8902.694252
 21
6399.204545
 31
0.0
  0
LINE
  8
SUNPOU
 10
8802.694252
 20
5881.15016
 30
0.0
 11
8802.694252
 21
5881.15016
 31
0.0
  0
LINE
  8
SUNPOU
 10
8902.694252
 20
6309.204545
 30
0.0
 11
8902.694252
 21
5881.15016
 31
0.0
  0
LINE
  8
SUNPOU
 10
8802.694252
 20
5911.15016
 30
0.0
 11
8902.694252
 21
5911.15016
 31
0.0
  0
INSERT
  8
SUNPOU
  2
ARROWANG
 10
8802.694252
 20
5911.15016
 30
0.0
 41
45.0
 42
45.0
 50
180.0
 43
45.0
  0
INSERT
  8
SUNPOU
  2
ARROWANG
 10
8902.694252
 20
5911.15016
 30
0.0
 41
45.0
 42
45.0
 43
45.0
  0
TEXT
  8
SUNPOU
 10
8762.694266
 20
5956.15016
 30
0.0
 40
60.0
  1
100
  7
K
 72
     1
 11
8852.694266
 21
5956.15016
 31
0.0
  0
CIRCLE
  8
SAISEN
 10
7707.719505
 20
6379.204545
 30
0.0
 40
12.5
  0
CIRCLE
  8
SAISEN
 10
8697.668998
 20
6379.204545
 30
0.0
 40
12.5
  0
LINE
  8
SUNPOU
 10
8932.694252
 20
6339.204545
 30
0.0
 11
9091.788363
 21
6339.204545
 31
0.0
  0
LINE
  8
SUNPOU
 10
8727.668998
 20
6379.204545
 30
0.0
 11
9091.788363
 21
6379.204545
 31
0.0
  0
LINE
  8
SUNPOU
 10
9061.788363
 20
6339.204545
 30
0.0
 11
9061.788363
 21
6379.204545
 31
0.0
  0
INSERT
  8
SUNPOU
  2
ARROWANG
 10
9061.788363
 20
6339.204545
 30
0.0
 41
45.0
 42
45.0
 50
90.0
 43
45.0
  0
INSERT
  8
SUNPOU
  2
ARROWANG
 10
9061.788363
 20
6379.204545
 30
0.0
 41
45.0
 42
45.0
 50
270.0
 43
45.0
  0
LINE
  8
SUNPOU
 10
9061.788363
 20
6339.204545
 30
0.0
 11
9061.788363
 21
6207.204545
 31
0.0
  0
LINE
  8
SUNPOU
 10
9061.788363
 20
6379.204545
 30
0.0
 11
9061.788363
 21
6469.204545
 31
0.0
  0
TEXT
  8
SUNPOU
 10
9016.788363
 20
6216.061688
 30
0.0
 40
60.0
  1
40
 50
90.0
  7
K
 72
     1
 11
9016.788363
 21
6273.204545
 31
0.0
  0
LINE
  8
SUNPOU
 10
7862.757802
 20
6474.204545
 30
0.0
 11
7862.757802
 21
6474.204545
 31
0.0
  0
TEXT
  8
SUNPOU
 10
5733.037829
 20
6243.49026
 30
0.0
 40
60.0
  1
300
 50
90.0
  7
K
 72
     1
 11
5733.037829
 21
6329.204545
 31
0.0
  0
INSERT
  8
SUNPOU
  2
ARROWANG
 10
5778.037829
 20
6479.204545
 30
0.0
 41
45.0
 42
45.0
 50
90.0
 43
45.0
  0
INSERT
  8
SUNPOU
  2
ARROWANG
 10
5778.037829
 20
6179.204545
 30
0.0
 41
45.0
 42
45.0
 50
270.0
 43
45.0
  0
LINE
  8
SUNPOU
 10
5778.037829
 20
6179.204545
 30
0.0
 11
5778.037829
 21
6479.204545
 31
0.0
  0
LINE
  8
SUNPOU
 10
5651.994738
 20
6479.204545
 30
0.0
 11
5808.037829
 21
6479.204545
 31
0.0
  0
LINE
  8
SUNPOU
 10
5748.037829
 20
6179.204545
 30
0.0
 11
5748.037829
 21
6179.204545
 31
0.0
  0
TEXT
  8
SUNPOU
 10
6902.068389
 20
5921.061688
 30
0.0
 40
60.0
  1
40
 50
90.0
  7
K
 72
     1
 11
6902.068389
 21
5978.204545
 31
0.0
  0
LINE
  8
SUNPOU
 10
6947.068389
 20
6084.204545
 30
0.0
 11
6947.068389
 21
6174.204545
 31
0.0
  0
LINE
  8
SUNPOU
 10
6947.068389
 20
6044.204545
 30
0.0
 11
6947.068389
 21
5912.204545
 31
0.0
  0
INSERT
  8
SUNPOU
  2
ARROWANG
 10
6947.068389
 20
6084.204545
 30
0.0
 41
45.0
 42
45.0
 50
270.0
 43
45.0
  0
INSERT
  8
SUNPOU
  2
ARROWANG
 10
6947.068389
 20
6044.204545
 30
0.0
 41
45.0
 42
45.0
 50
90.0
 43
45.0
  0
LINE
  8
SUNPOU
 10
6947.068389
 20
6044.204545
 30
0.0
 11
6947.068389
 21
6084.204545
 31
0.0
  0
LINE
  8
SUNPOU
 10
6612.949025
 20
6084.204545
 30
0.0
 11
6977.068389
 21
6084.204545
 31
0.0
  0
LINE
  8
SUNPOU
 10
6817.974278
 20
6044.204545
 30
0.0
 11
6977.068389
 21
6044.204545
 31
0.0
  0
LINE
  8
ITTEN
 10
5776.506338
 20
6684.361246
 30
0.0
 11
6109.442217
 21
5984.047845
 31
0.0
  0
LINE
  8
JISSEN
 10
5487.974278
 20
6029.204545
 30
0.0
 11
5497.974278
 21
6604.204545
 31
0.0
  0
LINE
  8
JISSEN
 10
6787.974278
 20
6144.204545
 30
0.0
 11
6211.359972
 21
6648.82598
 31
0.0
  0
LINE
  8
HASEN
 10
6687.974278
 20
6029.204545
 30
0.0
 11
6097.974278
 21
6604.204545
 31
0.0
  0
TEXT
  8
SUNPOU
 10
5145.546765
 20
6255.99026
 30
0.0
 40
60.0
  1
595
 50
90.0
  7
K
 72
     1
 11
5145.546765
 21
6341.704545
 31
0.0
  0
INSERT
  8
SUNPOU
  2
ARROWANG
 10
5190.546765
 20
6639.204545
 30
0.0
 41
45.0
 42
45.0
 50
90.0
 43
45.0
  0
INSERT
  8
SUNPOU
  2
ARROWANG
 10
5190.546765
 20
6044.204545
 30
0.0
 41
45.0
 42
45.0
 50
270.0
 43
45.0
  0
LINE
  8
SUNPOU
 10
5190.546765
 20
6044.204545
 30
0.0
 11
5190.546765
 21
6639.204545
 31
0.0
  0
LINE
  8
SUNPOU
 10
5357.974278
 20
6639.204545
 30
0.0
 11
5160.546765
 21
6639.204545
 31
0.0
  0
LINE
  8
SUNPOU
 10
5160.546765
 20
6044.204545
 30
0.0
 11
5160.546765
 21
6044.204545
 31
0.0
  0
CIRCLE
  8
SAISEN
 10
6582.949025
 20
6084.204545
 30
0.0
 40
12.5
  0
CIRCLE
  8
SAISEN
 10
5592.999531
 20
6084.204545
 30
0.0
 40
12.5
  0
TEXT
  8
SUNPOU
 10
5145.546765
 20
5901.775974
 30
0.0
 40
60.0
  1
15
 50
90.0
  7
K
 72
     1
 11
5145.546765
 21
5963.204545
 31
0.0
  0
LINE
  8
SUNPOU
 10
5190.546765
 20
6029.204545
 30
0.0
 11
5190.546765
 21
5897.204545
 31
0.0
  0
INSERT
  8
SUNPOU
  2
ARROWANG
 10
5190.546765
 20
6029.204545
 30
0.0
 41
45.0
 42
45.0
 50
90.0
 43
45.0
  0
LINE
  8
SUNPOU
 10
5190.546765
 20
6029.204545
 30
0.0
 11
5190.546765
 21
6044.204545
 31
0.0
  0
LINE
  8
SUNPOU
 10
5220.546765
 20
6044.204545
 30
0.0
 11
5220.546765
 21
6044.204545
 31
0.0
  0
LINE
  8
SUNPOU
 10
5429.974278
 20
6029.204545
 30
0.0
 11
5160.546765
 21
6029.204545
 31
0.0
  0
LINE
  8
SUNPOU
 10
5357.974278
 20
6044.204545
 30
0.0
 11
5160.546765
 21
6044.204545
 31
0.0
  0
LINE
  8
JISSEN
 10
6033.302147
 20
6144.204545
 30
0.0
 11
6787.974278
 21
6144.204545
 31
0.0
  0
TEXT
  8
SUNPOU
 10
6647.974293
 20
5661.15016
 30
0.0
 40
60.0
  1
100
  7
K
 72
     1
 11
6737.974293
 21
5661.15016
 31
0.0
  0
INSERT
  8
SUNPOU
  2
ARROWANG
 10
6787.974278
 20
5616.15016
 30
0.0
 41
45.0
 42
45.0
 43
45.0
  0
INSERT
  8
SUNPOU
  2
ARROWANG
 10
6687.974278
 20
5616.15016
 30
0.0
 41
45.0
 42
45.0
 50
180.0
 43
45.0
  0
LINE
  8
SUNPOU
 10
6687.974278
 20
5616.15016
 30
0.0
 11
6787.974278
 21
5616.15016
 31
0.0
  0
LINE
  8
SUNPOU
 10
6787.974278
 20
6014.204545
 30
0.0
 11
6787.974278
 21
5586.15016
 31
0.0
  0
LINE
  8
SUNPOU
 10
6687.974278
 20
5586.15016
 30
0.0
 11
6687.974278
 21
5586.15016
 31
0.0
  0
LINE
  8
JISSEN
 10
6787.974278
 20
6044.204545
 30
0.0
 11
6787.974278
 21
6144.204545
 31
0.0
  0
TEXT
  8
SUNPOU
 10
5969.402849
 20
5661.15016
 30
0.0
 40
60.0
  1
1200
  7
K
 72
     1
 11
6087.974278
 21
5661.15016
 31
0.0
  0
INSERT
  8
SUNPOU
  2
ARROWANG
 10
6687.974278
 20
5616.15016
 30
0.0
 41
45.0
 42
45.0
 43
45.0
  0
INSERT
  8
SUNPOU
  2
ARROWANG
 10
5487.974278
 20
5616.15016
 30
0.0
 41
45.0
 42
45.0
 50
180.0
 43
45.0
  0
LINE
  8
SUNPOU
 10
6687.974278
 20
5999.204545
 30
0.0
 11
6687.974278
 21
5586.15016
 31
0.0
  0
LINE
  8
SUNPOU
 10
5487.974278
 20
5616.15016
 30
0.0
 11
6687.974278
 21
5616.15016
 31
0.0
  0
TEXT
  8
SUNPOU
 10
5347.974293
 20
5661.15016
 30
0.0
 40
60.0
  1
100
  7
K
 72
     1
 11
5437.974293
 21
5661.15016
 31
0.0
  0
INSERT
  8
SUNPOU
  2
ARROWANG
 10
5487.974278
 20
5616.15016
 30
0.0
 41
45.0
 42
45.0
 43
45.0
  0
INSERT
  8
SUNPOU
  2
ARROWANG
 10
5387.974278
 20
5616.15016
 30
0.0
 41
45.0
 42
45.0
 50
180.0
 43
45.0
  0
LINE
  8
SUNPOU
 10
5387.974278
 20
5616.15016
 30
0.0
 11
5487.974278
 21
5616.15016
 31
0.0
  0
LINE
  8
SUNPOU
 10
5487.974278
 20
5999.204545
 30
0.0
 11
5487.974278
 21
5586.15016
 31
0.0
  0
LINE
  8
SUNPOU
 10
5387.974278
 20
6014.204545
 30
0.0
 11
5387.974278
 21
5586.15016
 31
0.0
  0
TEXT
  8
SUNPOU
 10
5709.402864
 20
6849.881472
 30
0.0
 40
60.0
  1
664
  7
K
 72
     1
 11
5797.974293
 21
6849.881472
 31
0.0
  0
INSERT
  8
SUNPOU
  2
ARROWANG
 10
6129.974278
 20
6804.881472
 30
0.0
 41
45.0
 42
45.0
 43
45.0
  0
INSERT
  8
SUNPOU
  2
ARROWANG
 10
5465.974278
 20
6804.881472
 30
0.0
 41
45.0
 42
45.0
 50
180.0
 43
45.0
  0
LINE
  8
SUNPOU
 10
5465.974278
 20
6804.881472
 30
0.0
 11
6129.974278
 21
6804.881472
 31
0.0
  0
LINE
  8
SUNPOU
 10
6129.974278
 20
6669.204545
 30
0.0
 11
6129.974278
 21
6834.881472
 31
0.0
  0
LINE
  8
SUNPOU
 10
5465.974278
 20
6669.204545
 30
0.0
 11
5465.974278
 21
6834.881472
 31
0.0
  0
TEXT
  8
SUNPOU
 10
5710.831435
 20
6730.350132
 30
0.0
 40
60.0
  1
652
  7
K
 72
     1
 11
5797.974293
 21
6730.350132
 31
0.0
  0
INSERT
  8
SUNPOU
  2
ARROWANG
 10
6123.974278
 20
6685.350132
 30
0.0
 41
45.0
 42
45.0
 43
45.0
  0
INSERT
  8
SUNPOU
  2
ARROWANG
 10
5471.974278
 20
6685.350132
 30
0.0
 41
45.0
 42
45.0
 50
180.0
 43
45.0
  0
LINE
  8
SUNPOU
 10
5471.974278
 20
6685.350132
 30
0.0
 11
6123.974278
 21
6685.350132
 31
0.0
  0
LINE
  8
SUNPOU
 10
6123.974278
 20
6654.204545
 30
0.0
 11
6123.974278
 21
6715.350132
 31
0.0
  0
LINE
  8
SUNPOU
 10
5471.974278
 20
6654.204545
 30
0.0
 11
5471.974278
 21
6715.350132
 31
0.0
  0
TEXT
  8
SUNPOU
 10
5969.402864
 20
5792.848567
 30
0.0
 40
60.0
  1
1278
  7
K
 72
     1
 11
6087.974293
 21
5792.848567
 31
0.0
  0
INSERT
  8
SUNPOU
  2
ARROWANG
 10
6726.974278
 20
5747.848567
 30
0.0
 41
45.0
 42
45.0
 43
45.0
  0
INSERT
  8
SUNPOU
  2
ARROWANG
 10
5448.974278
 20
5747.848567
 30
0.0
 41
45.0
 42
45.0
 50
180.0
 43
45.0
  0
LINE
  8
SUNPOU
 10
5448.974278
 20
5747.848567
 30
0.0
 11
6726.974278
 21
5747.848567
 31
0.0
  0
LINE
  8
SUNPOU
 10
6726.974278
 20
6014.204545
 30
0.0
 11
6726.974278
 21
5717.848567
 31
0.0
  0
LINE
  8
SUNPOU
 10
5448.974278
 20
6014.204545
 30
0.0
 11
5448.974278
 21
5717.848567
 31
0.0
  0
TEXT
  8
SUNPOU
 10
5969.402849
 20
5914.877499
 30
0.0
 40
60.0
  1
1256
  7
K
 72
     1
 11
6087.974278
 21
5914.877499
 31
0.0
  0
INSERT
  8
SUNPOU
  2
ARROWANG
 10
5459.974278
 20
5869.877499
 30
0.0
 41
45.0
 42
45.0
 50
180.0
 43
45.0
  0
INSERT
  8
SUNPOU
  2
ARROWANG
 10
6715.974278
 20
5869.877499
 30
0.0
 41
45.0
 42
45.0
 43
45.0
  0
LINE
  8
SUNPOU
 10
5459.974278
 20
5869.877499
 30
0.0
 11
6715.974278
 21
5869.877499
 31
0.0
  0
LINE
  8
SUNPOU
 10
6715.974278
 20
5999.204545
 30
0.0
 11
6715.974278
 21
5839.877499
 31
0.0
  0
LINE
  8
SUNPOU
 10
5459.974278
 20
5999.204545
 30
0.0
 11
5459.974278
 21
5839.877499
 31
0.0
  0
LINE
  8
JISSEN
 10
6080.84313
 20
6044.204545
 30
0.0
 11
6726.974278
 21
6044.204545
 31
0.0
  0
LINE
  8
JISSEN
 10
6715.974278
 20
6029.204545
 30
0.0
 11
6087.974278
 21
6029.204545
 31
0.0
  0
LINE
  8
JISSEN
 10
6726.974278
 20
6044.204545
 30
0.0
 11
6715.974278
 21
6029.204545
 31
0.0
  0
LINE
  8
JISSEN
 10
6787.974278
 20
6044.204545
 30
0.0
 11
6726.974278
 21
6044.204545
 31
0.0
  0
LINE
  8
JISSEN
 10
5459.974278
 20
6029.204545
 30
0.0
 11
6087.974278
 21
6029.204545
 31
0.0
  0
LINE
  8
JISSEN
 10
5448.974278
 20
6044.204545
 30
0.0
 11
5459.974278
 21
6029.204545
 31
0.0
  0
LINE
  8
JISSEN
 10
5387.974278
 20
6044.204545
 30
0.0
 11
5448.974278
 21
6044.204545
 31
0.0
  0
ARC
  8
JISSEN
 10
5607.974278
 20
6179.204545
 30
0.0
 40
10.0
 50
270.0
 51
90.0
  0
LINE
  8
JISSEN
 10
5493.79246
 20
6189.204545
 30
0.0
 11
5607.974278
 21
6189.204545
 31
0.0
  0
LINE
  8
JISSEN
 10
5493.065187
 20
6169.204545
 30
0.0
 11
5607.974278
 21
6169.204545
 31
0.0
  0
LINE
  8
ITTEN
 10
5437.974278
 20
6179.204545
 30
0.0
 11
5667.974278
 21
6179.204545
 31
0.0
  0
LINE
  8
SUNPOU
 10
5647.974278
 20
6179.204545
 30
0.0
 11
5808.037829
 21
6179.204545
 31
0.0
  0
LINE
  8
SUNPOU
 10
5778.037829
 20
6179.204545
 30
0.0
 11
5778.037829
 21
6029.204545
 31
0.0
  0
LINE
  8
SUNPOU
 10
5517.974278
 20
6029.204545
 30
0.0
 11
5808.037829
 21
6029.204545
 31
0.0
  0
INSERT
  8
SUNPOU
  2
ARROWANG
 10
5778.037829
 20
6179.204545
 30
0.0
 41
45.0
 42
45.0
 50
90.0
 43
45.0
  0
INSERT
  8
SUNPOU
  2
ARROWANG
 10
5778.037829
 20
6029.204545
 30
0.0
 41
45.0
 42
45.0
 50
270.0
 43
45.0
  0
TEXT
  8
SUNPOU
 10
5733.037829
 20
6014.204545
 30
0.0
 40
60.0
  1
150
 50
90.0
  7
K
 72
     1
 11
5733.037829
 21
6104.204545
 31
0.0
  0
LINE
  8
JISSEN
 10
5387.974278
 20
6639.204545
 30
0.0
 11
5387.974278
 21
6044.204545
 31
0.0
  0
LINE
  8
JISSEN
 10
5387.974278
 20
6639.204545
 30
0.0
 11
6207.974278
 21
6639.204545
 31
0.0
  0
LINE
  8
JISSEN
 10
5497.974278
 20
6624.204545
 30
0.0
 11
5497.974278
 21
6604.204545
 31
0.0
  0
LINE
  8
HASEN
 10
6097.974278
 20
6624.204545
 30
0.0
 11
6097.974278
 21
6604.204545
 31
0.0
  0
LINE
  8
JISSEN
 10
5465.974278
 20
6639.204545
 30
0.0
 11
5471.974278
 21
6624.204545
 31
0.0
  0
LINE
  8
JISSEN
 10
5471.974278
 20
6624.204545
 30
0.0
 11
5797.974278
 21
6624.204545
 31
0.0
  0
LINE
  8
HASEN
 10
6129.974278
 20
6639.204545
 30
0.0
 11
6123.974278
 21
6624.204545
 31
0.0
  0
LINE
  8
HASEN
 10
6123.974278
 20
6624.204545
 30
0.0
 11
5797.974278
 21
6624.204545
 31
0.0
  0
LINE
  8
SUNPOU
 10
5160.546765
 20
6044.204545
 30
0.0
 11
5160.546765
 21
6044.204545
 31
0.0
  0
LINE
  8
SUNPOU
 10
5387.974278
 20
6669.204545
 30
0.0
 11
5387.974278
 21
6950.269471
 31
0.0
  0
LINE
  8
SUNPOU
 10
5497.974278
 20
6654.204545
 30
0.0
 11
5497.974278
 21
6950.269471
 31
0.0
  0
LINE
  8
SUNPOU
 10
5387.974278
 20
6920.269471
 30
0.0
 11
5497.974278
 21
6920.269471
 31
0.0
  0
INSERT
  8
SUNPOU
  2
ARROWANG
 10
5387.974278
 20
6920.269471
 30
0.0
 41
45.0
 42
45.0
 50
180.0
 43
45.0
  0
INSERT
  8
SUNPOU
  2
ARROWANG
 10
5497.974278
 20
6920.269471
 30
0.0
 41
45.0
 42
45.0
 43
45.0
  0
TEXT
  8
SUNPOU
 10
5352.974293
 20
6965.269471
 30
0.0
 40
60.0
  1
110
  7
K
 72
     1
 11
5442.974293
 21
6965.269471
 31
0.0
  0
LINE
  8
SUNPOU
 10
5497.974278
 20
6920.269471
 30
0.0
 11
6097.974278
 21
6920.269471
 31
0.0
  0
LINE
  8
SUNPOU
 10
6097.974278
 20
6654.204545
 30
0.0
 11
6097.974278
 21
6950.269471
 31
0.0
  0
INSERT
  8
SUNPOU
  2
ARROWANG
 10
5497.974278
 20
6920.269471
 30
0.0
 41
45.0
 42
45.0
 50
180.0
 43
45.0
  0
INSERT
  8
SUNPOU
  2
ARROWANG
 10
6097.974278
 20
6920.269471
 30
0.0
 41
45.0
 42
45.0
 43
45.0
  0
TEXT
  8
SUNPOU
 10
5710.831421
 20
6965.269471
 30
0.0
 40
60.0
  1
600
  7
K
 72
     1
 11
5797.974278
 21
6965.269471
 31
0.0
  0
LINE
  8
SUNPOU
 10
6097.974278
 20
6920.269471
 30
0.0
 11
6207.974278
 21
6920.269471
 31
0.0
  0
LINE
  8
SUNPOU
 10
6207.974278
 20
6669.204545
 30
0.0
 11
6207.974278
 21
6950.269471
 31
0.0
  0
INSERT
  8
SUNPOU
  2
ARROWANG
 10
6097.974278
 20
6920.269471
 30
0.0
 41
45.0
 42
45.0
 50
180.0
 43
45.0
  0
INSERT
  8
SUNPOU
  2
ARROWANG
 10
6207.974278
 20
6920.269471
 30
0.0
 41
45.0
 42
45.0
 43
45.0
  0
TEXT
  8
SUNPOU
 10
6062.974278
 20
6965.269471
 30
0.0
 40
60.0
  1
110
  7
K
 72
     1
 11
6152.974278
 21
6965.269471
 31
0.0
  0
LINE
  8
SUNPOU
 10
5387.974278
 20
6950.269471
 30
0.0
 11
5387.974278
 21
7090.467519
 31
0.0
  0
LINE
  8
SUNPOU
 10
6207.974278
 20
6950.269471
 30
0.0
 11
6207.974278
 21
7090.467519
 31
0.0
  0
LINE
  8
SUNPOU
 10
5387.974278
 20
7060.467519
 30
0.0
 11
6207.974278
 21
7060.467519
 31
0.0
  0
INSERT
  8
SUNPOU
  2
ARROWANG
 10
5387.974278
 20
7060.467519
 30
0.0
 41
45.0
 42
45.0
 50
180.0
 43
45.0
  0
INSERT
  8
SUNPOU
  2
ARROWANG
 10
6207.974278
 20
7060.467519
 30
0.0
 41
45.0
 42
45.0
 43
45.0
  0
TEXT
  8
SUNPOU
 10
5712.260007
 20
7105.467519
 30
0.0
 40
60.0
  1
820
  7
K
 72
     1
 11
5797.974293
 21
7105.467519
 31
0.0
  0
LINE
  8
JISSEN
 10
5497.085647
 20
6469.204545
 30
0.0
 11
5611.994738
 21
6469.204545
 31
0.0
  0
LINE
  8
JISSEN
 10
5497.81292
 20
6489.204545
 30
0.0
 11
5611.994738
 21
6489.204545
 31
0.0
  0
ARC
  8
JISSEN
 10
5611.994738
 20
6479.204545
 30
0.0
 40
10.0
 50
270.0
 51
90.0
  0
LINE
  8
ITTEN
 10
5441.994738
 20
6479.204545
 30
0.0
 11
5671.994738
 21
6479.204545
 31
0.0
  0
LINE
  8
SUNPOU
 10
5748.037829
 20
6179.204545
 30
0.0
 11
5748.037829
 21
6179.204545
 31
0.0
  0
CIRCLE
  8
JISSEN
 10
3669.883406
 20
4801.347896
 30
0.0
 40
410.0
  0
TEXT
  8
SUNPOU
 10
3604.946956
 20
6358.49026
 30
0.0
 40
60.0
  1
230
 50
90.0
  7
K
 72
     1
 11
3604.946956
 21
6444.204545
 31
0.0
  0
INSERT
  8
SUNPOU
  2
ARROWANG
 10
3649.946956
 20
6559.204545
 30
0.0
 41
45.0
 42
45.0
 50
90.0
 43
45.0
  0
INSERT
  8
SUNPOU
  2
ARROWANG
 10
3649.946956
 20
6329.204545
 30
0.0
 41
45.0
 42
45.0
 50
270.0
 43
45.0
  0
LINE
  8
SUNPOU
 10
3649.946956
 20
6329.204545
 30
0.0
 11
3649.946956
 21
6559.204545
 31
0.0
  0
LINE
  8
SUNPOU
 10
3525.29517
 20
6559.204545
 30
0.0
 11
3679.946956
 21
6559.204545
 31
0.0
  0
LINE
  8
SUNPOU
 10
3619.946956
 20
6329.204545
 30
0.0
 11
3619.946956
 21
6329.204545
 31
0.0
  0
LINE
  8
ITTEN
 10
3315.29517
 20
6559.204545
 30
0.0
 11
3545.29517
 21
6559.204545
 31
0.0
  0
ARC
  8
JISSEN
 10
3485.29517
 20
6559.204545
 30
0.0
 40
10.0
 50
270.0
 51
90.0
  0
LINE
  8
JISSEN
 10
3371.113352
 20
6569.204545
 30
0.0
 11
3485.29517
 21
6569.204545
 31
0.0
  0
LINE
  8
JISSEN
 10
3370.386079
 20
6549.204545
 30
0.0
 11
3485.29517
 21
6549.204545
 31
0.0
  0
TEXT
  8
SUNPOU
 10
3584.169135
 20
7105.467519
 30
0.0
 40
60.0
  1
820
  7
K
 72
     1
 11
3669.88342
 21
7105.467519
 31
0.0
  0
INSERT
  8
SUNPOU
  2
ARROWANG
 10
4079.883406
 20
7060.467519
 30
0.0
 41
45.0
 42
45.0
 43
45.0
  0
INSERT
  8
SUNPOU
  2
ARROWANG
 10
3259.883406
 20
7060.467519
 30
0.0
 41
45.0
 42
45.0
 50
180.0
 43
45.0
  0
LINE
  8
SUNPOU
 10
3259.883406
 20
7060.467519
 30
0.0
 11
4079.883406
 21
7060.467519
 31
0.0
  0
LINE
  8
SUNPOU
 10
4079.883406
 20
6950.269471
 30
0.0
 11
4079.883406
 21
7090.467519
 31
0.0
  0
LINE
  8
SUNPOU
 10
3259.883406
 20
6950.269471
 30
0.0
 11
3259.883406
 21
7090.467519
 31
0.0
  0
TEXT
  8
SUNPOU
 10
3934.883406
 20
6965.269471
 30
0.0
 40
60.0
  1
110
  7
K
 72
     1
 11
4024.883406
 21
6965.269471
 31
0.0
  0
INSERT
  8
SUNPOU
  2
ARROWANG
 10
4079.883406
 20
6920.269471
 30
0.0
 41
45.0
 42
45.0
 43
45.0
  0
INSERT
  8
SUNPOU
  2
ARROWANG
 10
3969.883406
 20
6920.269471
 30
0.0
 41
45.0
 42
45.0
 50
180.0
 43
45.0
  0
LINE
  8
SUNPOU
 10
4079.883406
 20
6669.204545
 30
0.0
 11
4079.883406
 21
6950.269471
 31
0.0
  0
LINE
  8
SUNPOU
 10
3969.883406
 20
6920.269471
 30
0.0
 11
4079.883406
 21
6920.269471
 31
0.0
  0
TEXT
  8
SUNPOU
 10
3582.740548
 20
6965.269471
 30
0.0
 40
60.0
  1
600
  7
K
 72
     1
 11
3669.883406
 21
6965.269471
 31
0.0
  0
INSERT
  8
SUNPOU
  2
ARROWANG
 10
3969.883406
 20
6920.269471
 30
0.0
 41
45.0
 42
45.0
 43
45.0
  0
INSERT
  8
SUNPOU
  2
ARROWANG
 10
3369.883406
 20
6920.269471
 30
0.0
 41
45.0
 42
45.0
 50
180.0
 43
45.0
  0
LINE
  8
SUNPOU
 10
3969.883406
 20
6654.204545
 30
0.0
 11
3969.883406
 21
6950.269471
 31
0.0
  0
LINE
  8
SUNPOU
 10
3369.883406
 20
6920.269471
 30
0.0
 11
3969.883406
 21
6920.269471
 31
0.0
  0
TEXT
  8
SUNPOU
 10
3224.88342
 20
6965.269471
 30
0.0
 40
60.0
  1
110
  7
K
 72
     1
 11
3314.88342
 21
6965.269471
 31
0.0
  0
INSERT
  8
SUNPOU
  2
ARROWANG
 10
3369.883406
 20
6920.269471
 30
0.0
 41
45.0
 42
45.0
 43
45.0
  0
INSERT
  8
SUNPOU
  2
ARROWANG
 10
3259.883406
 20
6920.269471
 30
0.0
 41
45.0
 42
45.0
 50
180.0
 43
45.0
  0
LINE
  8
SUNPOU
 10
3259.883406
 20
6920.269471
 30
0.0
 11
3369.883406
 21
6920.269471
 31
0.0
  0
LINE
  8
SUNPOU
 10
3369.883406
 20
6654.204545
 30
0.0
 11
3369.883406
 21
6950.269471
 31
0.0
  0
LINE
  8
SUNPOU
 10
3259.883406
 20
6669.204545
 30
0.0
 11
3259.883406
 21
6950.269471
 31
0.0
  0
LINE
  8
JISSEN
 10
3369.883406
 20
6604.204545
 30
0.0
 11
3359.883406
 21
6179.204545
 31
0.0
  0
LINE
  8
JISSEN
 10
4079.883406
 20
6639.204545
 30
0.0
 11
4659.883406
 21
6294.204545
 31
0.0
  0
LINE
  8
ITTEN
 10
3643.218359
 20
6681.500825
 30
0.0
 11
3986.548452
 21
6136.908265
 31
0.0
  0
LINE
  8
HASEN
 10
4559.883406
 20
6179.204545
 30
0.0
 11
3969.883406
 21
6604.204545
 31
0.0
  0
TEXT
  8
SUNPOU
 10
3017.455893
 20
6330.99026
 30
0.0
 40
60.0
  1
445
 50
90.0
  7
K
 72
     1
 11
3017.455893
 21
6416.704545
 31
0.0
  0
INSERT
  8
SUNPOU
  2
ARROWANG
 10
3062.455893
 20
6639.204545
 30
0.0
 41
45.0
 42
45.0
 50
90.0
 43
45.0
  0
INSERT
  8
SUNPOU
  2
ARROWANG
 10
3062.455893
 20
6194.204545
 30
0.0
 41
45.0
 42
45.0
 50
270.0
 43
45.0
  0
LINE
  8
SUNPOU
 10
3062.455893
 20
6194.204545
 30
0.0
 11
3062.455893
 21
6639.204545
 31
0.0
  0
LINE
  8
SUNPOU
 10
3229.883406
 20
6639.204545
 30
0.0
 11
3032.455893
 21
6639.204545
 31
0.0
  0
LINE
  8
SUNPOU
 10
3032.455893
 20
6194.204545
 30
0.0
 11
3032.455893
 21
6194.204545
 31
0.0
  0
LINE
  8
JISSEN
 10
3469.883406
 20
4801.347896
 30
0.0
 11
3469.883406
 21
4971.347896
 31
0.0
  0
LINE
  8
JISSEN
 10
3489.883406
 20
4991.347896
 30
0.0
 11
3489.883406
 21
4801.347896
 31
0.0
  0
LINE
  8
ITTEN
 10
3535.551987
 20
5225.679314
 30
0.0
 11
3429.48597
 21
5331.745332
 31
0.0
  0
LINE
  8
HASEN
 10
3507.267716
 20
5268.105721
 30
0.0
 11
3471.979727
 21
5303.393711
 31
0.0
  0
LINE
  8
HASEN
 10
3507.267716
 20
5268.105721
 30
0.0
 11
3493.12558
 21
5253.963586
 31
0.0
  0
LINE
  8
HASEN
 10
3457.837591
 20
5289.251575
 30
0.0
 11
3493.12558
 21
5253.963586
 31
0.0
  0
CIRCLE
  8
JISSEN
 10
3669.883406
 20
4801.347896
 30
0.0
 40
332.0
  0
CIRCLE
  8
JISSEN
 10
3669.883406
 20
4801.347896
 30
0.0
 40
300.0
  0
CIRCLE
  8
JISSEN
 10
3669.883406
 20
4801.347896
 30
0.0
 40
326.0
  0
CIRCLE
  8
JISSEN
 10
3669.883406
 20
5181.347896
 30
0.0
 40
11.0
  0
LINE
  8
ITTEN
 10
3608.883406
 20
5181.347896
 30
0.0
 11
3730.883406
 21
5181.347896
 31
0.0
  0
LINE
  8
ITTEN
 10
3669.883406
 20
5242.347896
 30
0.0
 11
3669.883406
 21
5120.347896
 31
0.0
  0
POINT
  8
JISSEN
 10
3669.883406
 20
4802.347896
 30
0.0
  0
LINE
  8
ITTEN
 10
3371.293752
 20
4558.520346
 30
0.0
 11
3310.293752
 21
4664.175446
 31
0.0
  0
CIRCLE
  8
JISSEN
 10
3340.793752
 20
4611.347896
 30
0.0
 40
11.0
  0
LINE
  8
ITTEN
 10
3287.966202
 20
4580.847896
 30
0.0
 11
3393.621302
 21
4641.847896
 31
0.0
  0
LINE
  8
ITTEN
 10
4029.473059
 20
4664.175446
 30
0.0
 11
3968.473059
 21
4558.520346
 31
0.0
  0
CIRCLE
  8
JISSEN
 10
3998.973059
 20
4611.347896
 30
0.0
 40
11.0
  0
LINE
  8
ITTEN
 10
4051.800609
 20
4580.847896
 30
0.0
 11
3946.145509
 21
4641.847896
 31
0.0
  0
LINE
  8
ITTEN
 10
3669.883406
 20
5261.347896
 30
0.0
 11
3669.883406
 21
4341.347896
 31
0.0
  0
LINE
  8
HASEN
 10
3995.883406
 20
6624.204545
 30
0.0
 11
3669.883406
 21
6624.204545
 31
0.0
  0
LINE
  8
HASEN
 10
4001.883406
 20
6639.204545
 30
0.0
 11
3995.883406
 21
6624.204545
 31
0.0
  0
LINE
  8
JISSEN
 10
3343.883406
 20
6624.204545
 30
0.0
 11
3669.883406
 21
6624.204545
 31
0.0
  0
LINE
  8
JISSEN
 10
3337.883406
 20
6639.204545
 30
0.0
 11
3343.883406
 21
6624.204545
 31
0.0
  0
LINE
  8
HASEN
 10
3969.883406
 20
6624.204545
 30
0.0
 11
3969.883406
 21
6604.204545
 31
0.0
  0
LINE
  8
JISSEN
 10
3369.883406
 20
6624.204545
 30
0.0
 11
3369.883406
 21
6604.204545
 31
0.0
  0
LINE
  8
JISSEN
 10
3259.883406
 20
6639.204545
 30
0.0
 11
4079.883406
 21
6639.204545
 31
0.0
  0
LINE
  8
JISSEN
 10
3259.883406
 20
6639.204545
 30
0.0
 11
3259.883406
 21
6194.204545
 31
0.0
  0
TEXT
  8
SUNPOU
 10
3604.946956
 20
6164.204545
 30
0.0
 40
60.0
  1
150
 50
90.0
  7
K
 72
     1
 11
3604.946956
 21
6254.204545
 31
0.0
  0
INSERT
  8
SUNPOU
  2
ARROWANG
 10
3649.946956
 20
6179.204545
 30
0.0
 41
45.0
 42
45.0
 50
270.0
 43
45.0
  0
INSERT
  8
SUNPOU
  2
ARROWANG
 10
3649.946956
 20
6329.204545
 30
0.0
 41
45.0
 42
45.0
 50
90.0
 43
45.0
  0
LINE
  8
SUNPOU
 10
3389.883406
 20
6179.204545
 30
0.0
 11
3679.946956
 21
6179.204545
 31
0.0
  0
LINE
  8
SUNPOU
 10
3649.946956
 20
6329.204545
 30
0.0
 11
3649.946956
 21
6179.204545
 31
0.0
  0
LINE
  8
SUNPOU
 10
3519.883406
 20
6329.204545
 30
0.0
 11
3679.946956
 21
6329.204545
 31
0.0
  0
LINE
  8
ITTEN
 10
3309.883406
 20
6329.204545
 30
0.0
 11
3539.883406
 21
6329.204545
 31
0.0
  0
LINE
  8
JISSEN
 10
3364.974315
 20
6319.204545
 30
0.0
 11
3479.883406
 21
6319.204545
 31
0.0
  0
LINE
  8
JISSEN
 10
3365.701587
 20
6339.204545
 30
0.0
 11
3479.883406
 21
6339.204545
 31
0.0
  0
ARC
  8
JISSEN
 10
3479.883406
 20
6329.204545
 30
0.0
 40
10.0
 50
270.0
 51
90.0
  0
LINE
  8
JISSEN
 10
3259.883406
 20
6194.204545
 30
0.0
 11
3320.883406
 21
6194.204545
 31
0.0
  0
LINE
  8
JISSEN
 10
3320.883406
 20
6194.204545
 30
0.0
 11
3331.883406
 21
6179.204545
 31
0.0
  0
LINE
  8
JISSEN
 10
3331.883406
 20
6179.204545
 30
0.0
 11
3959.883406
 21
6179.204545
 31
0.0
  0
LINE
  8
JISSEN
 10
4659.883406
 20
6194.204545
 30
0.0
 11
4598.883406
 21
6194.204545
 31
0.0
  0
LINE
  8
JISSEN
 10
4598.883406
 20
6194.204545
 30
0.0
 11
4587.883406
 21
6179.204545
 31
0.0
  0
LINE
  8
JISSEN
 10
4587.883406
 20
6179.204545
 30
0.0
 11
3959.883406
 21
6179.204545
 31
0.0
  0
LINE
  8
JISSEN
 10
3950.426884
 20
6194.204545
 30
0.0
 11
4598.883406
 21
6194.204545
 31
0.0
  0
LINE
  8
SUNPOU
 10
3331.883406
 20
6149.204545
 30
0.0
 11
3331.883406
 21
5989.877499
 31
0.0
  0
LINE
  8
SUNPOU
 10
4587.883406
 20
6149.204545
 30
0.0
 11
4587.883406
 21
5989.877499
 31
0.0
  0
LINE
  8
SUNPOU
 10
3331.883406
 20
6019.877499
 30
0.0
 11
4587.883406
 21
6019.877499
 31
0.0
  0
INSERT
  8
SUNPOU
  2
ARROWANG
 10
4587.883406
 20
6019.877499
 30
0.0
 41
45.0
 42
45.0
 43
45.0
  0
INSERT
  8
SUNPOU
  2
ARROWANG
 10
3331.883406
 20
6019.877499
 30
0.0
 41
45.0
 42
45.0
 50
180.0
 43
45.0
  0
TEXT
  8
SUNPOU
 10
3841.311977
 20
6064.877499
 30
0.0
 40
60.0
  1
1256
  7
K
 72
     1
 11
3959.883406
 21
6064.877499
 31
0.0
  0
LINE
  8
SUNPOU
 10
3320.883406
 20
6164.204545
 30
0.0
 11
3320.883406
 21
5867.848567
 31
0.0
  0
LINE
  8
SUNPOU
 10
4598.883406
 20
6164.204545
 30
0.0
 11
4598.883406
 21
5867.848567
 31
0.0
  0
LINE
  8
SUNPOU
 10
3320.883406
 20
5897.848567
 30
0.0
 11
4598.883406
 21
5897.848567
 31
0.0
  0
INSERT
  8
SUNPOU
  2
ARROWANG
 10
3320.883406
 20
5897.848567
 30
0.0
 41
45.0
 42
45.0
 50
180.0
 43
45.0
  0
INSERT
  8
SUNPOU
  2
ARROWANG
 10
4598.883406
 20
5897.848567
 30
0.0
 41
45.0
 42
45.0
 43
45.0
  0
TEXT
  8
SUNPOU
 10
3841.311992
 20
5942.848567
 30
0.0
 40
60.0
  1
1278
  7
K
 72
     1
 11
3959.88342
 21
5942.848567
 31
0.0
  0
LINE
  8
SUNPOU
 10
3343.883406
 20
6654.204545
 30
0.0
 11
3343.883406
 21
6715.350132
 31
0.0
  0
LINE
  8
SUNPOU
 10
3995.883406
 20
6654.204545
 30
0.0
 11
3995.883406
 21
6715.350132
 31
0.0
  0
LINE
  8
SUNPOU
 10
3343.883406
 20
6685.350132
 30
0.0
 11
3995.883406
 21
6685.350132
 31
0.0
  0
INSERT
  8
SUNPOU
  2
ARROWANG
 10
3343.883406
 20
6685.350132
 30
0.0
 41
45.0
 42
45.0
 50
180.0
 43
45.0
  0
INSERT
  8
SUNPOU
  2
ARROWANG
 10
3995.883406
 20
6685.350132
 30
0.0
 41
45.0
 42
45.0
 43
45.0
  0
TEXT
  8
SUNPOU
 10
3582.740563
 20
6730.350132
 30
0.0
 40
60.0
  1
652
  7
K
 72
     1
 11
3669.88342
 21
6730.350132
 31
0.0
  0
LINE
  8
SUNPOU
 10
3337.883406
 20
6669.204545
 30
0.0
 11
3337.883406
 21
6834.881472
 31
0.0
  0
LINE
  8
SUNPOU
 10
4001.883406
 20
6669.204545
 30
0.0
 11
4001.883406
 21
6834.881472
 31
0.0
  0
LINE
  8
SUNPOU
 10
3337.883406
 20
6804.881472
 30
0.0
 11
4001.883406
 21
6804.881472
 31
0.0
  0
INSERT
  8
SUNPOU
  2
ARROWANG
 10
3337.883406
 20
6804.881472
 30
0.0
 41
45.0
 42
45.0
 50
180.0
 43
45.0
  0
INSERT
  8
SUNPOU
  2
ARROWANG
 10
4001.883406
 20
6804.881472
 30
0.0
 41
45.0
 42
45.0
 43
45.0
  0
TEXT
  8
SUNPOU
 10
3581.311992
 20
6849.881472
 30
0.0
 40
60.0
  1
664
  7
K
 72
     1
 11
3669.88342
 21
6849.881472
 31
0.0
  0
LINE
  8
SUNPOU
 10
3259.883406
 20
6164.204545
 30
0.0
 11
3259.883406
 21
5736.15016
 31
0.0
  0
LINE
  8
SUNPOU
 10
3359.883406
 20
6149.204545
 30
0.0
 11
3359.883406
 21
5736.15016
 31
0.0
  0
LINE
  8
SUNPOU
 10
3259.883406
 20
5766.15016
 30
0.0
 11
3359.883406
 21
5766.15016
 31
0.0
  0
INSERT
  8
SUNPOU
  2
ARROWANG
 10
3259.883406
 20
5766.15016
 30
0.0
 41
45.0
 42
45.0
 50
180.0
 43
45.0
  0
INSERT
  8
SUNPOU
  2
ARROWANG
 10
3359.883406
 20
5766.15016
 30
0.0
 41
45.0
 42
45.0
 43
45.0
  0
TEXT
  8
SUNPOU
 10
3219.88342
 20
5811.15016
 30
0.0
 40
60.0
  1
100
  7
K
 72
     1
 11
3309.88342
 21
5811.15016
 31
0.0
  0
LINE
  8
SUNPOU
 10
3359.883406
 20
5766.15016
 30
0.0
 11
4559.883406
 21
5766.15016
 31
0.0
  0
LINE
  8
SUNPOU
 10
4559.883406
 20
6149.204545
 30
0.0
 11
4559.883406
 21
5736.15016
 31
0.0
  0
INSERT
  8
SUNPOU
  2
ARROWANG
 10
3359.883406
 20
5766.15016
 30
0.0
 41
45.0
 42
45.0
 50
180.0
 43
45.0
  0
INSERT
  8
SUNPOU
  2
ARROWANG
 10
4559.883406
 20
5766.15016
 30
0.0
 41
45.0
 42
45.0
 43
45.0
  0
TEXT
  8
SUNPOU
 10
3841.311977
 20
5811.15016
 30
0.0
 40
60.0
  1
1200
  7
K
 72
     1
 11
3959.883406
 21
5811.15016
 31
0.0
  0
LINE
  8
JISSEN
 10
4659.883406
 20
6194.204545
 30
0.0
 11
4659.883406
 21
6294.204545
 31
0.0
  0
LINE
  8
SUNPOU
 10
4559.883406
 20
5736.15016
 30
0.0
 11
4559.883406
 21
5736.15016
 31
0.0
  0
LINE
  8
SUNPOU
 10
4659.883406
 20
6164.204545
 30
0.0
 11
4659.883406
 21
5736.15016
 31
0.0
  0
LINE
  8
SUNPOU
 10
4559.883406
 20
5766.15016
 30
0.0
 11
4659.883406
 21
5766.15016
 31
0.0
  0
INSERT
  8
SUNPOU
  2
ARROWANG
 10
4559.883406
 20
5766.15016
 30
0.0
 41
45.0
 42
45.0
 50
180.0
 43
45.0
  0
INSERT
  8
SUNPOU
  2
ARROWANG
 10
4659.883406
 20
5766.15016
 30
0.0
 41
45.0
 42
45.0
 43
45.0
  0
TEXT
  8
SUNPOU
 10
4519.88342
 20
5811.15016
 30
0.0
 40
60.0
  1
100
  7
K
 72
     1
 11
4609.88342
 21
5811.15016
 31
0.0
  0
LINE
  8
JISSEN
 10
3887.383406
 20
6294.204545
 30
0.0
 11
4659.883406
 21
6294.204545
 31
0.0
  0
LINE
  8
SUNPOU
 10
3229.883406
 20
6194.204545
 30
0.0
 11
3032.455893
 21
6194.204545
 31
0.0
  0
LINE
  8
SUNPOU
 10
3301.883406
 20
6179.204545
 30
0.0
 11
3032.455893
 21
6179.204545
 31
0.0
  0
LINE
  8
SUNPOU
 10
3092.455893
 20
6194.204545
 30
0.0
 11
3092.455893
 21
6194.204545
 31
0.0
  0
LINE
  8
SUNPOU
 10
3062.455893
 20
6179.204545
 30
0.0
 11
3062.455893
 21
6194.204545
 31
0.0
  0
INSERT
  8
SUNPOU
  2
ARROWANG
 10
3062.455893
 20
6179.204545
 30
0.0
 41
45.0
 42
45.0
 50
90.0
 43
45.0
  0
LINE
  8
SUNPOU
 10
3062.455893
 20
6179.204545
 30
0.0
 11
3062.455893
 21
6047.204545
 31
0.0
  0
TEXT
  8
SUNPOU
 10
3017.455893
 20
6051.775974
 30
0.0
 40
60.0
  1
15
 50
90.0
  7
K
 72
     1
 11
3017.455893
 21
6113.204545
 31
0.0
  0
CIRCLE
  8
JISSEN
 10
3959.883406
 20
4801.347896
 30
0.0
 40
700.0
  0
CIRCLE
  8
HASEN
 10
3959.883406
 20
4801.347896
 30
0.0
 40
600.0
  0
LINE
  8
HASEN
 10
3471.979727
 20
4299.302081
 30
0.0
 11
3507.267716
 21
4334.590071
 31
0.0
  0
LINE
  8
HASEN
 10
3493.12558
 20
4348.732206
 30
0.0
 11
3507.267716
 21
4334.590071
 31
0.0
  0
LINE
  8
HASEN
 10
3493.12558
 20
4348.732206
 30
0.0
 11
3457.837591
 21
4313.444217
 31
0.0
  0
LINE
  8
ITTEN
 10
3535.551987
 20
4377.016478
 30
0.0
 11
3429.48597
 21
4270.950461
 31
0.0
  0
LINE
  8
HASEN
 10
4461.92922
 20
4313.444217
 30
0.0
 11
4426.641231
 21
4348.732206
 31
0.0
  0
LINE
  8
HASEN
 10
4412.499095
 20
4334.590071
 30
0.0
 11
4426.641231
 21
4348.732206
 31
0.0
  0
LINE
  8
HASEN
 10
4412.499095
 20
4334.590071
 30
0.0
 11
4447.787085
 21
4299.302081
 31
0.0
  0
LINE
  8
ITTEN
 10
4384.214824
 20
4377.016478
 30
0.0
 11
4490.280841
 21
4270.950461
 31
0.0
  0
LINE
  8
HASEN
 10
4447.787085
 20
5303.393711
 30
0.0
 11
4412.499095
 21
5268.105721
 31
0.0
  0
LINE
  8
HASEN
 10
4426.641231
 20
5253.963586
 30
0.0
 11
4412.499095
 21
5268.105721
 31
0.0
  0
LINE
  8
HASEN
 10
4426.641231
 20
5253.963586
 30
0.0
 11
4461.92922
 21
5289.251575
 31
0.0
  0
LINE
  8
ITTEN
 10
4384.214824
 20
5225.679314
 30
0.0
 11
4490.280841
 21
5331.745332
 31
0.0
  0
CIRCLE
  8
SAISEN
 10
3464.908659
 20
6234.204545
 30
0.0
 40
12.5
  0
CIRCLE
  8
SAISEN
 10
4454.858152
 20
6234.204545
 30
0.0
 40
12.5
  0
LINE
  8
SUNPOU
 10
4689.883406
 20
6194.204545
 30
0.0
 11
4841.009299
 21
6194.204545
 31
0.0
  0
LINE
  8
SUNPOU
 10
4484.858152
 20
6234.204545
 30
0.0
 11
4841.009299
 21
6234.204545
 31
0.0
  0
LINE
  8
SUNPOU
 10
4811.009299
 20
6194.204545
 30
0.0
 11
4811.009299
 21
6234.204545
 31
0.0
  0
INSERT
  8
SUNPOU
  2
ARROWANG
 10
4811.009299
 20
6194.204545
 30
0.0
 41
45.0
 42
45.0
 50
90.0
 43
45.0
  0
INSERT
  8
SUNPOU
  2
ARROWANG
 10
4811.009299
 20
6234.204545
 30
0.0
 41
45.0
 42
45.0
 50
270.0
 43
45.0
  0
LINE
  8
SUNPOU
 10
4811.009299
 20
6194.204545
 30
0.0
 11
4811.009299
 21
6062.204545
 31
0.0
  0
LINE
  8
SUNPOU
 10
4811.009299
 20
6234.204545
 30
0.0
 11
4811.009299
 21
6324.204545
 31
0.0
  0
TEXT
  8
SUNPOU
 10
4766.009299
 20
6071.061688
 30
0.0
 40
60.0
  1
40
 50
90.0
  7
K
 72
     1
 11
4766.009299
 21
6128.204545
 31
0.0
  0
LINE
  8
JISSEN
 10
3446.276608
 20
5001.347896
 30
0.0
 11
3479.883406
 21
5001.347896
 31
0.0
  0
LINE
  8
JISSEN
 10
3459.883406
 20
4981.347896
 30
0.0
 11
3429.883406
 21
4981.347896
 31
0.0
  0
ARC
  8
JISSEN
 10
3479.883406
 20
4991.347896
 30
0.0
 40
10.0
 50
0.0
 51
90.0
  0
ARC
  8
JISSEN
 10
3459.883406
 20
4971.347896
 30
0.0
 40
10.0
 50
0.0
 51
90.0
  0
ARC
  8
JISSEN
 10
3459.883406
 20
4631.347896
 30
0.0
 40
10.0
 50
270.0
 51
0.0
  0
ARC
  8
JISSEN
 10
3479.883406
 20
4611.347896
 30
0.0
 40
10.0
 50
270.0
 51
0.0
  0
LINE
  8
JISSEN
 10
3459.883406
 20
4621.347896
 30
0.0
 11
3429.883406
 21
4621.347896
 31
0.0
  0
LINE
  8
JISSEN
 10
3446.276608
 20
4601.347896
 30
0.0
 11
3479.883406
 21
4601.347896
 31
0.0
  0
LINE
  8
JISSEN
 10
3489.883406
 20
4611.347896
 30
0.0
 11
3489.883406
 21
4801.347896
 31
0.0
  0
LINE
  8
JISSEN
 10
3469.883406
 20
4801.347896
 30
0.0
 11
3469.883406
 21
4631.347896
 31
0.0
  0
LINE
  8
ITTEN
 10
3959.883406
 20
5551.347896
 30
0.0
 11
3959.883406
 21
4051.347896
 31
0.0
  0
LINE
  8
ITTEN
 10
4709.883406
 20
4801.347896
 30
0.0
 11
3209.883406
 21
4801.347896
 31
0.0
  0
LINE
  8
SUNPOU
 10
3922.676233
 20
4962.889799
 30
0.0
 11
3417.090578
 21
4639.805993
 31
0.0
  0
INSERT
  8
SUNPOU
  2
ARROWANG
 10
3922.676233
 20
4962.889799
 30
0.0
 41
45.0
 42
45.0
 50
32.57975
 43
45.0
  0
INSERT
  8
SUNPOU
  2
ARROWANG
 10
3417.090578
 20
4639.805993
 30
0.0
 41
45.0
 42
45.0
 50
212.57975
 43
45.0
  0
TEXT
  8
SUNPOU
 10
3453.625466
 20
4697.229599
 30
0.0
 40
60.0
  1
%%C600
 50
32.57975
  7
K
 72
     1
 11
3545.112394
 21
4755.692383
 31
0.0
  0
LINE
  8
SUNPOU
 10
4599.522369
 20
5085.710335
 30
0.0
 11
3320.244442
 21
4516.985458
 31
0.0
  0
INSERT
  8
SUNPOU
  2
ARROWANG
 10
4599.522369
 20
5085.710335
 30
0.0
 41
45.0
 42
45.0
 50
23.968357
 43
45.0
  0
INSERT
  8
SUNPOU
  2
ARROWANG
 10
3320.244442
 20
4516.985458
 30
0.0
 41
45.0
 42
45.0
 50
203.968357
 43
45.0
  0
TEXT
  8
SUNPOU
 10
4175.399159
 20
4926.730083
 30
0.0
 40
60.0
  1
%%C1400
 50
23.968357
  7
K
 72
     1
 11
4300.716181
 21
4982.441907
 31
0.0
  0
TEXT
  8
SUNPOU
 10
2047.308287
 20
4926.730083
 30
0.0
 40
60.0
  1
%%C1400
 50
23.968357
  7
K
 72
     1
 11
2172.625308
 21
4982.441907
 31
0.0
  0
INSERT
  8
SUNPOU
  2
ARROWANG
 10
1192.15357
 20
4516.985458
 30
0.0
 41
45.0
 42
45.0
 50
203.968357
 43
45.0
  0
INSERT
  8
SUNPOU
  2
ARROWANG
 10
2471.431497
 20
5085.710335
 30
0.0
 41
45.0
 42
45.0
 50
23.968357
 43
45.0
  0
LINE
  8
SUNPOU
 10
2471.431497
 20
5085.710335
 30
0.0
 11
1192.15357
 21
4516.985458
 31
0.0
  0
TEXT
  8
SUNPOU
 10
1367.705085
 20
4902.318107
 30
0.0
 40
60.0
  1
%%C920
 50
343.617317
  7
K
 72
     1
 11
1471.868434
 21
4871.695373
 31
0.0
  0
INSERT
  8
SUNPOU
  2
ARROWANG
 10
1150.46887
 20
4931.091584
 30
0.0
 41
45.0
 42
45.0
 50
163.617317
 43
45.0
  0
INSERT
  8
SUNPOU
  2
ARROWANG
 10
2033.116196
 20
4671.604208
 30
0.0
 41
45.0
 42
45.0
 50
343.617317
 43
45.0
  0
LINE
  8
SUNPOU
 10
2033.116196
 20
4671.604208
 30
0.0
 11
1150.46887
 21
4931.091584
 31
0.0
  0
TEXT
  8
SUNPOU
 10
1325.534593
 20
4697.229599
 30
0.0
 40
60.0
  1
%%C600
 50
32.57975
  7
K
 72
     1
 11
1417.021521
 21
4755.692383
 31
0.0
  0
INSERT
  8
SUNPOU
  2
ARROWANG
 10
1288.999706
 20
4639.805993
 30
0.0
 41
45.0
 42
45.0
 50
212.57975
 43
45.0
  0
INSERT
  8
SUNPOU
  2
ARROWANG
 10
1794.585361
 20
4962.889799
 30
0.0
 41
45.0
 42
45.0
 50
32.57975
 43
45.0
  0
LINE
  8
SUNPOU
 10
1794.585361
 20
4962.889799
 30
0.0
 11
1288.999706
 21
4639.805993
 31
0.0
  0
LINE
  8
ITTEN
 10
2581.792533
 20
4801.347896
 30
0.0
 11
1081.792533
 21
4801.347896
 31
0.0
  0
LINE
  8
ITTEN
 10
1831.792533
 20
5551.347896
 30
0.0
 11
1831.792533
 21
4051.347896
 31
0.0
  0
LINE
  8
JISSEN
 10
1341.792533
 20
4801.347896
 30
0.0
 11
1341.792533
 21
4631.347896
 31
0.0
  0
LINE
  8
JISSEN
 10
1361.792533
 20
4611.347896
 30
0.0
 11
1361.792533
 21
4801.347896
 31
0.0
  0
LINE
  8
JISSEN
 10
1318.185735
 20
4601.347896
 30
0.0
 11
1351.792533
 21
4601.347896
 31
0.0
  0
LINE
  8
JISSEN
 10
1331.792533
 20
4621.347896
 30
0.0
 11
1301.792533
 21
4621.347896
 31
0.0
  0
ARC
  8
JISSEN
 10
1351.792533
 20
4611.347896
 30
0.0
 40
10.0
 50
270.0
 51
0.0
  0
ARC
  8
JISSEN
 10
1331.792533
 20
4631.347896
 30
0.0
 40
10.0
 50
270.0
 51
0.0
  0
ARC
  8
JISSEN
 10
1331.792533
 20
4971.347896
 30
0.0
 40
10.0
 50
0.0
 51
90.0
  0
ARC
  8
JISSEN
 10
1351.792533
 20
4991.347896
 30
0.0
 40
10.0
 50
0.0
 51
90.0
  0
LINE
  8
JISSEN
 10
1331.792533
 20
4981.347896
 30
0.0
 11
1301.792533
 21
4981.347896
 31
0.0
  0
LINE
  8
JISSEN
 10
1318.185735
 20
5001.347896
 30
0.0
 11
1351.792533
 21
5001.347896
 31
0.0
  0
TEXT
  8
SUNPOU
 10
2637.918426
 20
6221.061688
 30
0.0
 40
60.0
  1
40
 50
90.0
  7
K
 72
     1
 11
2637.918426
 21
6278.204545
 31
0.0
  0
LINE
  8
SUNPOU
 10
2682.918426
 20
6384.204545
 30
0.0
 11
2682.918426
 21
6474.204545
 31
0.0
  0
LINE
  8
SUNPOU
 10
2682.918426
 20
6344.204545
 30
0.0
 11
2682.918426
 21
6212.204545
 31
0.0
  0
INSERT
  8
SUNPOU
  2
ARROWANG
 10
2682.918426
 20
6384.204545
 30
0.0
 41
45.0
 42
45.0
 50
270.0
 43
45.0
  0
INSERT
  8
SUNPOU
  2
ARROWANG
 10
2682.918426
 20
6344.204545
 30
0.0
 41
45.0
 42
45.0
 50
90.0
 43
45.0
  0
LINE
  8
SUNPOU
 10
2682.918426
 20
6344.204545
 30
0.0
 11
2682.918426
 21
6384.204545
 31
0.0
  0
LINE
  8
SUNPOU
 10
2356.76728
 20
6384.204545
 30
0.0
 11
2712.918426
 21
6384.204545
 31
0.0
  0
LINE
  8
SUNPOU
 10
2561.792533
 20
6344.204545
 30
0.0
 11
2712.918426
 21
6344.204545
 31
0.0
  0
CIRCLE
  8
SAISEN
 10
2326.76728
 20
6384.204545
 30
0.0
 40
12.5
  0
CIRCLE
  8
SAISEN
 10
1336.817786
 20
6384.204545
 30
0.0
 40
12.5
  0
LINE
  8
ITTEN
 10
2256.123952
 20
5225.679314
 30
0.0
 11
2362.189969
 21
5331.745332
 31
0.0
  0
LINE
  8
HASEN
 10
2298.550358
 20
5253.963586
 30
0.0
 11
2333.838348
 21
5289.251575
 31
0.0
  0
LINE
  8
HASEN
 10
2298.550358
 20
5253.963586
 30
0.0
 11
2284.408223
 21
5268.105721
 31
0.0
  0
LINE
  8
HASEN
 10
2319.696212
 20
5303.393711
 30
0.0
 11
2284.408223
 21
5268.105721
 31
0.0
  0
LINE
  8
ITTEN
 10
2256.123952
 20
4377.016478
 30
0.0
 11
2362.189969
 21
4270.950461
 31
0.0
  0
LINE
  8
HASEN
 10
2284.408223
 20
4334.590071
 30
0.0
 11
2319.696212
 21
4299.302081
 31
0.0
  0
LINE
  8
HASEN
 10
2284.408223
 20
4334.590071
 30
0.0
 11
2298.550358
 21
4348.732206
 31
0.0
  0
LINE
  8
HASEN
 10
2333.838348
 20
4313.444217
 30
0.0
 11
2298.550358
 21
4348.732206
 31
0.0
  0
LINE
  8
ITTEN
 10
1407.461115
 20
4377.016478
 30
0.0
 11
1301.395098
 21
4270.950461
 31
0.0
  0
LINE
  8
HASEN
 10
1365.034708
 20
4348.732206
 30
0.0
 11
1329.746719
 21
4313.444217
 31
0.0
  0
LINE
  8
HASEN
 10
1365.034708
 20
4348.732206
 30
0.0
 11
1379.176844
 21
4334.590071
 31
0.0
  0
LINE
  8
HASEN
 10
1343.888854
 20
4299.302081
 30
0.0
 11
1379.176844
 21
4334.590071
 31
0.0
  0
CIRCLE
  8
HASEN
 10
1831.792533
 20
4801.347896
 30
0.0
 40
600.0
  0
CIRCLE
  8
JISSEN
 10
1591.792533
 20
4801.347896
 30
0.0
 40
460.0
  0
CIRCLE
  8
JISSEN
 10
1831.792533
 20
4801.347896
 30
0.0
 40
700.0
  0
TEXT
  8
SUNPOU
 10
889.36502
 20
6201.775974
 30
0.0
 40
60.0
  1
15
 50
90.0
  7
K
 72
     1
 11
889.36502
 21
6263.204545
 31
0.0
  0
LINE
  8
SUNPOU
 10
934.36502
 20
6344.204545
 30
0.0
 11
934.36502
 21
6434.204545
 31
0.0
  0
LINE
  8
SUNPOU
 10
934.36502
 20
6329.204545
 30
0.0
 11
934.36502
 21
6197.204545
 31
0.0
  0
INSERT
  8
SUNPOU
  2
ARROWANG
 10
934.36502
 20
6344.204545
 30
0.0
 41
45.0
 42
45.0
 50
270.0
 43
45.0
  0
INSERT
  8
SUNPOU
  2
ARROWANG
 10
934.36502
 20
6329.204545
 30
0.0
 41
45.0
 42
45.0
 50
90.0
 43
45.0
  0
LINE
  8
SUNPOU
 10
934.36502
 20
6329.204545
 30
0.0
 11
934.36502
 21
6344.204545
 31
0.0
  0
LINE
  8
SUNPOU
 10
964.36502
 20
6344.204545
 30
0.0
 11
964.36502
 21
6344.204545
 31
0.0
  0
LINE
  8
SUNPOU
 10
1173.792533
 20
6329.204545
 30
0.0
 11
904.36502
 21
6329.204545
 31
0.0
  0
TEXT
  8
SUNPOU
 10
889.36502
 20
6405.99026
 30
0.0
 40
60.0
  1
295
 50
90.0
  7
K
 72
     1
 11
889.36502
 21
6491.704545
 31
0.0
  0
INSERT
  8
SUNPOU
  2
ARROWANG
 10
934.36502
 20
6639.204545
 30
0.0
 41
45.0
 42
45.0
 50
90.0
 43
45.0
  0
INSERT
  8
SUNPOU
  2
ARROWANG
 10
934.36502
 20
6344.204545
 30
0.0
 41
45.0
 42
45.0
 50
270.0
 43
45.0
  0
LINE
  8
SUNPOU
 10
934.36502
 20
6344.204545
 30
0.0
 11
934.36502
 21
6639.204545
 31
0.0
  0
LINE
  8
SUNPOU
 10
1101.792533
 20
6639.204545
 30
0.0
 11
904.36502
 21
6639.204545
 31
0.0
  0
LINE
  8
SUNPOU
 10
1101.792533
 20
6344.204545
 30
0.0
 11
904.36502
 21
6344.204545
 31
0.0
  0
LINE
  8
JISSEN
 10
1724.211888
 20
6444.204545
 30
0.0
 11
2531.792533
 21
6444.204545
 31
0.0
  0
LINE
  8
JISSEN
 10
2531.792533
 20
6444.204545
 30
0.0
 11
2051.792533
 21
6639.204545
 31
0.0
  0
TEXT
  8
SUNPOU
 10
2391.792548
 20
5961.15016
 30
0.0
 40
60.0
  1
100
  7
K
 72
     1
 11
2481.792548
 21
5961.15016
 31
0.0
  0
INSERT
  8
SUNPOU
  2
ARROWANG
 10
2531.792533
 20
5916.15016
 30
0.0
 41
45.0
 42
45.0
 43
45.0
  0
INSERT
  8
SUNPOU
  2
ARROWANG
 10
2431.792533
 20
5916.15016
 30
0.0
 41
45.0
 42
45.0
 50
180.0
 43
45.0
  0
LINE
  8
SUNPOU
 10
2431.792533
 20
5916.15016
 30
0.0
 11
2531.792533
 21
5916.15016
 31
0.0
  0
LINE
  8
SUNPOU
 10
2531.792533
 20
6314.204545
 30
0.0
 11
2531.792533
 21
5886.15016
 31
0.0
  0
LINE
  8
SUNPOU
 10
2431.792533
 20
5886.15016
 30
0.0
 11
2431.792533
 21
5886.15016
 31
0.0
  0
LINE
  8
JISSEN
 10
2531.792533
 20
6344.204545
 30
0.0
 11
2531.792533
 21
6444.204545
 31
0.0
  0
TEXT
  8
SUNPOU
 10
1713.221105
 20
5961.15016
 30
0.0
 40
60.0
  1
1200
  7
K
 72
     1
 11
1831.792533
 21
5961.15016
 31
0.0
  0
INSERT
  8
SUNPOU
  2
ARROWANG
 10
2431.792533
 20
5916.15016
 30
0.0
 41
45.0
 42
45.0
 43
45.0
  0
INSERT
  8
SUNPOU
  2
ARROWANG
 10
1231.792533
 20
5916.15016
 30
0.0
 41
45.0
 42
45.0
 50
180.0
 43
45.0
  0
LINE
  8
SUNPOU
 10
2431.792533
 20
6299.204545
 30
0.0
 11
2431.792533
 21
5886.15016
 31
0.0
  0
LINE
  8
SUNPOU
 10
1231.792533
 20
5916.15016
 30
0.0
 11
2431.792533
 21
5916.15016
 31
0.0
  0
TEXT
  8
SUNPOU
 10
1091.792548
 20
5961.15016
 30
0.0
 40
60.0
  1
100
  7
K
 72
     1
 11
1181.792548
 21
5961.15016
 31
0.0
  0
INSERT
  8
SUNPOU
  2
ARROWANG
 10
1231.792533
 20
5916.15016
 30
0.0
 41
45.0
 42
45.0
 43
45.0
  0
INSERT
  8
SUNPOU
  2
ARROWANG
 10
1131.792533
 20
5916.15016
 30
0.0
 41
45.0
 42
45.0
 50
180.0
 43
45.0
  0
LINE
  8
SUNPOU
 10
1131.792533
 20
5916.15016
 30
0.0
 11
1231.792533
 21
5916.15016
 31
0.0
  0
LINE
  8
SUNPOU
 10
1231.792533
 20
6299.204545
 30
0.0
 11
1231.792533
 21
5886.15016
 31
0.0
  0
LINE
  8
SUNPOU
 10
1131.792533
 20
6314.204545
 30
0.0
 11
1131.792533
 21
5886.15016
 31
0.0
  0
TEXT
  8
SUNPOU
 10
1468.645713
 20
7107.094126
 30
0.0
 40
60.0
  1
920
  7
K
 72
     1
 11
1554.359999
 21
7107.094126
 31
0.0
  0
INSERT
  8
SUNPOU
  2
ARROWANG
 10
1131.792533
 20
7062.094126
 30
0.0
 41
45.0
 42
45.0
 50
180.0
 43
45.0
  0
INSERT
  8
SUNPOU
  2
ARROWANG
 10
2051.792533
 20
7062.094126
 30
0.0
 41
45.0
 42
45.0
 43
45.0
  0
LINE
  8
SUNPOU
 10
1131.792533
 20
7062.094126
 30
0.0
 11
2051.792533
 21
7062.094126
 31
0.0
  0
LINE
  8
SUNPOU
 10
2051.792533
 20
6950.143835
 30
0.0
 11
2051.792533
 21
7092.094126
 31
0.0
  0
LINE
  8
SUNPOU
 10
1131.792533
 20
6950.143835
 30
0.0
 11
1131.792533
 21
7092.094126
 31
0.0
  0
TEXT
  8
SUNPOU
 10
1861.078247
 20
6965.143835
 30
0.0
 40
60.0
  1
210
  7
K
 72
     1
 11
1946.792533
 21
6965.143835
 31
0.0
  0
INSERT
  8
SUNPOU
  2
ARROWANG
 10
2051.792533
 20
6920.143835
 30
0.0
 41
45.0
 42
45.0
 43
45.0
  0
INSERT
  8
SUNPOU
  2
ARROWANG
 10
1841.792533
 20
6920.143835
 30
0.0
 41
45.0
 42
45.0
 50
180.0
 43
45.0
  0
LINE
  8
SUNPOU
 10
2051.792533
 20
6669.204545
 30
0.0
 11
2051.792533
 21
6950.143835
 31
0.0
  0
LINE
  8
SUNPOU
 10
1841.792533
 20
6920.143835
 30
0.0
 11
2051.792533
 21
6920.143835
 31
0.0
  0
TEXT
  8
SUNPOU
 10
1454.649676
 20
6965.143835
 30
0.0
 40
60.0
  1
600
  7
K
 72
     1
 11
1541.792533
 21
6965.143835
 31
0.0
  0
INSERT
  8
SUNPOU
  2
ARROWANG
 10
1841.792533
 20
6920.143835
 30
0.0
 41
45.0
 42
45.0
 43
45.0
  0
INSERT
  8
SUNPOU
  2
ARROWANG
 10
1241.792533
 20
6920.143835
 30
0.0
 41
45.0
 42
45.0
 50
180.0
 43
45.0
  0
LINE
  8
SUNPOU
 10
1841.792533
 20
6654.204545
 30
0.0
 11
1841.792533
 21
6950.143835
 31
0.0
  0
LINE
  8
SUNPOU
 10
1241.792533
 20
6920.143835
 30
0.0
 11
1841.792533
 21
6920.143835
 31
0.0
  0
TEXT
  8
SUNPOU
 10
1096.792548
 20
6965.143835
 30
0.0
 40
60.0
  1
110
  7
K
 72
     1
 11
1186.792548
 21
6965.143835
 31
0.0
  0
INSERT
  8
SUNPOU
  2
ARROWANG
 10
1241.792533
 20
6920.143835
 30
0.0
 41
45.0
 42
45.0
 43
45.0
  0
INSERT
  8
SUNPOU
  2
ARROWANG
 10
1131.792533
 20
6920.143835
 30
0.0
 41
45.0
 42
45.0
 50
180.0
 43
45.0
  0
LINE
  8
SUNPOU
 10
1131.792533
 20
6920.143835
 30
0.0
 11
1241.792533
 21
6920.143835
 31
0.0
  0
LINE
  8
SUNPOU
 10
1241.792533
 20
6654.204545
 30
0.0
 11
1241.792533
 21
6950.143835
 31
0.0
  0
LINE
  8
SUNPOU
 10
1131.792533
 20
6669.204545
 30
0.0
 11
1131.792533
 21
6950.143835
 31
0.0
  0
TEXT
  8
SUNPOU
 10
1453.221119
 20
6849.881472
 30
0.0
 40
60.0
  1
664
  7
K
 72
     1
 11
1541.792548
 21
6849.881472
 31
0.0
  0
INSERT
  8
SUNPOU
  2
ARROWANG
 10
1873.792533
 20
6804.881472
 30
0.0
 41
45.0
 42
45.0
 43
45.0
  0
INSERT
  8
SUNPOU
  2
ARROWANG
 10
1209.792533
 20
6804.881472
 30
0.0
 41
45.0
 42
45.0
 50
180.0
 43
45.0
  0
LINE
  8
SUNPOU
 10
1209.792533
 20
6804.881472
 30
0.0
 11
1873.792533
 21
6804.881472
 31
0.0
  0
LINE
  8
SUNPOU
 10
1873.792533
 20
6669.204545
 30
0.0
 11
1873.792533
 21
6834.881472
 31
0.0
  0
LINE
  8
SUNPOU
 10
1209.792533
 20
6669.204545
 30
0.0
 11
1209.792533
 21
6834.881472
 31
0.0
  0
TEXT
  8
SUNPOU
 10
1454.649691
 20
6730.350132
 30
0.0
 40
60.0
  1
652
  7
K
 72
     1
 11
1541.792548
 21
6730.350132
 31
0.0
  0
INSERT
  8
SUNPOU
  2
ARROWANG
 10
1867.792533
 20
6685.350132
 30
0.0
 41
45.0
 42
45.0
 43
45.0
  0
INSERT
  8
SUNPOU
  2
ARROWANG
 10
1215.792533
 20
6685.350132
 30
0.0
 41
45.0
 42
45.0
 50
180.0
 43
45.0
  0
LINE
  8
SUNPOU
 10
1215.792533
 20
6685.350132
 30
0.0
 11
1867.792533
 21
6685.350132
 31
0.0
  0
LINE
  8
SUNPOU
 10
1867.792533
 20
6654.204545
 30
0.0
 11
1867.792533
 21
6715.350132
 31
0.0
  0
LINE
  8
SUNPOU
 10
1215.792533
 20
6654.204545
 30
0.0
 11
1215.792533
 21
6715.350132
 31
0.0
  0
LINE
  8
HASEN
 10
1841.792533
 20
6604.204545
 30
0.0
 11
2431.792533
 21
6329.204545
 31
0.0
  0
LINE
  8
ITTEN
 10
1507.634677
 20
6675.718116
 30
0.0
 11
1865.95039
 21
6292.690975
 31
0.0
  0
LINE
  8
JISSEN
 10
1241.792533
 20
6604.204545
 30
0.0
 11
1231.792533
 21
6329.204545
 31
0.0
  0
TEXT
  8
SUNPOU
 10
1713.221119
 20
6092.848567
 30
0.0
 40
60.0
  1
1278
  7
K
 72
     1
 11
1831.792548
 21
6092.848567
 31
0.0
  0
INSERT
  8
SUNPOU
  2
ARROWANG
 10
2470.792533
 20
6047.848567
 30
0.0
 41
45.0
 42
45.0
 43
45.0
  0
INSERT
  8
SUNPOU
  2
ARROWANG
 10
1192.792533
 20
6047.848567
 30
0.0
 41
45.0
 42
45.0
 50
180.0
 43
45.0
  0
LINE
  8
SUNPOU
 10
1192.792533
 20
6047.848567
 30
0.0
 11
2470.792533
 21
6047.848567
 31
0.0
  0
LINE
  8
SUNPOU
 10
2470.792533
 20
6314.204545
 30
0.0
 11
2470.792533
 21
6017.848567
 31
0.0
  0
LINE
  8
SUNPOU
 10
1192.792533
 20
6314.204545
 30
0.0
 11
1192.792533
 21
6017.848567
 31
0.0
  0
TEXT
  8
SUNPOU
 10
1713.221105
 20
6214.877499
 30
0.0
 40
60.0
  1
1256
  7
K
 72
     1
 11
1831.792533
 21
6214.877499
 31
0.0
  0
INSERT
  8
SUNPOU
  2
ARROWANG
 10
1203.792533
 20
6169.877499
 30
0.0
 41
45.0
 42
45.0
 50
180.0
 43
45.0
  0
INSERT
  8
SUNPOU
  2
ARROWANG
 10
2459.792533
 20
6169.877499
 30
0.0
 41
45.0
 42
45.0
 43
45.0
  0
LINE
  8
SUNPOU
 10
1203.792533
 20
6169.877499
 30
0.0
 11
2459.792533
 21
6169.877499
 31
0.0
  0
LINE
  8
SUNPOU
 10
2459.792533
 20
6299.204545
 30
0.0
 11
2459.792533
 21
6139.877499
 31
0.0
  0
LINE
  8
SUNPOU
 10
1203.792533
 20
6299.204545
 30
0.0
 11
1203.792533
 21
6139.877499
 31
0.0
  0
LINE
  8
JISSEN
 10
1817.760275
 20
6344.204545
 30
0.0
 11
2470.792533
 21
6344.204545
 31
0.0
  0
LINE
  8
JISSEN
 10
2459.792533
 20
6329.204545
 30
0.0
 11
1831.792533
 21
6329.204545
 31
0.0
  0
LINE
  8
JISSEN
 10
2470.792533
 20
6344.204545
 30
0.0
 11
2459.792533
 21
6329.204545
 31
0.0
  0
LINE
  8
JISSEN
 10
2531.792533
 20
6344.204545
 30
0.0
 11
2470.792533
 21
6344.204545
 31
0.0
  0
LINE
  8
JISSEN
 10
1203.792533
 20
6329.204545
 30
0.0
 11
1831.792533
 21
6329.204545
 31
0.0
  0
LINE
  8
JISSEN
 10
1192.792533
 20
6344.204545
 30
0.0
 11
1203.792533
 21
6329.204545
 31
0.0
  0
LINE
  8
JISSEN
 10
1131.792533
 20
6344.204545
 30
0.0
 11
1192.792533
 21
6344.204545
 31
0.0
  0
ARC
  8
JISSEN
 10
1351.792533
 20
6479.204545
 30
0.0
 40
10.0
 50
270.0
 51
90.0
  0
LINE
  8
JISSEN
 10
1237.610715
 20
6489.204545
 30
0.0
 11
1351.792533
 21
6489.204545
 31
0.0
  0
LINE
  8
JISSEN
 10
1236.883442
 20
6469.204545
 30
0.0
 11
1351.792533
 21
6469.204545
 31
0.0
  0
LINE
  8
ITTEN
 10
1181.792533
 20
6479.204545
 30
0.0
 11
1411.792533
 21
6479.204545
 31
0.0
  0
LINE
  8
SUNPOU
 10
1391.792533
 20
6479.204545
 30
0.0
 11
1551.856084
 21
6479.204545
 31
0.0
  0
LINE
  8
SUNPOU
 10
1521.856084
 20
6479.204545
 30
0.0
 11
1521.856084
 21
6329.204545
 31
0.0
  0
LINE
  8
SUNPOU
 10
1261.792533
 20
6329.204545
 30
0.0
 11
1551.856084
 21
6329.204545
 31
0.0
  0
INSERT
  8
SUNPOU
  2
ARROWANG
 10
1521.856084
 20
6479.204545
 30
0.0
 41
45.0
 42
45.0
 50
90.0
 43
45.0
  0
INSERT
  8
SUNPOU
  2
ARROWANG
 10
1521.856084
 20
6329.204545
 30
0.0
 41
45.0
 42
45.0
 50
270.0
 43
45.0
  0
TEXT
  8
SUNPOU
 10
1476.856084
 20
6314.204545
 30
0.0
 40
60.0
  1
150
 50
90.0
  7
K
 72
     1
 11
1476.856084
 21
6404.204545
 31
0.0
  0
LINE
  8
JISSEN
 10
1131.792533
 20
6639.204545
 30
0.0
 11
1131.792533
 21
6344.204545
 31
0.0
  0
LINE
  8
JISSEN
 10
1131.792533
 20
6639.204545
 30
0.0
 11
2051.792533
 21
6639.204545
 31
0.0
  0
LINE
  8
JISSEN
 10
1241.792533
 20
6624.204545
 30
0.0
 11
1241.792533
 21
6604.204545
 31
0.0
  0
LINE
  8
HASEN
 10
1841.792533
 20
6624.204545
 30
0.0
 11
1841.792533
 21
6604.204545
 31
0.0
  0
LINE
  8
JISSEN
 10
1209.792533
 20
6639.204545
 30
0.0
 11
1215.792533
 21
6624.204545
 31
0.0
  0
LINE
  8
JISSEN
 10
1215.792533
 20
6624.204545
 30
0.0
 11
1541.792533
 21
6624.204545
 31
0.0
  0
LINE
  8
HASEN
 10
1873.792533
 20
6639.204545
 30
0.0
 11
1867.792533
 21
6624.204545
 31
0.0
  0
LINE
  8
HASEN
 10
1867.792533
 20
6624.204545
 30
0.0
 11
1541.792533
 21
6624.204545
 31
0.0
  0
TEXT
  8
SUNPOU
 10
8062.039573
 20
1337.544764
 30
0.0
 40
60.0
  1
380
 50
90.0
  7
K
 72
     1
 11
8062.039573
 21
1423.259049
 31
0.0
  0
INSERT
  8
SUNPOU
  2
ARROWANG
 10
8107.039573
 20
1613.259049
 30
0.0
 41
45.0
 42
45.0
 50
90.0
 43
45.0
  0
INSERT
  8
SUNPOU
  2
ARROWANG
 10
8107.039573
 20
1233.259049
 30
0.0
 41
45.0
 42
45.0
 50
270.0
 43
45.0
  0
LINE
  8
SUNPOU
 10
8107.039573
 20
1233.259049
 30
0.0
 11
8107.039573
 21
1613.259049
 31
0.0
  0
LINE
  8
SUNPOU
 10
7972.824686
 20
1613.259049
 30
0.0
 11
8137.039573
 21
1613.259049
 31
0.0
  0
LINE
  8
SUNPOU
 10
7972.824686
 20
1233.259049
 30
0.0
 11
8137.039573
 21
1233.259049
 31
0.0
  0
LINE
  8
HASEN
 10
8695.661016
 20
1735.237514
 30
0.0
 11
8660.373026
 21
1699.949525
 31
0.0
  0
LINE
  8
HASEN
 10
8674.515162
 20
1685.807389
 30
0.0
 11
8660.373026
 21
1699.949525
 31
0.0
  0
LINE
  8
HASEN
 10
8674.515162
 20
1685.807389
 30
0.0
 11
8709.803151
 21
1721.095379
 31
0.0
  0
LINE
  8
ITTEN
 10
8632.088755
 20
1657.523118
 30
0.0
 11
8738.154772
 21
1763.589135
 31
0.0
  0
LINE
  8
HASEN
 10
8709.803151
 20
745.42272
 30
0.0
 11
8674.515162
 21
780.710709
 31
0.0
  0
LINE
  8
HASEN
 10
8660.373026
 20
766.568574
 30
0.0
 11
8674.515162
 21
780.710709
 31
0.0
  0
LINE
  8
HASEN
 10
8660.373026
 20
766.568574
 30
0.0
 11
8695.661016
 21
731.280584
 31
0.0
  0
LINE
  8
ITTEN
 10
8632.088755
 20
808.994981
 30
0.0
 11
8738.154772
 21
702.928964
 31
0.0
  0
LINE
  8
HASEN
 10
7719.988357
 20
731.280584
 30
0.0
 11
7755.276346
 21
766.568574
 31
0.0
  0
LINE
  8
HASEN
 10
7741.134211
 20
780.710709
 30
0.0
 11
7755.276346
 21
766.568574
 31
0.0
  0
LINE
  8
HASEN
 10
7741.134211
 20
780.710709
 30
0.0
 11
7705.846221
 21
745.42272
 31
0.0
  0
LINE
  8
ITTEN
 10
7783.560618
 20
808.994981
 30
0.0
 11
7677.494601
 21
702.928964
 31
0.0
  0
LINE
  8
ITTEN
 10
8207.824686
 20
1983.259049
 30
0.0
 11
8207.824686
 21
483.259049
 31
0.0
  0
CIRCLE
  8
JISSEN
 10
8207.824686
 20
1233.259049
 30
0.0
 40
700.0
  0
TEXT
  8
SUNPOU
 10
8505.681829
 20
2289.305591
 30
0.0
 40
60.0
  1
630
  7
K
 72
     1
 11
8592.824686
 21
2289.305591
 31
0.0
  0
INSERT
  8
SUNPOU
  2
ARROWANG
 10
8907.824686
 20
2244.305591
 30
0.0
 41
45.0
 42
45.0
 43
45.0
  0
INSERT
  8
SUNPOU
  2
ARROWANG
 10
8277.824686
 20
2244.305591
 30
0.0
 41
45.0
 42
45.0
 50
180.0
 43
45.0
  0
LINE
  8
SUNPOU
 10
8907.824686
 20
2372.061496
 30
0.0
 11
8907.824686
 21
2214.305591
 31
0.0
  0
LINE
  8
SUNPOU
 10
8277.824686
 20
2244.305591
 30
0.0
 11
8907.824686
 21
2244.305591
 31
0.0
  0
TEXT
  8
SUNPOU
 10
7855.681829
 20
2289.305591
 30
0.0
 40
60.0
  1
670
  7
K
 72
     1
 11
7942.824686
 21
2289.305591
 31
0.0
  0
INSERT
  8
SUNPOU
  2
ARROWANG
 10
8277.824686
 20
2244.305591
 30
0.0
 41
45.0
 42
45.0
 43
45.0
  0
INSERT
  8
SUNPOU
  2
ARROWANG
 10
7607.824686
 20
2244.305591
 30
0.0
 41
45.0
 42
45.0
 50
180.0
 43
45.0
  0
LINE
  8
SUNPOU
 10
8277.824686
 20
2357.061496
 30
0.0
 11
8277.824686
 21
2214.305591
 31
0.0
  0
LINE
  8
SUNPOU
 10
7607.824686
 20
2244.305591
 30
0.0
 11
8277.824686
 21
2244.305591
 31
0.0
  0
TEXT
  8
SUNPOU
 10
7467.824701
 20
2289.305591
 30
0.0
 40
60.0
  1
100
  7
K
 72
     1
 11
7557.824701
 21
2289.305591
 31
0.0
  0
INSERT
  8
SUNPOU
  2
ARROWANG
 10
7607.824686
 20
2244.305591
 30
0.0
 41
45.0
 42
45.0
 43
45.0
  0
INSERT
  8
SUNPOU
  2
ARROWANG
 10
7507.824686
 20
2244.305591
 30
0.0
 41
45.0
 42
45.0
 50
180.0
 43
45.0
  0
LINE
  8
SUNPOU
 10
7507.824686
 20
2244.305591
 30
0.0
 11
7607.824686
 21
2244.305591
 31
0.0
  0
LINE
  8
SUNPOU
 10
7607.824686
 20
2357.061496
 30
0.0
 11
7607.824686
 21
2214.305591
 31
0.0
  0
LINE
  8
SUNPOU
 10
7507.824686
 20
2372.061496
 30
0.0
 11
7507.824686
 21
2214.305591
 31
0.0
  0
LINE
  8
JISSEN
 10
8207.824686
 20
2582.061496
 30
0.0
 11
7942.824686
 21
2582.061496
 31
0.0
  0
LINE
  8
ITTEN
 10
8207.824686
 20
2647.061496
 30
0.0
 11
8207.824686
 21
2337.061496
 31
0.0
  0
TEXT
  8
SUNPOU
 10
8488.181829
 20
2758.963162
 30
0.0
 40
60.0
  1
665
  7
K
 72
     1
 11
8575.324686
 21
2758.963162
 31
0.0
  0
INSERT
  8
SUNPOU
  2
ARROWANG
 10
8907.824686
 20
2713.963162
 30
0.0
 41
45.0
 42
45.0
 43
45.0
  0
INSERT
  8
SUNPOU
  2
ARROWANG
 10
8242.824686
 20
2713.963162
 30
0.0
 41
45.0
 42
45.0
 50
180.0
 43
45.0
  0
LINE
  8
SUNPOU
 10
8907.824686
 20
2627.061496
 30
0.0
 11
8907.824686
 21
2743.963162
 31
0.0
  0
LINE
  8
SUNPOU
 10
8242.824686
 20
2713.963162
 30
0.0
 11
8907.824686
 21
2713.963162
 31
0.0
  0
TEXT
  8
SUNPOU
 10
7855.681844
 20
2758.963162
 30
0.0
 40
60.0
  1
600
  7
K
 72
     1
 11
7942.824701
 21
2758.963162
 31
0.0
  0
INSERT
  8
SUNPOU
  2
ARROWANG
 10
8242.824686
 20
2713.963162
 30
0.0
 41
45.0
 42
45.0
 43
45.0
  0
INSERT
  8
SUNPOU
  2
ARROWANG
 10
7642.824686
 20
2713.963162
 30
0.0
 41
45.0
 42
45.0
 50
180.0
 43
45.0
  0
LINE
  8
SUNPOU
 10
7642.824686
 20
2713.963162
 30
0.0
 11
8242.824686
 21
2713.963162
 31
0.0
  0
LINE
  8
SUNPOU
 10
8242.824686
 20
2612.061496
 30
0.0
 11
8242.824686
 21
2743.963162
 31
0.0
  0
LINE
  8
SUNPOU
 10
7642.824686
 20
2683.963162
 30
0.0
 11
7642.824686
 21
2683.963162
 31
0.0
  0
TEXT
  8
SUNPOU
 10
7485.324701
 20
2758.963162
 30
0.0
 40
60.0
  1
135
  7
K
 72
     1
 11
7575.324701
 21
2758.963162
 31
0.0
  0
INSERT
  8
SUNPOU
  2
ARROWANG
 10
7642.824686
 20
2713.963162
 30
0.0
 41
45.0
 42
45.0
 43
45.0
  0
INSERT
  8
SUNPOU
  2
ARROWANG
 10
7507.824686
 20
2713.963162
 30
0.0
 41
45.0
 42
45.0
 50
180.0
 43
45.0
  0
LINE
  8
SUNPOU
 10
7507.824686
 20
2713.963162
 30
0.0
 11
7642.824686
 21
2713.963162
 31
0.0
  0
LINE
  8
SUNPOU
 10
7642.824686
 20
2612.061496
 30
0.0
 11
7642.824686
 21
2743.963162
 31
0.0
  0
LINE
  8
SUNPOU
 10
7507.824686
 20
2627.061496
 30
0.0
 11
7507.824686
 21
2743.963162
 31
0.0
  0
TEXT
  8
SUNPOU
 10
8089.253273
 20
2906.115699
 30
0.0
 40
60.0
  1
1400
  7
K
 72
     1
 11
8207.824701
 21
2906.115699
 31
0.0
  0
INSERT
  8
SUNPOU
  2
ARROWANG
 10
8907.824686
 20
2861.115699
 30
0.0
 41
45.0
 42
45.0
 43
45.0
  0
INSERT
  8
SUNPOU
  2
ARROWANG
 10
7507.824686
 20
2861.115699
 30
0.0
 41
45.0
 42
45.0
 50
180.0
 43
45.0
  0
LINE
  8
SUNPOU
 10
7507.824686
 20
2861.115699
 30
0.0
 11
8907.824686
 21
2861.115699
 31
0.0
  0
LINE
  8
SUNPOU
 10
8907.824686
 20
2627.061496
 30
0.0
 11
8907.824686
 21
2891.115699
 31
0.0
  0
LINE
  8
SUNPOU
 10
7507.824686
 20
2627.061496
 30
0.0
 11
7507.824686
 21
2891.115699
 31
0.0
  0
LINE
  8
JISSEN
 10
8907.824686
 20
2597.061496
 30
0.0
 11
8907.824686
 21
2402.061496
 31
0.0
  0
TEXT
  8
SUNPOU
 10
7195.10158
 20
2409.561496
 30
0.0
 40
60.0
  1
195
 50
90.0
  7
K
 72
     1
 11
7195.10158
 21
2499.561496
 31
0.0
  0
INSERT
  8
SUNPOU
  2
ARROWANG
 10
7240.10158
 20
2597.061496
 30
0.0
 41
45.0
 42
45.0
 50
90.0
 43
45.0
  0
INSERT
  8
SUNPOU
  2
ARROWANG
 10
7240.10158
 20
2402.061496
 30
0.0
 41
45.0
 42
45.0
 50
270.0
 43
45.0
  0
LINE
  8
SUNPOU
 10
7240.10158
 20
2402.061496
 30
0.0
 11
7240.10158
 21
2597.061496
 31
0.0
  0
LINE
  8
SUNPOU
 10
7398.613566
 20
2597.061496
 30
0.0
 11
7210.10158
 21
2597.061496
 31
0.0
  0
LINE
  8
SUNPOU
 10
7400.289228
 20
2402.061496
 30
0.0
 11
7210.10158
 21
2402.061496
 31
0.0
  0
LINE
  8
JISSEN
 10
7607.824686
 20
2387.061496
 30
0.0
 11
7642.824686
 21
2562.061496
 31
0.0
  0
LINE
  8
JISSEN
 10
7507.824686
 20
2597.061496
 30
0.0
 11
7507.824686
 21
2402.061496
 31
0.0
  0
LINE
  8
ITTEN
 10
1541.792533
 20
5261.347896
 30
0.0
 11
1541.792533
 21
4341.347896
 31
0.0
  0
LINE
  8
ITTEN
 10
1923.709736
 20
4580.847896
 30
0.0
 11
1818.054637
 21
4641.847896
 31
0.0
  0
CIRCLE
  8
JISSEN
 10
1870.882187
 20
4611.347896
 30
0.0
 40
11.0
  0
LINE
  8
ITTEN
 10
1901.382187
 20
4664.175446
 30
0.0
 11
1840.382187
 21
4558.520346
 31
0.0
  0
LINE
  8
ITTEN
 10
1159.87533
 20
4580.847896
 30
0.0
 11
1265.530429
 21
4641.847896
 31
0.0
  0
CIRCLE
  8
JISSEN
 10
1212.70288
 20
4611.347896
 30
0.0
 40
11.0
  0
LINE
  8
ITTEN
 10
1243.20288
 20
4558.520346
 30
0.0
 11
1182.20288
 21
4664.175446
 31
0.0
  0
POINT
  8
JISSEN
 10
1541.792533
 20
4802.347896
 30
0.0
  0
LINE
  8
ITTEN
 10
1541.792533
 20
5242.347896
 30
0.0
 11
1541.792533
 21
5120.347896
 31
0.0
  0
LINE
  8
ITTEN
 10
1480.792533
 20
5181.347896
 30
0.0
 11
1602.792533
 21
5181.347896
 31
0.0
  0
CIRCLE
  8
JISSEN
 10
1541.792533
 20
5181.347896
 30
0.0
 40
11.0
  0
CIRCLE
  8
JISSEN
 10
1541.792533
 20
4801.347896
 30
0.0
 40
326.0
  0
CIRCLE
  8
JISSEN
 10
1541.792533
 20
4801.347896
 30
0.0
 40
300.0
  0
CIRCLE
  8
JISSEN
 10
1541.792533
 20
4801.347896
 30
0.0
 40
332.0
  0
LINE
  8
HASEN
 10
1329.746719
 20
5289.251575
 30
0.0
 11
1365.034708
 21
5253.963586
 31
0.0
  0
LINE
  8
HASEN
 10
1379.176844
 20
5268.105721
 30
0.0
 11
1365.034708
 21
5253.963586
 31
0.0
  0
LINE
  8
HASEN
 10
1379.176844
 20
5268.105721
 30
0.0
 11
1343.888854
 21
5303.393711
 31
0.0
  0
LINE
  8
ITTEN
 10
1407.461115
 20
5225.679314
 30
0.0
 11
1301.395098
 21
5331.745332
 31
0.0
  0
LINE
  8
JISSEN
 10
1361.792533
 20
4991.347896
 30
0.0
 11
1361.792533
 21
4801.347896
 31
0.0
  0
LINE
  8
JISSEN
 10
1341.792533
 20
4801.347896
 30
0.0
 11
1341.792533
 21
4971.347896
 31
0.0
  0
LINE
  8
ITTEN
 10
7783.560618
 20
1657.523118
 30
0.0
 11
7677.494601
 21
1763.589135
 31
0.0
  0
LINE
  8
HASEN
 10
7755.276346
 20
1699.949525
 30
0.0
 11
7719.988357
 21
1735.237514
 31
0.0
  0
LINE
  8
HASEN
 10
7755.276346
 20
1699.949525
 30
0.0
 11
7741.134211
 21
1685.807389
 31
0.0
  0
LINE
  8
HASEN
 10
7705.846221
 20
1721.095379
 30
0.0
 11
7741.134211
 21
1685.807389
 31
0.0
  0
CIRCLE
  8
JISSEN
 10
7942.824686
 20
1233.259049
 30
0.0
 40
332.0
  0
CIRCLE
  8
JISSEN
 10
7942.824686
 20
1233.259049
 30
0.0
 40
300.0
  0
CIRCLE
  8
JISSEN
 10
7942.824686
 20
1233.259049
 30
0.0
 40
326.0
  0
CIRCLE
  8
JISSEN
 10
7942.824686
 20
1613.259049
 30
0.0
 40
11.0
  0
LINE
  8
ITTEN
 10
7881.824686
 20
1613.259049
 30
0.0
 11
8003.824686
 21
1613.259049
 31
0.0
  0
LINE
  8
ITTEN
 10
7942.824686
 20
1674.259049
 30
0.0
 11
7942.824686
 21
1552.259049
 31
0.0
  0
POINT
  8
JISSEN
 10
7942.824686
 20
1234.259049
 30
0.0
  0
LINE
  8
ITTEN
 10
7644.235033
 20
990.4315
 30
0.0
 11
7583.235033
 21
1096.086599
 31
0.0
  0
CIRCLE
  8
JISSEN
 10
7613.735033
 20
1043.259049
 30
0.0
 40
11.0
  0
LINE
  8
ITTEN
 10
7560.907483
 20
1012.759049
 30
0.0
 11
7666.562583
 21
1073.759049
 31
0.0
  0
LINE
  8
ITTEN
 10
8302.41434
 20
1096.086599
 30
0.0
 11
8241.41434
 21
990.4315
 31
0.0
  0
CIRCLE
  8
JISSEN
 10
8271.91434
 20
1043.259049
 30
0.0
 40
11.0
  0
LINE
  8
ITTEN
 10
8324.74189
 20
1012.759049
 30
0.0
 11
8219.08679
 21
1073.759049
 31
0.0
  0
LINE
  8
ITTEN
 10
7482.824686
 20
1233.259049
 30
0.0
 11
8973.356881
 21
1233.259049
 31
0.0
  0
LINE
  8
ITTEN
 10
7942.824686
 20
1693.259049
 30
0.0
 11
7942.824686
 21
773.259049
 31
0.0
  0
LINE
  8
JISSEN
 10
7642.824686
 20
2582.061496
 30
0.0
 11
7642.824686
 21
2562.061496
 31
0.0
  0
LINE
  8
HASEN
 10
8242.824686
 20
2582.061496
 30
0.0
 11
8242.824686
 21
2562.061496
 31
0.0
  0
LINE
  8
JISSEN
 10
7507.824686
 20
2597.061496
 30
0.0
 11
8907.824686
 21
2597.061496
 31
0.0
  0
LINE
  8
JISSEN
 10
7610.824686
 20
2597.061496
 30
0.0
 11
7616.824686
 21
2582.061496
 31
0.0
  0
LINE
  8
JISSEN
 10
7616.824686
 20
2582.061496
 30
0.0
 11
7942.824686
 21
2582.061496
 31
0.0
  0
LINE
  8
HASEN
 10
8274.824686
 20
2597.061496
 30
0.0
 11
8268.824686
 21
2582.061496
 31
0.0
  0
LINE
  8
HASEN
 10
8268.824686
 20
2582.061496
 30
0.0
 11
8207.824686
 21
2582.061496
 31
0.0
  0
CIRCLE
  8
SAISEN
 10
7693.732044
 20
2442.061496
 30
0.0
 40
10.0
  0
CIRCLE
  8
SAISEN
 10
8746.917329
 20
2442.061496
 30
0.0
 40
10.0
  0
LINE
  8
SUNPOU
 10
8937.824686
 20
2402.061496
 30
0.0
 11
9068.629254
 21
2402.061496
 31
0.0
  0
LINE
  8
SUNPOU
 10
8776.917329
 20
2442.061496
 30
0.0
 11
9068.629254
 21
2442.061496
 31
0.0
  0
LINE
  8
SUNPOU
 10
9038.629254
 20
2402.061496
 30
0.0
 11
9038.629256
 21
2342.061496
 31
0.0
  0
INSERT
  8
SUNPOU
  2
ARROWANG
 10
9038.629254
 20
2442.061496
 30
0.0
 41
30.0
 42
30.0
 50
270.0
 43
30.0
  0
INSERT
  8
SUNPOU
  2
ARROWANG
 10
9038.629254
 20
2402.061496
 30
0.0
 41
30.0
 42
30.0
 50
90.0
 43
30.0
  0
LINE
  8
SUNPOU
 10
9038.629254
 20
2402.061496
 30
0.0
 11
9038.629254
 21
2442.061496
 31
0.0
  0
LINE
  8
JISSEN
 10
8207.824686
 20
2402.061496
 30
0.0
 11
8541.824686
 21
2402.061496
 31
0.0
  0
LINE
  8
JISSEN
 10
8857.824686
 20
2387.061496
 30
0.0
 11
8207.824686
 21
2387.061496
 31
0.0
  0
LINE
  8
JISSEN
 10
8866.824686
 20
2402.061496
 30
0.0
 11
8857.824686
 21
2387.061496
 31
0.0
  0
LINE
  8
JISSEN
 10
8907.824686
 20
2402.061496
 30
0.0
 11
8541.824686
 21
2402.061496
 31
0.0
  0
LINE
  8
JISSEN
 10
7582.824686
 20
2387.061496
 30
0.0
 11
8207.824686
 21
2387.061496
 31
0.0
  0
LINE
  8
JISSEN
 10
7573.824686
 20
2402.061496
 30
0.0
 11
7582.824686
 21
2387.061496
 31
0.0
  0
LINE
  8
JISSEN
 10
7507.824686
 20
2402.061496
 30
0.0
 11
7573.824686
 21
2402.061496
 31
0.0
  0
LINE
  8
SUNPOU
 10
9038.629254
 20
2442.061496
 30
0.0
 11
9038.629254
 21
2574.061496
 31
0.0
  0
TEXT
  8
SUNPOU
 10
8993.629254
 20
2450.918639
 30
0.0
 40
60.0
  1
40
 50
90.0
  7
K
 72
     1
 11
8993.629254
 21
2508.061496
 31
0.0
  0
LINE
  8
ITTEN
 10
7942.824686
 20
2647.061496
 30
0.0
 11
7942.824686
 21
2337.061496
 31
0.0
  0
LINE
  8
HASEN
 10
8242.824686
 20
2512.061496
 30
0.0
 11
8277.824686
 21
2387.061496
 31
0.0
  0
LINE
  8
SUNPOU
 10
7586.824686
 20
2582.061496
 30
0.0
 11
7398.613566
 21
2582.061496
 31
0.0
  0
LINE
  8
SUNPOU
 10
7502.824686
 20
2597.061496
 30
0.0
 11
7398.613566
 21
2597.061496
 31
0.0
  0
LINE
  8
SUNPOU
 10
7428.613566
 20
2582.061496
 30
0.0
 11
7428.613566
 21
2597.061496
 31
0.0
  0
INSERT
  8
SUNPOU
  2
ARROWANG
 10
7428.613566
 20
2582.061496
 30
0.0
 41
30.0
 42
30.0
 50
90.0
 43
30.0
  0
INSERT
  8
SUNPOU
  2
ARROWANG
 10
7428.613566
 20
2597.061496
 30
0.0
 41
30.0
 42
30.0
 50
270.0
 43
30.0
  0
LINE
  8
SUNPOU
 10
7428.613566
 20
2597.061496
 30
0.0
 11
7428.613566
 21
2729.061496
 31
0.0
  0
LINE
  8
SUNPOU
 10
7428.613566
 20
2582.061496
 30
0.0
 11
7428.613567
 21
2522.061496
 31
0.0
  0
TEXT
  8
SUNPOU
 10
7383.613566
 20
2601.632925
 30
0.0
 40
60.0
  1
15
 50
90.0
  7
K
 72
     1
 11
7383.613566
 21
2663.061496
 31
0.0
  0
LINE
  8
SUNPOU
 10
7552.824686
 20
2387.061496
 30
0.0
 11
7400.289228
 21
2387.061496
 31
0.0
  0
LINE
  8
SUNPOU
 10
7502.824686
 20
2402.061496
 30
0.0
 11
7400.289228
 21
2402.061496
 31
0.0
  0
LINE
  8
SUNPOU
 10
7430.289228
 20
2387.061496
 30
0.0
 11
7430.289228
 21
2402.061496
 31
0.0
  0
INSERT
  8
SUNPOU
  2
ARROWANG
 10
7430.289228
 20
2387.061496
 30
0.0
 41
30.0
 42
30.0
 50
90.0
 43
30.0
  0
INSERT
  8
SUNPOU
  2
ARROWANG
 10
7430.289228
 20
2402.061496
 30
0.0
 41
30.0
 42
30.0
 50
270.0
 43
30.0
  0
LINE
  8
SUNPOU
 10
7430.289228
 20
2387.061496
 30
0.0
 11
7430.289228
 21
2255.061496
 31
0.0
  0
LINE
  8
SUNPOU
 10
7430.289228
 20
2402.061496
 30
0.0
 11
7430.289228
 21
2462.061496
 31
0.0
  0
TEXT
  8
SUNPOU
 10
7385.289228
 20
2259.632925
 30
0.0
 40
60.0
  1
15
 50
90.0
  7
K
 72
     1
 11
7385.289228
 21
2321.061496
 31
0.0
  0
TEXT
  8
TEXT
 10
5557.364072
 20
7472.532196
 30
0.0
 40
120.0
  1
斜　　壁
  7
K
  0
TEXT
  8
TEXT
 10
7930.276463
 20
3453.566096
 30
0.0
 40
120.0
  1
床版斜壁
  7
K
  0
POLYLINE
  8
WAKU
 66
     1
 10
0.0
 20
0.0
 30
0.0
 70
     1
  0
VERTEX
  8
WAKU
 10
0.0
 20
0.0
 30
0.0
  0
VERTEX
  8
WAKU
 10
11850.0
 20
0.0
 30
0.0
  0
VERTEX
  8
WAKU
 10
11850.0
 20
8190.0
 30
0.0
  0
VERTEX
  8
WAKU
 10
0.0
 20
8190.0
 30
0.0
  0
SEQEND
  8
WAKU
  0
TEXT
  8
TEXT
 10
11117.051658
 20
436.706258
 30
0.0
 40
120.0
  1
1/30
  7
K
  0
ENDSEC
  0
EOF
