  0
SECTION
  2
HEADER
  9
$ACADVER
  1
AC1009
  9
$INSBASE
 10
0.0
 20
0.0
 30
0.0
  9
$EXTMIN
 10
0.0
 20
0.0
 30
0.0
  9
$EXTMAX
 10
11850.0
 20
8190.0
 30
0.0
  9
$LIMMIN
 10
0.0
 20
0.0
  9
$LIMMAX
 10
11850.0
 20
8190.0
  9
$ORTHOMODE
 70
     0
  9
$REGENMODE
 70
     1
  9
$FILLMODE
 70
     1
  9
$QTEXTMODE
 70
     0
  9
$MIRRTEXT
 70
     0
  9
$DRAGMODE
 70
     2
  9
$LTSCALE
 40
150.0
  9
$OSMODE
 70
    32
  9
$ATTMODE
 70
     1
  9
$TEXTSIZE
 40
45.0
  9
$TRACEWID
 40
0.05
  9
$TEXTSTYLE
  7
K
  9
$CLAYER
  8
TENSEN
  9
$CELTYPE
  6
BYLAYER
  9
$CECOLOR
 62
   256
  9
$DIMSCALE
 40
30.0
  9
$DIMASZ
 40
1.5
  9
$DIMEXO
 40
1.0
  9
$DIMDLI
 40
6.0
  9
$DIMRND
 40
0.0
  9
$DIMDLE
 40
0.0
  9
$DIMEXE
 40
1.0
  9
$DIMTP
 40
495.0
  9
$DIMTM
 40
0.0
  9
$DIMTXT
 40
3.0
  9
$DIMCEN
 40
0.0
  9
$DIMTSZ
 40
0.0
  9
$DIMTOL
 70
     0
  9
$DIMLIM
 70
     0
  9
$DIMTIH
 70
     0
  9
$DIMTOH
 70
     0
  9
$DIMSE1
 70
     0
  9
$DIMSE2
 70
     0
  9
$DIMTAD
 70
     1
  9
$DIMZIN
 70
     8
  9
$DIMBLK
  1
ARROW
  9
$DIMASO
 70
     0
  9
$DIMSHO
 70
     0
  9
$DIMPOST
  1

  9
$DIMAPOST
  1

  9
$DIMALT
 70
     0
  9
$DIMALTD
 70
     2
  9
$DIMALTF
 40
25.4
  9
$DIMLFAC
 40
1.0
  9
$DIMTOFL
 70
     1
  9
$DIMTVP
 40
0.0
  9
$DIMTIX
 70
     1
  9
$DIMSOXD
 70
     0
  9
$DIMSAH
 70
     0
  9
$DIMBLK1
  1

  9
$DIMBLK2
  1

  9
$DIMSTYLE
  2
*UNNAMED
  9
$DIMCLRD
 70
     0
  9
$DIMCLRE
 70
     0
  9
$DIMCLRT
 70
     0
  9
$DIMTFAC
 40
1.0
  9
$DIMGAP
 40
0.09
  9
$LUNITS
 70
     2
  9
$LUPREC
 70
     2
  9
$AXISMODE
 70
     0
  9
$AXISUNIT
 10
100.0
 20
100.0
  9
$SKETCHINC
 40
0.1
  9
$FILLETRAD
 40
9.5
  9
$AUNITS
 70
     0
  9
$AUPREC
 70
     2
  9
$MENU
  1
d:stdgx5
  9
$ELEVATION
 40
0.0
  9
$PELEVATION
 40
0.0
  9
$THICKNESS
 40
0.0
  9
$LIMCHECK
 70
     0
  9
$BLIPMODE
 70
     1
  9
$CHAMFERA
 40
0.0
  9
$CHAMFERB
 40
0.0
  9
$SKPOLY
 70
     0
  9
$TDCREATE
 40
2450248.562222222
  9
$TDUPDATE
 40
2450248.575937500
  9
$TDINDWG
 40
0.0060648148
  9
$TDUSRTIMER
 40
0.0060648148
  9
$USRTIMER
 70
     1
  9
$ANGBASE
 50
0.0
  9
$ANGDIR
 70
     0
  9
$PDMODE
 70
     0
  9
$PDSIZE
 40
0.0
  9
$PLINEWID
 40
0.0
  9
$COORDS
 70
     2
  9
$SPLFRAME
 70
     0
  9
$SPLINETYPE
 70
     6
  9
$SPLINESEGS
 70
     8
  9
$ATTDIA
 70
     0
  9
$ATTREQ
 70
     1
  9
$HANDLING
 70
     0
  9
$HANDSEED
  5
0
  9
$SURFTAB1
 70
     6
  9
$SURFTAB2
 70
     6
  9
$SURFTYPE
 70
     6
  9
$SURFU
 70
     6
  9
$SURFV
 70
     6
  9
$UCSNAME
  2

  9
$UCSORG
 10
0.0
 20
0.0
 30
0.0
  9
$UCSXDIR
 10
1.0
 20
0.0
 30
0.0
  9
$UCSYDIR
 10
0.0
 20
1.0
 30
0.0
  9
$PUCSNAME
  2

  9
$PUCSORG
 10
0.0
 20
0.0
 30
0.0
  9
$PUCSXDIR
 10
1.0
 20
0.0
 30
0.0
  9
$PUCSYDIR
 10
0.0
 20
1.0
 30
0.0
  9
$USERI1
 70
     3
  9
$USERI2
 70
    32
  9
$USERI3
 70
     0
  9
$USERI4
 70
     1
  9
$USERI5
 70
     0
  9
$USERR1
 40
30.0
  9
$USERR2
 40
3.0
  9
$USERR3
 40
3.0
  9
$USERR4
 40
1.5
  9
$USERR5
 40
10.0
  9
$WORLDVIEW
 70
     1
  9
$SHADEDGE
 70
     3
  9
$SHADEDIF
 70
    70
  9
$TILEMODE
 70
     1
  9
$MAXACTVP
 70
    16
  9
$PINSBASE
 10
0.0
 20
0.0
 30
0.0
  9
$PLIMCHECK
 70
     0
  9
$PEXTMIN
 10
1.000000E+20
 20
1.000000E+20
 30
1.000000E+20
  9
$PEXTMAX
 10
-1.000000E+20
 20
-1.000000E+20
 30
-1.000000E+20
  9
$PLIMMIN
 10
0.0
 20
0.0
  9
$PLIMMAX
 10
12.0
 20
9.0
  9
$UNITMODE
 70
     0
  9
$VISRETAIN
 70
     0
  0
ENDSEC
  0
SECTION
  2
TABLES
  0
TABLE
  2
VPORT
 70
    10
  0
VPORT
  2
*ACTIVE
 70
     0
 10
0.0
 20
0.0
 11
1.0
 21
1.0
 12
6691.515737
 22
4095.0
 13
0.0
 23
0.0
 14
1.0
 24
1.0
 15
10.0
 25
10.0
 16
0.0
 26
0.0
 36
1.0
 17
0.0
 27
0.0
 37
0.0
 40
8190.0
 41
1.63407
 42
50.0
 43
0.0
 44
0.0
 50
0.0
 51
0.0
 71
     0
 72
   500
 73
     1
 74
     0
 75
     0
 76
     0
 77
     0
 78
     0
  0
VPORT
  2
2
 70
     0
 10
0.5
 20
0.0
 11
1.0
 21
1.0
 12
0.924031
 22
1.052651
 13
0.0
 23
0.0
 14
1.0
 24
1.0
 15
10.0
 25
10.0
 16
0.0
 26
0.0
 36
1.0
 17
0.0
 27
0.0
 37
0.0
 40
2.105302
 41
0.877814
 42
50.0
 43
0.0
 44
0.0
 50
0.0
 51
0.0
 71
     0
 72
   500
 73
     1
 74
     1
 75
     0
 76
     0
 77
     0
 78
     0
  0
VPORT
  2
2
 70
     0
 10
0.0
 20
0.0
 11
0.5
 21
1.0
 12
0.924031
 22
1.052651
 13
0.0
 23
0.0
 14
1.0
 24
1.0
 15
10.0
 25
10.0
 16
0.0
 26
0.0
 36
1.0
 17
0.0
 27
0.0
 37
0.0
 40
2.105302
 41
0.877814
 42
50.0
 43
0.0
 44
0.0
 50
0.0
 51
0.0
 71
     0
 72
   500
 73
     1
 74
     1
 75
     0
 76
     0
 77
     0
 78
     0
  0
VPORT
  2
3
 70
     0
 10
0.0
 20
0.5
 11
1.0
 21
1.0
 12
2.83217
 22
1.052651
 13
0.0
 23
0.0
 14
1.0
 24
1.0
 15
10.0
 25
10.0
 16
0.0
 26
0.0
 36
1.0
 17
0.0
 27
0.0
 37
0.0
 40
2.105302
 41
3.571429
 42
50.0
 43
0.0
 44
0.0
 50
0.0
 51
0.0
 71
     0
 72
   500
 73
     1
 74
     1
 75
     0
 76
     0
 77
     0
 78
     0
  0
VPORT
  2
3
 70
     0
 10
0.0
 20
0.0
 11
1.0
 21
0.5
 12
2.856742
 22
1.052651
 13
0.0
 23
0.0
 14
1.0
 24
1.0
 15
10.0
 25
10.0
 16
0.0
 26
0.0
 36
1.0
 17
0.0
 27
0.0
 37
0.0
 40
2.105302
 41
3.594771
 42
50.0
 43
0.0
 44
0.0
 50
0.0
 51
0.0
 71
     0
 72
   500
 73
     1
 74
     1
 75
     0
 76
     0
 77
     0
 78
     0
  0
VPORT
  2
4
 70
     0
 10
0.5
 20
0.0
 11
1.0
 21
0.5
 12
2.886858
 22
1.052651
 13
0.0
 23
0.0
 14
1.0
 24
1.0
 15
10.0
 25
10.0
 16
0.0
 26
0.0
 36
1.0
 17
0.0
 27
0.0
 37
0.0
 40
4.275207
 41
1.784314
 42
50.0
 43
0.0
 44
0.0
 50
0.0
 51
0.0
 71
     0
 72
   500
 73
     1
 74
     1
 75
     0
 76
     0
 77
     0
 78
     0
  0
VPORT
  2
4
 70
     0
 10
0.5
 20
0.5
 11
1.0
 21
1.0
 12
2.86209
 22
1.052651
 13
0.0
 23
0.0
 14
1.0
 24
1.0
 15
10.0
 25
10.0
 16
0.0
 26
0.0
 36
1.0
 17
0.0
 27
0.0
 37
0.0
 40
4.275207
 41
1.772727
 42
50.0
 43
0.0
 44
0.0
 50
0.0
 51
0.0
 71
     0
 72
   500
 73
     1
 74
     1
 75
     0
 76
     0
 77
     0
 78
     0
  0
VPORT
  2
4
 70
     0
 10
0.0
 20
0.5
 11
0.5
 21
1.0
 12
2.86209
 22
1.052651
 13
0.0
 23
0.0
 14
1.0
 24
1.0
 15
10.0
 25
10.0
 16
0.0
 26
0.0
 36
1.0
 17
0.0
 27
0.0
 37
0.0
 40
4.275207
 41
1.772727
 42
50.0
 43
0.0
 44
0.0
 50
0.0
 51
0.0
 71
     0
 72
   500
 73
     1
 74
     1
 75
     0
 76
     0
 77
     0
 78
     0
  0
VPORT
  2
4
 70
     0
 10
0.0
 20
0.0
 11
0.5
 21
0.5
 12
2.886858
 22
1.052651
 13
0.0
 23
0.0
 14
1.0
 24
1.0
 15
10.0
 25
10.0
 16
0.0
 26
0.0
 36
1.0
 17
0.0
 27
0.0
 37
0.0
 40
4.275207
 41
1.784314
 42
50.0
 43
0.0
 44
0.0
 50
0.0
 51
0.0
 71
     0
 72
   500
 73
     1
 74
     1
 75
     0
 76
     0
 77
     0
 78
     0
  0
ENDTAB
  0
TABLE
  2
LTYPE
 70
     5
  0
LTYPE
  2
CONTINUOUS
 70
    64
  3
実線
 72
    65
 73
     0
 40
0.0
  0
LTYPE
  2
DASHED
 70
    64
  3
__ __ __ __ __ __ __ __ __ __ __ __ __ __ __
 72
    65
 73
     2
 40
0.75
 49
0.5
 49
-0.25
  0
LTYPE
  2
CENTER
 70
    64
  3
____ _ ____ _ ____ _ ____ _ ____ _ ____ _ ____
 72
    65
 73
     4
 40
2.0
 49
1.25
 49
-0.25
 49
0.25
 49
-0.25
  0
LTYPE
  2
PHANTOM
 70
    64
  3
_____ _ _ _____ _ _ _____ _ _ _____ _ _ ____
 72
    65
 73
     6
 40
2.5
 49
1.25
 49
-0.25
 49
0.25
 49
-0.25
 49
0.25
 49
-0.25
  0
LTYPE
  2
HIDDEN
 70
    64
  3
_ _ _ _ _ _ _ _ _ _ _ _ _ _ _ _ _ _ _ _ _ _ _
 72
    65
 73
     2
 40
0.375
 49
0.25
 49
-0.125
  0
ENDTAB
  0
TABLE
  2
LAYER
 70
    14
  0
LAYER
  2
0
 70
    64
 62
     7
  6
CONTINUOUS
  0
LAYER
  2
ITTEN
 70
    64
 62
     1
  6
CENTER
  0
LAYER
  2
SUNPOU
 70
    64
 62
     3
  6
CONTINUOUS
  0
LAYER
  2
TEXT
 70
    64
 62
     3
  6
CONTINUOUS
  0
LAYER
  2
SAISEN
 70
    64
 62
     4
  6
CONTINUOUS
  0
LAYER
  2
JISSEN
 70
    64
 62
     7
  6
CONTINUOUS
  0
LAYER
  2
HOJO
 70
    64
 62
    13
  6
CONTINUOUS
  0
LAYER
  2
TENSEN
 70
    64
 62
     2
  6
HIDDEN
  0
LAYER
  2
HOJOORG
 70
    64
 62
    -9
  6
CONTINUOUS
  0
LAYER
  2
WAKU
 70
    64
 62
    -5
  6
CONTINUOUS
  0
ENDTAB
  0
TABLE
  2
STYLE
 70
     2
  0
STYLE
  2
STANDARD
 70
     0
 40
0.0
 41
1.0
 50
0.0
 71
     0
 42
0.2
  3
ROMANS
  4
EXTFONT
  0
STYLE
  2
K
 70
    64
 40
0.0
 41
1.0
 50
0.0
 71
     0
 42
45.0
  3
ROMANS
  4
EXTFONT
  0
ENDTAB
  0
TABLE
  2
VIEW
 70
     0
  0
ENDTAB
  0
TABLE
  2
UCS
 70
     0
  0
ENDTAB
  0
TABLE
  2
APPID
 70
     1
  0
APPID
  2
ACAD
 70
    64
  0
ENDTAB
  0
TABLE
  2
DIMSTYLE
 70
     0
  0
ENDTAB
  0
ENDSEC
  0
SECTION
  2
BLOCKS
  0
BLOCK
  8
SUNPOU
  2
ARROWANG
 70
    64
 10
0.0
 20
0.0
 30
0.0
  3
ARROWANG
  0
LINE
  8
SUNPOU
 10
0.0
 20
0.0
 30
0.0
 11
-1.5
 21
0.401924
 31
0.0
  0
LINE
  8
SUNPOU
 10
0.0
 20
0.0
 30
0.0
 11
-1.5
 21
-0.401924
 31
0.0
  0
ENDBLK
  8
SUNPOU
  0
ENDSEC
  0
SECTION
  2
ENTITIES
  0
LINE
  8
ITTEN
 10
3548.066597
 20
3059.574989
 30
0.0
 11
3548.066597
 21
1169.929743
 31
0.0
  0
LINE
  8
ITTEN
 10
8547.7209
 20
3112.82139
 30
0.0
 11
8547.7209
 21
1479.014355
 31
0.0
  0
LINE
  8
ITTEN
 10
8547.7209
 20
6242.016114
 30
0.0
 11
8547.7209
 21
4280.803017
 31
0.0
  0
LINE
  8
ITTEN
 10
6047.7209
 20
2842.016114
 30
0.0
 11
6047.7209
 21
1476.80552
 31
0.0
  0
LINE
  8
ITTEN
 10
6047.7209
 20
6227.487521
 30
0.0
 11
6047.7209
 21
3980.636195
 31
0.0
  0
LINE
  8
SUNPOU
 10
5697.7209
 20
2719.016114
 30
0.0
 11
5697.7209
 21
2719.016114
 31
0.0
  0
LINE
  8
SUNPOU
 10
5697.7209
 20
1527.016114
 30
0.0
 11
5697.7209
 21
1527.016114
 31
0.0
  0
LINE
  8
SUNPOU
 10
4902.7209
 20
2742.016114
 30
0.0
 11
4902.7209
 21
2742.016114
 31
0.0
  0
LINE
  8
SUNPOU
 10
4902.7209
 20
1542.016114
 30
0.0
 11
4902.7209
 21
1542.016114
 31
0.0
  0
LINE
  8
SUNPOU
 10
5697.7209
 20
2719.016114
 30
0.0
 11
5697.7209
 21
2719.016114
 31
0.0
  0
LINE
  8
SUNPOU
 10
5697.7209
 20
1527.016114
 30
0.0
 11
5697.7209
 21
1527.016114
 31
0.0
  0
LINE
  8
SUNPOU
 10
4842.7209
 20
2742.016114
 30
0.0
 11
4842.7209
 21
2742.016114
 31
0.0
  0
LINE
  8
SUNPOU
 10
4842.7209
 20
1542.016114
 30
0.0
 11
4842.7209
 21
1542.016114
 31
0.0
  0
LINE
  8
JISSEN
 10
5172.7209
 20
2742.016114
 30
0.0
 11
5257.7209
 21
2742.016114
 31
0.0
  0
LINE
  8
JISSEN
 10
5257.7209
 20
2742.016114
 30
0.0
 11
5264.7209
 21
2719.016114
 31
0.0
  0
LINE
  8
JISSEN
 10
5264.7209
 20
2719.016114
 30
0.0
 11
5297.7209
 21
2719.016114
 31
0.0
  0
LINE
  8
JISSEN
 10
5172.7209
 20
2742.016114
 30
0.0
 11
5172.7209
 21
2742.016114
 31
0.0
  0
LINE
  8
JISSEN
 10
5172.7209
 20
1542.016114
 30
0.0
 11
5258.7209
 21
1542.016114
 31
0.0
  0
LINE
  8
JISSEN
 10
5258.7209
 20
1542.016114
 30
0.0
 11
5269.7209
 21
1527.016114
 31
0.0
  0
LINE
  8
JISSEN
 10
5269.7209
 20
1527.016114
 30
0.0
 11
5297.7209
 21
1527.016114
 31
0.0
  0
LINE
  8
JISSEN
 10
5172.7209
 20
2742.016114
 30
0.0
 11
5172.7209
 21
1542.016114
 31
0.0
  0
LINE
  8
JISSEN
 10
5297.7209
 20
1527.016114
 30
0.0
 11
5297.7209
 21
2719.016114
 31
0.0
  0
LINE
  8
JISSEN
 10
6922.7209
 20
2742.016114
 30
0.0
 11
6837.7209
 21
2742.016114
 31
0.0
  0
LINE
  8
JISSEN
 10
6922.7209
 20
2742.016114
 30
0.0
 11
6922.7209
 21
1542.016114
 31
0.0
  0
LINE
  8
JISSEN
 10
6830.7209
 20
2719.016114
 30
0.0
 11
6797.7209
 21
2719.016114
 31
0.0
  0
LINE
  8
TENSEN
 10
6797.7209
 20
1527.016114
 30
0.0
 11
6797.7209
 21
2719.016114
 31
0.0
  0
LINE
  8
JISSEN
 10
6922.7209
 20
1542.016114
 30
0.0
 11
6836.7209
 21
1542.016114
 31
0.0
  0
LINE
  8
JISSEN
 10
6825.7209
 20
1527.016114
 30
0.0
 11
6797.7209
 21
1527.016114
 31
0.0
  0
LINE
  8
JISSEN
 10
6837.7209
 20
2742.016114
 30
0.0
 11
6830.7209
 21
2719.016114
 31
0.0
  0
LINE
  8
JISSEN
 10
6836.7209
 20
1542.016114
 30
0.0
 11
6825.7209
 21
1527.016114
 31
0.0
  0
LINE
  8
JISSEN
 10
5297.7209
 20
2719.016114
 30
0.0
 11
6047.7209
 21
2719.016114
 31
0.0
  0
LINE
  8
JISSEN
 10
5297.7209
 20
1527.016114
 30
0.0
 11
6797.7209
 21
1527.016114
 31
0.0
  0
LINE
  8
JISSEN
 10
6836.7209
 20
1542.016114
 30
0.0
 11
6047.7209
 21
1542.016114
 31
0.0
  0
LINE
  8
JISSEN
 10
5257.7209
 20
2742.016114
 30
0.0
 11
6837.7209
 21
2742.016114
 31
0.0
  0
LINE
  8
ITTEN
 10
5241.605046
 20
2577.016114
 30
0.0
 11
5597.7209
 21
2577.016114
 31
0.0
  0
LINE
  8
JISSEN
 10
5297.7209
 20
2587.016114
 30
0.0
 11
5417.7209
 21
2587.016114
 31
0.0
  0
LINE
  8
JISSEN
 10
5417.7209
 20
2567.016114
 30
0.0
 11
5297.7209
 21
2567.016114
 31
0.0
  0
ARC
  8
JISSEN
 10
5417.7209
 20
2577.016114
 30
0.0
 40
10.0
 50
270.0
 51
90.0
  0
LINE
  8
TENSEN
 10
6047.7209
 20
2719.016114
 30
0.0
 11
6797.7209
 21
2719.016114
 31
0.0
  0
CIRCLE
  8
JISSEN
 10
6666.439334
 20
1642.016114
 30
0.0
 40
15.0
  0
CIRCLE
  8
TENSEN
 10
5429.002467
 20
1642.016114
 30
0.0
 40
15.0
  0
CIRCLE
  8
TENSEN
 10
5429.002467
 20
2642.016114
 30
0.0
 40
15.0
  0
CIRCLE
  8
JISSEN
 10
6666.439334
 20
2642.016114
 30
0.0
 40
15.0
  0
LINE
  8
ITTEN
 10
5429.002467
 20
1707.016114
 30
0.0
 11
5429.002467
 21
1577.016114
 31
0.0
  0
LINE
  8
ITTEN
 10
5494.002467
 20
1642.016114
 30
0.0
 11
5364.002467
 21
1642.016114
 31
0.0
  0
LINE
  8
ITTEN
 10
6666.439334
 20
1707.016114
 30
0.0
 11
6666.439334
 21
1577.016114
 31
0.0
  0
LINE
  8
ITTEN
 10
6731.439334
 20
1642.016114
 30
0.0
 11
6601.439334
 21
1642.016114
 31
0.0
  0
LINE
  8
ITTEN
 10
5429.002467
 20
2707.016114
 30
0.0
 11
5429.002467
 21
2577.016114
 31
0.0
  0
LINE
  8
ITTEN
 10
5494.002467
 20
2642.016114
 30
0.0
 11
5364.002467
 21
2642.016114
 31
0.0
  0
LINE
  8
ITTEN
 10
6666.439334
 20
2707.016114
 30
0.0
 11
6666.439334
 21
2577.016114
 31
0.0
  0
LINE
  8
ITTEN
 10
6731.439334
 20
2642.016114
 30
0.0
 11
6601.439334
 21
2642.016114
 31
0.0
  0
LINE
  8
SUNPOU
 10
5172.7209
 20
2772.016114
 30
0.0
 11
5172.7209
 21
3072.016114
 31
0.0
  0
LINE
  8
SUNPOU
 10
5297.7209
 20
2749.016114
 30
0.0
 11
5297.7209
 21
3072.016114
 31
0.0
  0
LINE
  8
SUNPOU
 10
5172.7209
 20
3069.442966
 30
0.0
 11
5172.7209
 21
3072.016114
 31
0.0
  0
LINE
  8
SUNPOU
 10
5297.7209
 20
3069.442966
 30
0.0
 11
5297.7209
 21
3072.016114
 31
0.0
  0
LINE
  8
SUNPOU
 10
5172.7209
 20
3042.016114
 30
0.0
 11
5297.7209
 21
3042.016114
 31
0.0
  0
INSERT
  8
SUNPOU
  2
ARROWANG
 10
5297.7209
 20
3042.016114
 30
0.0
 41
30.0
 42
30.0
 43
30.0
  0
INSERT
  8
SUNPOU
  2
ARROWANG
 10
5172.7209
 20
3042.016114
 30
0.0
 41
30.0
 42
30.0
 50
180.0
 43
30.0
  0
TEXT
  8
SUNPOU
 10
5171.618781
 20
3087.016114
 30
0.0
 40
45.0
  1
125
  7
K
 72
     1
 11
5239.118781
 21
3087.016114
 31
0.0
  0
LINE
  8
SUNPOU
 10
5297.7209
 20
3012.016114
 30
0.0
 11
5297.7209
 21
3012.016114
 31
0.0
  0
LINE
  8
SUNPOU
 10
5297.7209
 20
3042.016114
 30
0.0
 11
6797.7209
 21
3042.016114
 31
0.0
  0
INSERT
  8
SUNPOU
  2
ARROWANG
 10
5297.7209
 20
3042.016114
 30
0.0
 41
30.0
 42
30.0
 50
180.0
 43
30.0
  0
INSERT
  8
SUNPOU
  2
ARROWANG
 10
6797.7209
 20
3042.016114
 30
0.0
 41
30.0
 42
30.0
 43
30.0
  0
TEXT
  8
SUNPOU
 10
5958.792343
 20
3087.016114
 30
0.0
 40
45.0
  1
1500
  7
K
 72
     1
 11
6047.720915
 21
3087.016114
 31
0.0
  0
LINE
  8
SUNPOU
 10
6797.7209
 20
2749.016114
 30
0.0
 11
6797.7209
 21
3072.016114
 31
0.0
  0
LINE
  8
SUNPOU
 10
6922.7209
 20
2772.016114
 30
0.0
 11
6922.7209
 21
3072.016114
 31
0.0
  0
LINE
  8
SUNPOU
 10
6797.7209
 20
3042.016114
 30
0.0
 11
6922.7209
 21
3042.016114
 31
0.0
  0
INSERT
  8
SUNPOU
  2
ARROWANG
 10
6797.7209
 20
3042.016114
 30
0.0
 41
30.0
 42
30.0
 50
180.0
 43
30.0
  0
INSERT
  8
SUNPOU
  2
ARROWANG
 10
6922.7209
 20
3042.016114
 30
0.0
 41
30.0
 42
30.0
 43
30.0
  0
TEXT
  8
SUNPOU
 10
6792.720915
 20
3087.016114
 30
0.0
 40
45.0
  1
125
  7
K
 72
     1
 11
6860.220915
 21
3087.016114
 31
0.0
  0
LINE
  8
SUNPOU
 10
5257.7209
 20
2772.016114
 30
0.0
 11
5257.7209
 21
2972.016114
 31
0.0
  0
LINE
  8
SUNPOU
 10
6837.7209
 20
2772.016114
 30
0.0
 11
6837.7209
 21
2972.016114
 31
0.0
  0
LINE
  8
SUNPOU
 10
5257.7209
 20
2942.016114
 30
0.0
 11
6837.7209
 21
2942.016114
 31
0.0
  0
INSERT
  8
SUNPOU
  2
ARROWANG
 10
5257.7209
 20
2942.016114
 30
0.0
 41
30.0
 42
30.0
 50
180.0
 43
30.0
  0
INSERT
  8
SUNPOU
  2
ARROWANG
 10
6837.7209
 20
2942.016114
 30
0.0
 41
30.0
 42
30.0
 43
30.0
  0
TEXT
  8
SUNPOU
 10
5958.792343
 20
2987.016114
 30
0.0
 40
45.0
  1
1580
  7
K
 72
     1
 11
6047.720915
 21
2987.016114
 31
0.0
  0
LINE
  8
SUNPOU
 10
5264.7209
 20
2749.016114
 30
0.0
 11
5264.7209
 21
2872.016114
 31
0.0
  0
LINE
  8
SUNPOU
 10
6830.7209
 20
2749.016114
 30
0.0
 11
6830.7209
 21
2872.016114
 31
0.0
  0
LINE
  8
SUNPOU
 10
5264.7209
 20
2842.016114
 30
0.0
 11
6830.7209
 21
2842.016114
 31
0.0
  0
INSERT
  8
SUNPOU
  2
ARROWANG
 10
5264.7209
 20
2842.016114
 30
0.0
 41
30.0
 42
30.0
 50
180.0
 43
30.0
  0
INSERT
  8
SUNPOU
  2
ARROWANG
 10
6830.7209
 20
2842.016114
 30
0.0
 41
30.0
 42
30.0
 43
30.0
  0
TEXT
  8
SUNPOU
 10
5958.792343
 20
2887.016114
 30
0.0
 40
45.0
  1
1566
  7
K
 72
     1
 11
6047.720915
 21
2887.016114
 31
0.0
  0
LINE
  8
SUNPOU
 10
5142.7209
 20
1542.016114
 30
0.0
 11
4842.7209
 21
1542.016114
 31
0.0
  0
LINE
  8
SUNPOU
 10
5142.7209
 20
2742.016114
 30
0.0
 11
4842.7209
 21
2742.016114
 31
0.0
  0
LINE
  8
SUNPOU
 10
5052.7209
 20
2742.016114
 30
0.0
 11
5052.7209
 21
2742.016114
 31
0.0
  0
LINE
  8
SUNPOU
 10
5234.7209
 20
2719.016114
 30
0.0
 11
4992.7209
 21
2719.016114
 31
0.0
  0
LINE
  8
SUNPOU
 10
5052.7209
 20
2742.016114
 30
0.0
 11
5052.7209
 21
2742.016114
 31
0.0
  0
LINE
  8
SUNPOU
 10
5022.7209
 20
2719.016114
 30
0.0
 11
5022.7209
 21
2742.016114
 31
0.0
  0
INSERT
  8
SUNPOU
  2
ARROWANG
 10
5022.7209
 20
2719.016114
 30
0.0
 41
30.0
 42
30.0
 50
90.0
 43
30.0
  0
INSERT
  8
SUNPOU
  2
ARROWANG
 10
5022.7209
 20
2742.016114
 30
0.0
 41
30.0
 42
30.0
 50
270.0
 43
30.0
  0
LINE
  8
SUNPOU
 10
5022.7209
 20
2742.016114
 30
0.0
 11
5022.7209
 21
2841.016114
 31
0.0
  0
LINE
  8
SUNPOU
 10
5022.7209
 20
2719.016114
 30
0.0
 11
5022.720901
 21
2659.016114
 31
0.0
  0
TEXT
  8
SUNPOU
 10
4977.7209
 20
2748.658971
 30
0.0
 40
45.0
  1
23
 50
90.0
  7
K
 72
     1
 11
4977.7209
 21
2791.516114
 31
0.0
  0
LINE
  8
SUNPOU
 10
5239.7209
 20
1527.016114
 30
0.0
 11
4842.7209
 21
1527.016114
 31
0.0
  0
LINE
  8
SUNPOU
 10
4902.7209
 20
1542.016114
 30
0.0
 11
4902.7209
 21
1542.016114
 31
0.0
  0
LINE
  8
SUNPOU
 10
4872.7209
 20
1527.016114
 30
0.0
 11
4872.7209
 21
1542.016114
 31
0.0
  0
INSERT
  8
SUNPOU
  2
ARROWANG
 10
4872.7209
 20
1527.016114
 30
0.0
 41
30.0
 42
30.0
 50
90.0
 43
30.0
  0
TEXT
  8
SUNPOU
 10
4827.7209
 20
1488.444686
 30
0.0
 40
45.0
  1
15
 50
90.0
  7
K
 72
     1
 11
4827.7209
 21
1534.516114
 31
0.0
  0
LINE
  8
SUNPOU
 10
4872.7209
 20
1527.016114
 30
0.0
 11
4872.7209
 21
1467.016114
 31
0.0
  0
LINE
  8
SUNPOU
 10
6761.439334
 20
2642.016114
 30
0.0
 11
7102.7209
 21
2642.016114
 31
0.0
  0
LINE
  8
SUNPOU
 10
6952.7209
 20
2742.016114
 30
0.0
 11
7102.7209
 21
2742.016114
 31
0.0
  0
LINE
  8
SUNPOU
 10
7072.7209
 20
2642.016114
 30
0.0
 11
7072.7209
 21
2742.016114
 31
0.0
  0
INSERT
  8
SUNPOU
  2
ARROWANG
 10
7072.7209
 20
2642.016114
 30
0.0
 41
30.0
 42
30.0
 50
90.0
 43
30.0
  0
INSERT
  8
SUNPOU
  2
ARROWANG
 10
7072.7209
 20
2742.016114
 30
0.0
 41
30.0
 42
30.0
 50
270.0
 43
30.0
  0
LINE
  8
SUNPOU
 10
7072.7209
 20
2642.016114
 30
0.0
 11
7072.7209
 21
2500.266114
 31
0.0
  0
LINE
  8
SUNPOU
 10
7072.7209
 20
2742.016114
 30
0.0
 11
7072.7209
 21
2802.016114
 31
0.0
  0
TEXT
  8
SUNPOU
 10
7027.7209
 20
2500.266114
 30
0.0
 40
45.0
  1
100
 50
90.0
  7
K
 72
     1
 11
7027.7209
 21
2567.766114
 31
0.0
  0
LINE
  8
SUNPOU
 10
6952.7209
 20
1542.016114
 30
0.0
 11
7102.7209
 21
1542.016114
 31
0.0
  0
LINE
  8
SUNPOU
 10
6761.439334
 20
1642.016114
 30
0.0
 11
7102.7209
 21
1642.016114
 31
0.0
  0
LINE
  8
SUNPOU
 10
7072.7209
 20
1542.016114
 30
0.0
 11
7072.7209
 21
1642.016114
 31
0.0
  0
INSERT
  8
SUNPOU
  2
ARROWANG
 10
7072.7209
 20
1542.016114
 30
0.0
 41
30.0
 42
30.0
 50
90.0
 43
30.0
  0
INSERT
  8
SUNPOU
  2
ARROWANG
 10
7072.7209
 20
1642.016114
 30
0.0
 41
30.0
 42
30.0
 50
270.0
 43
30.0
  0
LINE
  8
SUNPOU
 10
7072.7209
 20
1642.016114
 30
0.0
 11
7072.7209
 21
1783.766114
 31
0.0
  0
LINE
  8
SUNPOU
 10
7072.7209
 20
1542.016114
 30
0.0
 11
7072.720901
 21
1482.016114
 31
0.0
  0
TEXT
  8
SUNPOU
 10
7027.7209
 20
1648.766114
 30
0.0
 40
45.0
  1
100
 50
90.0
  7
K
 72
     1
 11
7027.7209
 21
1716.266114
 31
0.0
  0
LINE
  8
SUNPOU
 10
5258.7209
 20
1512.016114
 30
0.0
 11
5258.7209
 21
1197.016114
 31
0.0
  0
LINE
  8
SUNPOU
 10
6836.7209
 20
1512.016114
 30
0.0
 11
6836.7209
 21
1197.016114
 31
0.0
  0
LINE
  8
SUNPOU
 10
5258.7209
 20
1227.016114
 30
0.0
 11
6836.7209
 21
1227.016114
 31
0.0
  0
INSERT
  8
SUNPOU
  2
ARROWANG
 10
5258.7209
 20
1227.016114
 30
0.0
 41
30.0
 42
30.0
 50
180.0
 43
30.0
  0
INSERT
  8
SUNPOU
  2
ARROWANG
 10
6836.7209
 20
1227.016114
 30
0.0
 41
30.0
 42
30.0
 43
30.0
  0
TEXT
  8
SUNPOU
 10
5958.792343
 20
1272.016114
 30
0.0
 40
45.0
  1
1578
  7
K
 72
     1
 11
6047.720915
 21
1272.016114
 31
0.0
  0
LINE
  8
SUNPOU
 10
5269.7209
 20
1497.016114
 30
0.0
 11
5269.7209
 21
1347.016114
 31
0.0
  0
LINE
  8
SUNPOU
 10
6825.7209
 20
1497.016114
 30
0.0
 11
6825.7209
 21
1347.016114
 31
0.0
  0
LINE
  8
SUNPOU
 10
5269.7209
 20
1377.016114
 30
0.0
 11
6825.7209
 21
1377.016114
 31
0.0
  0
INSERT
  8
SUNPOU
  2
ARROWANG
 10
5269.7209
 20
1377.016114
 30
0.0
 41
30.0
 42
30.0
 50
180.0
 43
30.0
  0
INSERT
  8
SUNPOU
  2
ARROWANG
 10
6825.7209
 20
1377.016114
 30
0.0
 41
30.0
 42
30.0
 43
30.0
  0
TEXT
  8
SUNPOU
 10
5958.792343
 20
1422.016114
 30
0.0
 40
45.0
  1
1556
  7
K
 72
     1
 11
6047.720915
 21
1422.016114
 31
0.0
  0
LINE
  8
SUNPOU
 10
5547.7209
 20
1527.016114
 30
0.0
 11
5547.7209
 21
1527.016114
 31
0.0
  0
LINE
  8
SUNPOU
 10
5547.7209
 20
2577.016114
 30
0.0
 11
5547.7209
 21
2577.016114
 31
0.0
  0
LINE
  8
SUNPOU
 10
5697.7209
 20
1527.016114
 30
0.0
 11
5697.7209
 21
1527.016114
 31
0.0
  0
LINE
  8
SUNPOU
 10
5697.7209
 20
2719.016114
 30
0.0
 11
5697.7209
 21
2719.016114
 31
0.0
  0
LINE
  8
SUNPOU
 10
4842.7209
 20
1542.016114
 30
0.0
 11
4842.7209
 21
1542.016114
 31
0.0
  0
LINE
  8
SUNPOU
 10
4842.7209
 20
2742.016114
 30
0.0
 11
4842.7209
 21
2742.016114
 31
0.0
  0
LINE
  8
SUNPOU
 10
5697.7209
 20
1527.016114
 30
0.0
 11
5697.7209
 21
1527.016114
 31
0.0
  0
LINE
  8
SUNPOU
 10
5697.7209
 20
2719.016114
 30
0.0
 11
5697.7209
 21
2719.016114
 31
0.0
  0
LINE
  8
SUNPOU
 10
4842.7209
 20
1542.016114
 30
0.0
 11
4842.7209
 21
1542.016114
 31
0.0
  0
LINE
  8
SUNPOU
 10
4842.7209
 20
2742.016114
 30
0.0
 11
4842.7209
 21
2742.016114
 31
0.0
  0
LINE
  8
SUNPOU
 10
4872.7209
 20
1542.016114
 30
0.0
 11
4872.7209
 21
2742.016114
 31
0.0
  0
INSERT
  8
SUNPOU
  2
ARROWANG
 10
4872.7209
 20
1542.016114
 30
0.0
 41
30.0
 42
30.0
 50
270.0
 43
30.0
  0
INSERT
  8
SUNPOU
  2
ARROWANG
 10
4872.7209
 20
2742.016114
 30
0.0
 41
30.0
 42
30.0
 50
90.0
 43
30.0
  0
TEXT
  8
SUNPOU
 10
4827.7209
 20
2053.087543
 30
0.0
 40
45.0
  1
1200
 50
90.0
  7
K
 72
     1
 11
4827.7209
 21
2142.016114
 31
0.0
  0
LINE
  8
SUNPOU
 10
5697.7209
 20
1527.016114
 30
0.0
 11
5697.7209
 21
1527.016114
 31
0.0
  0
LINE
  8
SUNPOU
 10
5697.7209
 20
2719.016114
 30
0.0
 11
5697.7209
 21
2719.016114
 31
0.0
  0
LINE
  8
SUNPOU
 10
5727.7209
 20
1527.016114
 30
0.0
 11
5727.7209
 21
2719.016114
 31
0.0
  0
INSERT
  8
SUNPOU
  2
ARROWANG
 10
5727.7209
 20
1527.016114
 30
0.0
 41
30.0
 42
30.0
 50
270.0
 43
30.0
  0
INSERT
  8
SUNPOU
  2
ARROWANG
 10
5727.7209
 20
2719.016114
 30
0.0
 41
30.0
 42
30.0
 50
90.0
 43
30.0
  0
TEXT
  8
SUNPOU
 10
5682.7209
 20
2034.087543
 30
0.0
 40
45.0
  1
1192
 50
90.0
  7
K
 72
     1
 11
5682.7209
 21
2123.016114
 31
0.0
  0
TEXT
  8
SUNPOU
 10
8182.7209
 20
2184.087543
 30
0.0
 40
45.0
  1
1492
 50
90.0
  7
K
 72
     1
 11
8182.7209
 21
2273.016114
 31
0.0
  0
INSERT
  8
SUNPOU
  2
ARROWANG
 10
8227.7209
 20
3019.016114
 30
0.0
 41
30.0
 42
30.0
 50
90.0
 43
30.0
  0
INSERT
  8
SUNPOU
  2
ARROWANG
 10
8227.7209
 20
1527.016114
 30
0.0
 41
30.0
 42
30.0
 50
270.0
 43
30.0
  0
LINE
  8
SUNPOU
 10
8227.7209
 20
1527.016114
 30
0.0
 11
8227.7209
 21
3019.016114
 31
0.0
  0
LINE
  8
SUNPOU
 10
8197.7209
 20
3019.016114
 30
0.0
 11
8197.7209
 21
3019.016114
 31
0.0
  0
LINE
  8
SUNPOU
 10
8197.7209
 20
1527.016114
 30
0.0
 11
8197.7209
 21
1527.016114
 31
0.0
  0
TEXT
  8
SUNPOU
 10
7327.7209
 20
2132.838256
 30
0.0
 40
45.0
  1
1500
 50
90.0
  7
K
 72
     1
 11
7327.7209
 21
2221.766827
 31
0.0
  0
INSERT
  8
SUNPOU
  2
ARROWANG
 10
7372.7209
 20
3042.016114
 30
0.0
 41
30.0
 42
30.0
 50
90.0
 43
30.0
  0
INSERT
  8
SUNPOU
  2
ARROWANG
 10
7372.7209
 20
1542.016114
 30
0.0
 41
30.0
 42
30.0
 50
270.0
 43
30.0
  0
LINE
  8
SUNPOU
 10
7372.7209
 20
1542.016114
 30
0.0
 11
7372.7209
 21
3042.016114
 31
0.0
  0
LINE
  8
SUNPOU
 10
7402.7209
 20
3042.016114
 30
0.0
 11
7402.7209
 21
3042.016114
 31
0.0
  0
LINE
  8
SUNPOU
 10
7402.7209
 20
1542.016114
 30
0.0
 11
7402.7209
 21
1542.016114
 31
0.0
  0
LINE
  8
SUNPOU
 10
8227.7209
 20
1527.016114
 30
0.0
 11
8227.7209
 21
3019.016114
 31
0.0
  0
LINE
  8
SUNPOU
 10
8197.7209
 20
3019.016114
 30
0.0
 11
8197.7209
 21
3019.016114
 31
0.0
  0
LINE
  8
SUNPOU
 10
8197.7209
 20
1527.016114
 30
0.0
 11
8197.7209
 21
1527.016114
 31
0.0
  0
LINE
  8
SUNPOU
 10
7342.7209
 20
3042.016114
 30
0.0
 11
7342.7209
 21
3042.016114
 31
0.0
  0
LINE
  8
SUNPOU
 10
7342.7209
 20
1542.016114
 30
0.0
 11
7342.7209
 21
1542.016114
 31
0.0
  0
LINE
  8
JISSEN
 10
7672.7209
 20
3042.016114
 30
0.0
 11
7757.7209
 21
3042.016114
 31
0.0
  0
LINE
  8
JISSEN
 10
7757.7209
 20
3042.016114
 30
0.0
 11
7764.7209
 21
3019.016114
 31
0.0
  0
LINE
  8
JISSEN
 10
7764.7209
 20
3019.016114
 30
0.0
 11
7797.7209
 21
3019.016114
 31
0.0
  0
LINE
  8
JISSEN
 10
7672.7209
 20
3042.016114
 30
0.0
 11
7672.7209
 21
3042.016114
 31
0.0
  0
LINE
  8
JISSEN
 10
7672.7209
 20
1542.016114
 30
0.0
 11
7758.7209
 21
1542.016114
 31
0.0
  0
LINE
  8
JISSEN
 10
7758.7209
 20
1542.016114
 30
0.0
 11
7769.7209
 21
1527.016114
 31
0.0
  0
LINE
  8
JISSEN
 10
7769.7209
 20
1527.016114
 30
0.0
 11
7797.7209
 21
1527.016114
 31
0.0
  0
LINE
  8
JISSEN
 10
7672.7209
 20
3042.016114
 30
0.0
 11
7672.7209
 21
1542.016114
 31
0.0
  0
LINE
  8
JISSEN
 10
7797.7209
 20
1527.016114
 30
0.0
 11
7797.7209
 21
3019.016114
 31
0.0
  0
LINE
  8
JISSEN
 10
9422.7209
 20
3042.016114
 30
0.0
 11
9337.7209
 21
3042.016114
 31
0.0
  0
LINE
  8
JISSEN
 10
9422.7209
 20
3042.016114
 30
0.0
 11
9422.7209
 21
1542.016114
 31
0.0
  0
LINE
  8
JISSEN
 10
9330.7209
 20
3019.016114
 30
0.0
 11
9297.7209
 21
3019.016114
 31
0.0
  0
LINE
  8
TENSEN
 10
9297.7209
 20
1527.016114
 30
0.0
 11
9297.7209
 21
3019.016114
 31
0.0
  0
LINE
  8
JISSEN
 10
9422.7209
 20
1542.016114
 30
0.0
 11
9336.7209
 21
1542.016114
 31
0.0
  0
LINE
  8
JISSEN
 10
9325.7209
 20
1527.016114
 30
0.0
 11
9297.7209
 21
1527.016114
 31
0.0
  0
LINE
  8
JISSEN
 10
9337.7209
 20
3042.016114
 30
0.0
 11
9330.7209
 21
3019.016114
 31
0.0
  0
LINE
  8
JISSEN
 10
9336.7209
 20
1542.016114
 30
0.0
 11
9325.7209
 21
1527.016114
 31
0.0
  0
LINE
  8
JISSEN
 10
7797.7209
 20
3019.016114
 30
0.0
 11
8547.7209
 21
3019.016114
 31
0.0
  0
LINE
  8
JISSEN
 10
7797.7209
 20
1527.016114
 30
0.0
 11
9297.7209
 21
1527.016114
 31
0.0
  0
LINE
  8
JISSEN
 10
9336.7209
 20
1542.016114
 30
0.0
 11
8547.7209
 21
1542.016114
 31
0.0
  0
LINE
  8
JISSEN
 10
7757.7209
 20
3042.016114
 30
0.0
 11
9337.7209
 21
3042.016114
 31
0.0
  0
LINE
  8
ITTEN
 10
7741.605046
 20
2577.016114
 30
0.0
 11
8097.7209
 21
2577.016114
 31
0.0
  0
LINE
  8
JISSEN
 10
7797.7209
 20
2587.016114
 30
0.0
 11
7917.7209
 21
2587.016114
 31
0.0
  0
LINE
  8
JISSEN
 10
7917.7209
 20
2567.016114
 30
0.0
 11
7797.7209
 21
2567.016114
 31
0.0
  0
ARC
  8
JISSEN
 10
7917.7209
 20
2577.016114
 30
0.0
 40
10.0
 50
270.0
 51
90.0
  0
LINE
  8
ITTEN
 10
7741.605046
 20
2877.016114
 30
0.0
 11
8097.7209
 21
2877.016114
 31
0.0
  0
LINE
  8
JISSEN
 10
7797.7209
 20
2887.016114
 30
0.0
 11
7917.7209
 21
2887.016114
 31
0.0
  0
LINE
  8
JISSEN
 10
7917.7209
 20
2867.016114
 30
0.0
 11
7797.7209
 21
2867.016114
 31
0.0
  0
ARC
  8
JISSEN
 10
7917.7209
 20
2877.016114
 30
0.0
 40
10.0
 50
270.0
 51
90.0
  0
LINE
  8
TENSEN
 10
8547.7209
 20
3019.016114
 30
0.0
 11
9297.7209
 21
3019.016114
 31
0.0
  0
CIRCLE
  8
JISSEN
 10
9166.439334
 20
1642.016114
 30
0.0
 40
15.0
  0
CIRCLE
  8
TENSEN
 10
7929.002467
 20
1642.016114
 30
0.0
 40
15.0
  0
CIRCLE
  8
TENSEN
 10
7929.002467
 20
2942.016114
 30
0.0
 40
15.0
  0
CIRCLE
  8
JISSEN
 10
9166.439334
 20
2942.016114
 30
0.0
 40
15.0
  0
LINE
  8
ITTEN
 10
7929.002467
 20
1707.016114
 30
0.0
 11
7929.002467
 21
1577.016114
 31
0.0
  0
LINE
  8
ITTEN
 10
7994.002467
 20
1642.016114
 30
0.0
 11
7864.002467
 21
1642.016114
 31
0.0
  0
LINE
  8
ITTEN
 10
9166.439334
 20
1707.016114
 30
0.0
 11
9166.439334
 21
1577.016114
 31
0.0
  0
LINE
  8
ITTEN
 10
9231.439334
 20
1642.016114
 30
0.0
 11
9101.439334
 21
1642.016114
 31
0.0
  0
LINE
  8
ITTEN
 10
7929.002467
 20
3007.016114
 30
0.0
 11
7929.002467
 21
2877.016114
 31
0.0
  0
LINE
  8
ITTEN
 10
7994.002467
 20
2942.016114
 30
0.0
 11
7864.002467
 21
2942.016114
 31
0.0
  0
LINE
  8
ITTEN
 10
9166.439334
 20
3007.016114
 30
0.0
 11
9166.439334
 21
2877.016114
 31
0.0
  0
LINE
  8
ITTEN
 10
9231.439334
 20
2942.016114
 30
0.0
 11
9101.439334
 21
2942.016114
 31
0.0
  0
LINE
  8
SUNPOU
 10
7672.7209
 20
3072.016114
 30
0.0
 11
7672.7209
 21
3372.016114
 31
0.0
  0
LINE
  8
SUNPOU
 10
7797.7209
 20
3049.016114
 30
0.0
 11
7797.7209
 21
3372.016114
 31
0.0
  0
LINE
  8
SUNPOU
 10
7672.7209
 20
3369.442966
 30
0.0
 11
7672.7209
 21
3372.016114
 31
0.0
  0
LINE
  8
SUNPOU
 10
7797.7209
 20
3369.442966
 30
0.0
 11
7797.7209
 21
3372.016114
 31
0.0
  0
LINE
  8
SUNPOU
 10
7672.7209
 20
3342.016114
 30
0.0
 11
7797.7209
 21
3342.016114
 31
0.0
  0
INSERT
  8
SUNPOU
  2
ARROWANG
 10
7797.7209
 20
3342.016114
 30
0.0
 41
30.0
 42
30.0
 43
30.0
  0
INSERT
  8
SUNPOU
  2
ARROWANG
 10
7672.7209
 20
3342.016114
 30
0.0
 41
30.0
 42
30.0
 50
180.0
 43
30.0
  0
TEXT
  8
SUNPOU
 10
7671.618781
 20
3387.016114
 30
0.0
 40
45.0
  1
125
  7
K
 72
     1
 11
7739.118781
 21
3387.016114
 31
0.0
  0
LINE
  8
SUNPOU
 10
7797.7209
 20
3312.016114
 30
0.0
 11
7797.7209
 21
3312.016114
 31
0.0
  0
LINE
  8
SUNPOU
 10
7797.7209
 20
3342.016114
 30
0.0
 11
9297.7209
 21
3342.016114
 31
0.0
  0
INSERT
  8
SUNPOU
  2
ARROWANG
 10
7797.7209
 20
3342.016114
 30
0.0
 41
30.0
 42
30.0
 50
180.0
 43
30.0
  0
INSERT
  8
SUNPOU
  2
ARROWANG
 10
9297.7209
 20
3342.016114
 30
0.0
 41
30.0
 42
30.0
 43
30.0
  0
TEXT
  8
SUNPOU
 10
8458.792343
 20
3387.016114
 30
0.0
 40
45.0
  1
1500
  7
K
 72
     1
 11
8547.720915
 21
3387.016114
 31
0.0
  0
LINE
  8
SUNPOU
 10
9297.7209
 20
3049.016114
 30
0.0
 11
9297.7209
 21
3372.016114
 31
0.0
  0
LINE
  8
SUNPOU
 10
9422.7209
 20
3072.016114
 30
0.0
 11
9422.7209
 21
3372.016114
 31
0.0
  0
LINE
  8
SUNPOU
 10
9297.7209
 20
3342.016114
 30
0.0
 11
9422.7209
 21
3342.016114
 31
0.0
  0
INSERT
  8
SUNPOU
  2
ARROWANG
 10
9297.7209
 20
3342.016114
 30
0.0
 41
30.0
 42
30.0
 50
180.0
 43
30.0
  0
INSERT
  8
SUNPOU
  2
ARROWANG
 10
9422.7209
 20
3342.016114
 30
0.0
 41
30.0
 42
30.0
 43
30.0
  0
TEXT
  8
SUNPOU
 10
9292.720915
 20
3387.016114
 30
0.0
 40
45.0
  1
125
  7
K
 72
     1
 11
9360.220915
 21
3387.016114
 31
0.0
  0
LINE
  8
SUNPOU
 10
7757.7209
 20
3072.016114
 30
0.0
 11
7757.7209
 21
3272.016114
 31
0.0
  0
LINE
  8
SUNPOU
 10
9337.7209
 20
3072.016114
 30
0.0
 11
9337.7209
 21
3272.016114
 31
0.0
  0
LINE
  8
SUNPOU
 10
7757.7209
 20
3242.016114
 30
0.0
 11
9337.7209
 21
3242.016114
 31
0.0
  0
INSERT
  8
SUNPOU
  2
ARROWANG
 10
7757.7209
 20
3242.016114
 30
0.0
 41
30.0
 42
30.0
 50
180.0
 43
30.0
  0
INSERT
  8
SUNPOU
  2
ARROWANG
 10
9337.7209
 20
3242.016114
 30
0.0
 41
30.0
 42
30.0
 43
30.0
  0
TEXT
  8
SUNPOU
 10
8458.792343
 20
3287.016114
 30
0.0
 40
45.0
  1
1580
  7
K
 72
     1
 11
8547.720915
 21
3287.016114
 31
0.0
  0
LINE
  8
SUNPOU
 10
7764.7209
 20
3049.016114
 30
0.0
 11
7764.7209
 21
3172.016114
 31
0.0
  0
LINE
  8
SUNPOU
 10
9330.7209
 20
3049.016114
 30
0.0
 11
9330.7209
 21
3172.016114
 31
0.0
  0
LINE
  8
SUNPOU
 10
7764.7209
 20
3142.016114
 30
0.0
 11
9330.7209
 21
3142.016114
 31
0.0
  0
INSERT
  8
SUNPOU
  2
ARROWANG
 10
7764.7209
 20
3142.016114
 30
0.0
 41
30.0
 42
30.0
 50
180.0
 43
30.0
  0
INSERT
  8
SUNPOU
  2
ARROWANG
 10
9330.7209
 20
3142.016114
 30
0.0
 41
30.0
 42
30.0
 43
30.0
  0
TEXT
  8
SUNPOU
 10
8458.792343
 20
3187.016114
 30
0.0
 40
45.0
  1
1566
  7
K
 72
     1
 11
8547.720915
 21
3187.016114
 31
0.0
  0
LINE
  8
SUNPOU
 10
7642.7209
 20
1542.016114
 30
0.0
 11
7342.7209
 21
1542.016114
 31
0.0
  0
LINE
  8
SUNPOU
 10
7642.7209
 20
3042.016114
 30
0.0
 11
7342.7209
 21
3042.016114
 31
0.0
  0
LINE
  8
SUNPOU
 10
7552.7209
 20
3042.016114
 30
0.0
 11
7552.7209
 21
3042.016114
 31
0.0
  0
LINE
  8
SUNPOU
 10
7734.7209
 20
3019.016114
 30
0.0
 11
7492.7209
 21
3019.016114
 31
0.0
  0
LINE
  8
SUNPOU
 10
7552.7209
 20
3042.016114
 30
0.0
 11
7552.7209
 21
3042.016114
 31
0.0
  0
LINE
  8
SUNPOU
 10
7522.7209
 20
3019.016114
 30
0.0
 11
7522.7209
 21
3042.016114
 31
0.0
  0
INSERT
  8
SUNPOU
  2
ARROWANG
 10
7522.7209
 20
3019.016114
 30
0.0
 41
30.0
 42
30.0
 50
90.0
 43
30.0
  0
INSERT
  8
SUNPOU
  2
ARROWANG
 10
7522.7209
 20
3042.016114
 30
0.0
 41
30.0
 42
30.0
 50
270.0
 43
30.0
  0
LINE
  8
SUNPOU
 10
7522.7209
 20
3042.016114
 30
0.0
 11
7522.7209
 21
3141.016114
 31
0.0
  0
LINE
  8
SUNPOU
 10
7522.7209
 20
3019.016114
 30
0.0
 11
7522.720901
 21
2959.016114
 31
0.0
  0
TEXT
  8
SUNPOU
 10
7477.7209
 20
3048.658971
 30
0.0
 40
45.0
  1
23
 50
90.0
  7
K
 72
     1
 11
7477.7209
 21
3091.516114
 31
0.0
  0
LINE
  8
SUNPOU
 10
7739.7209
 20
1527.016114
 30
0.0
 11
7342.7209
 21
1527.016114
 31
0.0
  0
LINE
  8
SUNPOU
 10
7402.7209
 20
1542.016114
 30
0.0
 11
7402.7209
 21
1542.016114
 31
0.0
  0
LINE
  8
SUNPOU
 10
7372.7209
 20
1527.016114
 30
0.0
 11
7372.7209
 21
1542.016114
 31
0.0
  0
INSERT
  8
SUNPOU
  2
ARROWANG
 10
7372.7209
 20
1527.016114
 30
0.0
 41
30.0
 42
30.0
 50
90.0
 43
30.0
  0
TEXT
  8
SUNPOU
 10
7327.7209
 20
1488.444686
 30
0.0
 40
45.0
  1
15
 50
90.0
  7
K
 72
     1
 11
7327.7209
 21
1534.516114
 31
0.0
  0
LINE
  8
SUNPOU
 10
7372.7209
 20
1527.016114
 30
0.0
 11
7372.7209
 21
1467.016114
 31
0.0
  0
LINE
  8
SUNPOU
 10
9261.439334
 20
2942.016114
 30
0.0
 11
9602.7209
 21
2942.016114
 31
0.0
  0
LINE
  8
SUNPOU
 10
9452.7209
 20
3042.016114
 30
0.0
 11
9602.7209
 21
3042.016114
 31
0.0
  0
LINE
  8
SUNPOU
 10
9572.7209
 20
2942.016114
 30
0.0
 11
9572.7209
 21
3042.016114
 31
0.0
  0
INSERT
  8
SUNPOU
  2
ARROWANG
 10
9572.7209
 20
2942.016114
 30
0.0
 41
30.0
 42
30.0
 50
90.0
 43
30.0
  0
INSERT
  8
SUNPOU
  2
ARROWANG
 10
9572.7209
 20
3042.016114
 30
0.0
 41
30.0
 42
30.0
 50
270.0
 43
30.0
  0
LINE
  8
SUNPOU
 10
9572.7209
 20
2942.016114
 30
0.0
 11
9572.7209
 21
2800.266114
 31
0.0
  0
LINE
  8
SUNPOU
 10
9572.7209
 20
3042.016114
 30
0.0
 11
9572.7209
 21
3102.016114
 31
0.0
  0
TEXT
  8
SUNPOU
 10
9527.7209
 20
2800.266114
 30
0.0
 40
45.0
  1
100
 50
90.0
  7
K
 72
     1
 11
9527.7209
 21
2867.766114
 31
0.0
  0
LINE
  8
SUNPOU
 10
9452.7209
 20
1542.016114
 30
0.0
 11
9602.7209
 21
1542.016114
 31
0.0
  0
LINE
  8
SUNPOU
 10
9261.439334
 20
1642.016114
 30
0.0
 11
9602.7209
 21
1642.016114
 31
0.0
  0
LINE
  8
SUNPOU
 10
9572.7209
 20
1542.016114
 30
0.0
 11
9572.7209
 21
1642.016114
 31
0.0
  0
INSERT
  8
SUNPOU
  2
ARROWANG
 10
9572.7209
 20
1542.016114
 30
0.0
 41
30.0
 42
30.0
 50
90.0
 43
30.0
  0
INSERT
  8
SUNPOU
  2
ARROWANG
 10
9572.7209
 20
1642.016114
 30
0.0
 41
30.0
 42
30.0
 50
270.0
 43
30.0
  0
LINE
  8
SUNPOU
 10
9572.7209
 20
1642.016114
 30
0.0
 11
9572.7209
 21
1783.766114
 31
0.0
  0
LINE
  8
SUNPOU
 10
9572.7209
 20
1542.016114
 30
0.0
 11
9572.720901
 21
1482.016114
 31
0.0
  0
TEXT
  8
SUNPOU
 10
9527.7209
 20
1648.766114
 30
0.0
 40
45.0
  1
100
 50
90.0
  7
K
 72
     1
 11
9527.7209
 21
1716.266114
 31
0.0
  0
LINE
  8
SUNPOU
 10
7758.7209
 20
1512.016114
 30
0.0
 11
7758.7209
 21
1197.016114
 31
0.0
  0
LINE
  8
SUNPOU
 10
9336.7209
 20
1512.016114
 30
0.0
 11
9336.7209
 21
1197.016114
 31
0.0
  0
LINE
  8
SUNPOU
 10
7758.7209
 20
1227.016114
 30
0.0
 11
9336.7209
 21
1227.016114
 31
0.0
  0
INSERT
  8
SUNPOU
  2
ARROWANG
 10
7758.7209
 20
1227.016114
 30
0.0
 41
30.0
 42
30.0
 50
180.0
 43
30.0
  0
INSERT
  8
SUNPOU
  2
ARROWANG
 10
9336.7209
 20
1227.016114
 30
0.0
 41
30.0
 42
30.0
 43
30.0
  0
TEXT
  8
SUNPOU
 10
8458.792343
 20
1272.016114
 30
0.0
 40
45.0
  1
1578
  7
K
 72
     1
 11
8547.720915
 21
1272.016114
 31
0.0
  0
LINE
  8
SUNPOU
 10
7769.7209
 20
1497.016114
 30
0.0
 11
7769.7209
 21
1347.016114
 31
0.0
  0
LINE
  8
SUNPOU
 10
9325.7209
 20
1497.016114
 30
0.0
 11
9325.7209
 21
1347.016114
 31
0.0
  0
LINE
  8
SUNPOU
 10
7769.7209
 20
1377.016114
 30
0.0
 11
9325.7209
 21
1377.016114
 31
0.0
  0
INSERT
  8
SUNPOU
  2
ARROWANG
 10
7769.7209
 20
1377.016114
 30
0.0
 41
30.0
 42
30.0
 50
180.0
 43
30.0
  0
INSERT
  8
SUNPOU
  2
ARROWANG
 10
9325.7209
 20
1377.016114
 30
0.0
 41
30.0
 42
30.0
 43
30.0
  0
TEXT
  8
SUNPOU
 10
8458.792343
 20
1422.016114
 30
0.0
 40
45.0
  1
1556
  7
K
 72
     1
 11
8547.720915
 21
1422.016114
 31
0.0
  0
LINE
  8
SUNPOU
 10
8047.7209
 20
1527.016114
 30
0.0
 11
8047.7209
 21
1527.016114
 31
0.0
  0
LINE
  8
SUNPOU
 10
8047.7209
 20
2577.016114
 30
0.0
 11
8047.7209
 21
2577.016114
 31
0.0
  0
LINE
  8
SUNPOU
 10
8047.7209
 20
2577.016114
 30
0.0
 11
8047.7209
 21
2577.016114
 31
0.0
  0
LINE
  8
SUNPOU
 10
8047.7209
 20
2877.016114
 30
0.0
 11
8047.7209
 21
2877.016114
 31
0.0
  0
LINE
  8
SUNPOU
 10
8077.7209
 20
2577.016114
 30
0.0
 11
8077.7209
 21
2877.016114
 31
0.0
  0
INSERT
  8
SUNPOU
  2
ARROWANG
 10
8077.7209
 20
2577.016114
 30
0.0
 41
30.0
 42
30.0
 50
270.0
 43
30.0
  0
INSERT
  8
SUNPOU
  2
ARROWANG
 10
8077.7209
 20
2877.016114
 30
0.0
 41
30.0
 42
30.0
 50
90.0
 43
30.0
  0
TEXT
  8
SUNPOU
 10
8032.7209
 20
2662.7304
 30
0.0
 40
45.0
  1
300
 50
90.0
  7
K
 72
     1
 11
8032.7209
 21
2727.016114
 31
0.0
  0
LINE
  8
SUNPOU
 10
8197.7209
 20
1527.016114
 30
0.0
 11
8197.7209
 21
1527.016114
 31
0.0
  0
LINE
  8
SUNPOU
 10
8197.7209
 20
3019.016114
 30
0.0
 11
8197.7209
 21
3019.016114
 31
0.0
  0
LINE
  8
SUNPOU
 10
7342.7209
 20
1542.016114
 30
0.0
 11
7342.7209
 21
1542.016114
 31
0.0
  0
LINE
  8
SUNPOU
 10
7342.7209
 20
3042.016114
 30
0.0
 11
7342.7209
 21
3042.016114
 31
0.0
  0
INSERT
  8
SUNPOU
  2
ARROWANG
 10
7372.7209
 20
1542.016114
 30
0.0
 41
30.0
 42
30.0
 50
270.0
 43
30.0
  0
LINE
  8
SUNPOU
 10
8197.7209
 20
1527.016114
 30
0.0
 11
8197.7209
 21
1527.016114
 31
0.0
  0
LINE
  8
SUNPOU
 10
8197.7209
 20
3019.016114
 30
0.0
 11
8197.7209
 21
3019.016114
 31
0.0
  0
LINE
  8
SUNPOU
 10
8227.7209
 20
1527.016114
 30
0.0
 11
8227.7209
 21
3019.016114
 31
0.0
  0
INSERT
  8
SUNPOU
  2
ARROWANG
 10
8227.7209
 20
1527.016114
 30
0.0
 41
30.0
 42
30.0
 50
270.0
 43
30.0
  0
INSERT
  8
SUNPOU
  2
ARROWANG
 10
8227.7209
 20
3019.016114
 30
0.0
 41
30.0
 42
30.0
 50
90.0
 43
30.0
  0
LINE
  8
SUNPOU
 10
8227.7209
 20
4327.016114
 30
0.0
 11
8227.7209
 21
6119.016114
 31
0.0
  0
LINE
  8
SUNPOU
 10
8197.7209
 20
6119.016114
 30
0.0
 11
8197.7209
 21
6119.016114
 31
0.0
  0
LINE
  8
SUNPOU
 10
8197.7209
 20
4327.016114
 30
0.0
 11
8197.7209
 21
4327.016114
 31
0.0
  0
TEXT
  8
SUNPOU
 10
7327.7209
 20
5153.087543
 30
0.0
 40
45.0
  1
1800
 50
90.0
  7
K
 72
     1
 11
7327.7209
 21
5242.016114
 31
0.0
  0
INSERT
  8
SUNPOU
  2
ARROWANG
 10
7372.7209
 20
6142.016114
 30
0.0
 41
30.0
 42
30.0
 50
90.0
 43
30.0
  0
INSERT
  8
SUNPOU
  2
ARROWANG
 10
7372.7209
 20
4342.016114
 30
0.0
 41
30.0
 42
30.0
 50
270.0
 43
30.0
  0
LINE
  8
SUNPOU
 10
7372.7209
 20
4342.016114
 30
0.0
 11
7372.7209
 21
6142.016114
 31
0.0
  0
LINE
  8
SUNPOU
 10
7342.7209
 20
6142.016114
 30
0.0
 11
7342.7209
 21
6142.016114
 31
0.0
  0
LINE
  8
SUNPOU
 10
7342.7209
 20
4342.016114
 30
0.0
 11
7342.7209
 21
4342.016114
 31
0.0
  0
LINE
  8
SUNPOU
 10
8197.7209
 20
6119.016114
 30
0.0
 11
8197.7209
 21
6119.016114
 31
0.0
  0
LINE
  8
SUNPOU
 10
8197.7209
 20
4327.016114
 30
0.0
 11
8197.7209
 21
4327.016114
 31
0.0
  0
TEXT
  8
SUNPOU
 10
8032.7209
 20
5762.7304
 30
0.0
 40
45.0
  1
300
 50
90.0
  7
K
 72
     1
 11
8032.7209
 21
5827.016114
 31
0.0
  0
INSERT
  8
SUNPOU
  2
ARROWANG
 10
8077.7209
 20
5977.016114
 30
0.0
 41
30.0
 42
30.0
 50
90.0
 43
30.0
  0
INSERT
  8
SUNPOU
  2
ARROWANG
 10
8077.7209
 20
5677.016114
 30
0.0
 41
30.0
 42
30.0
 50
270.0
 43
30.0
  0
LINE
  8
SUNPOU
 10
8077.7209
 20
5677.016114
 30
0.0
 11
8077.7209
 21
5977.016114
 31
0.0
  0
LINE
  8
SUNPOU
 10
8047.7209
 20
5977.016114
 30
0.0
 11
8047.7209
 21
5977.016114
 31
0.0
  0
LINE
  8
SUNPOU
 10
8047.7209
 20
5677.016114
 30
0.0
 11
8047.7209
 21
5677.016114
 31
0.0
  0
LINE
  8
SUNPOU
 10
8047.7209
 20
5677.016114
 30
0.0
 11
8047.7209
 21
5677.016114
 31
0.0
  0
LINE
  8
SUNPOU
 10
8047.7209
 20
5377.016114
 30
0.0
 11
8047.7209
 21
5377.016114
 31
0.0
  0
LINE
  8
SUNPOU
 10
8047.7209
 20
5377.016114
 30
0.0
 11
8047.7209
 21
5377.016114
 31
0.0
  0
LINE
  8
SUNPOU
 10
8047.7209
 20
4327.016114
 30
0.0
 11
8047.7209
 21
4327.016114
 31
0.0
  0
TEXT
  8
SUNPOU
 10
8458.792343
 20
4222.016114
 30
0.0
 40
45.0
  1
1556
  7
K
 72
     1
 11
8547.720915
 21
4222.016114
 31
0.0
  0
INSERT
  8
SUNPOU
  2
ARROWANG
 10
9325.7209
 20
4177.016114
 30
0.0
 41
30.0
 42
30.0
 43
30.0
  0
INSERT
  8
SUNPOU
  2
ARROWANG
 10
7769.7209
 20
4177.016114
 30
0.0
 41
30.0
 42
30.0
 50
180.0
 43
30.0
  0
LINE
  8
SUNPOU
 10
7769.7209
 20
4177.016114
 30
0.0
 11
9325.7209
 21
4177.016114
 31
0.0
  0
LINE
  8
SUNPOU
 10
9325.7209
 20
4297.016114
 30
0.0
 11
9325.7209
 21
4147.016114
 31
0.0
  0
LINE
  8
SUNPOU
 10
7769.7209
 20
4297.016114
 30
0.0
 11
7769.7209
 21
4147.016114
 31
0.0
  0
TEXT
  8
SUNPOU
 10
8458.792343
 20
4072.016114
 30
0.0
 40
45.0
  1
1578
  7
K
 72
     1
 11
8547.720915
 21
4072.016114
 31
0.0
  0
INSERT
  8
SUNPOU
  2
ARROWANG
 10
9336.7209
 20
4027.016114
 30
0.0
 41
30.0
 42
30.0
 43
30.0
  0
INSERT
  8
SUNPOU
  2
ARROWANG
 10
7758.7209
 20
4027.016114
 30
0.0
 41
30.0
 42
30.0
 50
180.0
 43
30.0
  0
LINE
  8
SUNPOU
 10
7758.7209
 20
4027.016114
 30
0.0
 11
9336.7209
 21
4027.016114
 31
0.0
  0
LINE
  8
SUNPOU
 10
9336.7209
 20
4312.016114
 30
0.0
 11
9336.7209
 21
3997.016114
 31
0.0
  0
LINE
  8
SUNPOU
 10
7758.7209
 20
4312.016114
 30
0.0
 11
7758.7209
 21
3997.016114
 31
0.0
  0
TEXT
  8
SUNPOU
 10
9527.7209
 20
4448.766114
 30
0.0
 40
45.0
  1
100
 50
90.0
  7
K
 72
     1
 11
9527.7209
 21
4516.266114
 31
0.0
  0
LINE
  8
SUNPOU
 10
9572.7209
 20
4342.016114
 30
0.0
 11
9572.720901
 21
4282.016114
 31
0.0
  0
LINE
  8
SUNPOU
 10
9572.7209
 20
4442.016114
 30
0.0
 11
9572.7209
 21
4583.766114
 31
0.0
  0
INSERT
  8
SUNPOU
  2
ARROWANG
 10
9572.7209
 20
4442.016114
 30
0.0
 41
30.0
 42
30.0
 50
270.0
 43
30.0
  0
INSERT
  8
SUNPOU
  2
ARROWANG
 10
9572.7209
 20
4342.016114
 30
0.0
 41
30.0
 42
30.0
 50
90.0
 43
30.0
  0
LINE
  8
SUNPOU
 10
9572.7209
 20
4342.016114
 30
0.0
 11
9572.7209
 21
4442.016114
 31
0.0
  0
LINE
  8
SUNPOU
 10
9261.439334
 20
4442.016114
 30
0.0
 11
9602.7209
 21
4442.016114
 31
0.0
  0
LINE
  8
SUNPOU
 10
9452.7209
 20
4342.016114
 30
0.0
 11
9602.7209
 21
4342.016114
 31
0.0
  0
TEXT
  8
SUNPOU
 10
9527.7209
 20
5900.266114
 30
0.0
 40
45.0
  1
100
 50
90.0
  7
K
 72
     1
 11
9527.7209
 21
5967.766114
 31
0.0
  0
LINE
  8
SUNPOU
 10
9572.7209
 20
6142.016114
 30
0.0
 11
9572.7209
 21
6202.016114
 31
0.0
  0
LINE
  8
SUNPOU
 10
9572.7209
 20
6042.016114
 30
0.0
 11
9572.7209
 21
5900.266114
 31
0.0
  0
INSERT
  8
SUNPOU
  2
ARROWANG
 10
9572.7209
 20
6142.016114
 30
0.0
 41
30.0
 42
30.0
 50
270.0
 43
30.0
  0
INSERT
  8
SUNPOU
  2
ARROWANG
 10
9572.7209
 20
6042.016114
 30
0.0
 41
30.0
 42
30.0
 50
90.0
 43
30.0
  0
LINE
  8
SUNPOU
 10
9572.7209
 20
6042.016114
 30
0.0
 11
9572.7209
 21
6142.016114
 31
0.0
  0
LINE
  8
SUNPOU
 10
9452.7209
 20
6142.016114
 30
0.0
 11
9602.7209
 21
6142.016114
 31
0.0
  0
LINE
  8
SUNPOU
 10
9261.439334
 20
6042.016114
 30
0.0
 11
9602.7209
 21
6042.016114
 31
0.0
  0
LINE
  8
SUNPOU
 10
7372.7209
 20
4327.016114
 30
0.0
 11
7372.7209
 21
4267.016114
 31
0.0
  0
TEXT
  8
SUNPOU
 10
7327.7209
 20
4288.444686
 30
0.0
 40
45.0
  1
15
 50
90.0
  7
K
 72
     1
 11
7327.7209
 21
4334.516114
 31
0.0
  0
INSERT
  8
SUNPOU
  2
ARROWANG
 10
7372.7209
 20
4327.016114
 30
0.0
 41
30.0
 42
30.0
 50
90.0
 43
30.0
  0
LINE
  8
SUNPOU
 10
7372.7209
 20
4327.016114
 30
0.0
 11
7372.7209
 21
4342.016114
 31
0.0
  0
LINE
  8
SUNPOU
 10
7402.7209
 20
4342.016114
 30
0.0
 11
7402.7209
 21
4342.016114
 31
0.0
  0
LINE
  8
SUNPOU
 10
7739.7209
 20
4327.016114
 30
0.0
 11
7342.7209
 21
4327.016114
 31
0.0
  0
TEXT
  8
SUNPOU
 10
7477.7209
 20
6148.658971
 30
0.0
 40
45.0
  1
23
 50
90.0
  7
K
 72
     1
 11
7477.7209
 21
6191.516114
 31
0.0
  0
LINE
  8
SUNPOU
 10
7522.7209
 20
6119.016114
 30
0.0
 11
7522.720901
 21
6059.016114
 31
0.0
  0
LINE
  8
SUNPOU
 10
7522.7209
 20
6142.016114
 30
0.0
 11
7522.7209
 21
6241.016114
 31
0.0
  0
INSERT
  8
SUNPOU
  2
ARROWANG
 10
7522.7209
 20
6142.016114
 30
0.0
 41
30.0
 42
30.0
 50
270.0
 43
30.0
  0
INSERT
  8
SUNPOU
  2
ARROWANG
 10
7522.7209
 20
6119.016114
 30
0.0
 41
30.0
 42
30.0
 50
90.0
 43
30.0
  0
LINE
  8
SUNPOU
 10
7522.7209
 20
6119.016114
 30
0.0
 11
7522.7209
 21
6142.016114
 31
0.0
  0
LINE
  8
SUNPOU
 10
7552.7209
 20
6142.016114
 30
0.0
 11
7552.7209
 21
6142.016114
 31
0.0
  0
LINE
  8
SUNPOU
 10
7734.7209
 20
6119.016114
 30
0.0
 11
7492.7209
 21
6119.016114
 31
0.0
  0
LINE
  8
SUNPOU
 10
7552.7209
 20
6142.016114
 30
0.0
 11
7552.7209
 21
6142.016114
 31
0.0
  0
LINE
  8
SUNPOU
 10
7642.7209
 20
6142.016114
 30
0.0
 11
7342.7209
 21
6142.016114
 31
0.0
  0
LINE
  8
SUNPOU
 10
7642.7209
 20
4342.016114
 30
0.0
 11
7342.7209
 21
4342.016114
 31
0.0
  0
TEXT
  8
SUNPOU
 10
8458.792343
 20
6287.016114
 30
0.0
 40
45.0
  1
1566
  7
K
 72
     1
 11
8547.720915
 21
6287.016114
 31
0.0
  0
INSERT
  8
SUNPOU
  2
ARROWANG
 10
9330.7209
 20
6242.016114
 30
0.0
 41
30.0
 42
30.0
 43
30.0
  0
INSERT
  8
SUNPOU
  2
ARROWANG
 10
7764.7209
 20
6242.016114
 30
0.0
 41
30.0
 42
30.0
 50
180.0
 43
30.0
  0
LINE
  8
SUNPOU
 10
7764.7209
 20
6242.016114
 30
0.0
 11
9330.7209
 21
6242.016114
 31
0.0
  0
LINE
  8
SUNPOU
 10
9330.7209
 20
6149.016114
 30
0.0
 11
9330.7209
 21
6272.016114
 31
0.0
  0
LINE
  8
SUNPOU
 10
7764.7209
 20
6149.016114
 30
0.0
 11
7764.7209
 21
6272.016114
 31
0.0
  0
TEXT
  8
SUNPOU
 10
8458.792343
 20
6387.016114
 30
0.0
 40
45.0
  1
1580
  7
K
 72
     1
 11
8547.720915
 21
6387.016114
 31
0.0
  0
INSERT
  8
SUNPOU
  2
ARROWANG
 10
9337.7209
 20
6342.016114
 30
0.0
 41
30.0
 42
30.0
 43
30.0
  0
INSERT
  8
SUNPOU
  2
ARROWANG
 10
7757.7209
 20
6342.016114
 30
0.0
 41
30.0
 42
30.0
 50
180.0
 43
30.0
  0
LINE
  8
SUNPOU
 10
7757.7209
 20
6342.016114
 30
0.0
 11
9337.7209
 21
6342.016114
 31
0.0
  0
LINE
  8
SUNPOU
 10
9337.7209
 20
6172.016114
 30
0.0
 11
9337.7209
 21
6372.016114
 31
0.0
  0
LINE
  8
SUNPOU
 10
7757.7209
 20
6172.016114
 30
0.0
 11
7757.7209
 21
6372.016114
 31
0.0
  0
TEXT
  8
SUNPOU
 10
9292.720915
 20
6487.016114
 30
0.0
 40
45.0
  1
125
  7
K
 72
     1
 11
9360.220915
 21
6487.016114
 31
0.0
  0
INSERT
  8
SUNPOU
  2
ARROWANG
 10
9422.7209
 20
6442.016114
 30
0.0
 41
30.0
 42
30.0
 43
30.0
  0
INSERT
  8
SUNPOU
  2
ARROWANG
 10
9297.7209
 20
6442.016114
 30
0.0
 41
30.0
 42
30.0
 50
180.0
 43
30.0
  0
LINE
  8
SUNPOU
 10
9297.7209
 20
6442.016114
 30
0.0
 11
9422.7209
 21
6442.016114
 31
0.0
  0
LINE
  8
SUNPOU
 10
9422.7209
 20
6172.016114
 30
0.0
 11
9422.7209
 21
6472.016114
 31
0.0
  0
LINE
  8
SUNPOU
 10
9297.7209
 20
6149.016114
 30
0.0
 11
9297.7209
 21
6472.016114
 31
0.0
  0
TEXT
  8
SUNPOU
 10
8458.792343
 20
6487.016114
 30
0.0
 40
45.0
  1
1500
  7
K
 72
     1
 11
8547.720915
 21
6487.016114
 31
0.0
  0
INSERT
  8
SUNPOU
  2
ARROWANG
 10
9297.7209
 20
6442.016114
 30
0.0
 41
30.0
 42
30.0
 43
30.0
  0
INSERT
  8
SUNPOU
  2
ARROWANG
 10
7797.7209
 20
6442.016114
 30
0.0
 41
30.0
 42
30.0
 50
180.0
 43
30.0
  0
LINE
  8
SUNPOU
 10
7797.7209
 20
6442.016114
 30
0.0
 11
9297.7209
 21
6442.016114
 31
0.0
  0
LINE
  8
SUNPOU
 10
7797.7209
 20
6412.016114
 30
0.0
 11
7797.7209
 21
6412.016114
 31
0.0
  0
TEXT
  8
SUNPOU
 10
7671.618781
 20
6487.016114
 30
0.0
 40
45.0
  1
125
  7
K
 72
     1
 11
7739.118781
 21
6487.016114
 31
0.0
  0
INSERT
  8
SUNPOU
  2
ARROWANG
 10
7672.7209
 20
6442.016114
 30
0.0
 41
30.0
 42
30.0
 50
180.0
 43
30.0
  0
INSERT
  8
SUNPOU
  2
ARROWANG
 10
7797.7209
 20
6442.016114
 30
0.0
 41
30.0
 42
30.0
 43
30.0
  0
LINE
  8
SUNPOU
 10
7672.7209
 20
6442.016114
 30
0.0
 11
7797.7209
 21
6442.016114
 31
0.0
  0
LINE
  8
SUNPOU
 10
7797.7209
 20
6469.442966
 30
0.0
 11
7797.7209
 21
6472.016114
 31
0.0
  0
LINE
  8
SUNPOU
 10
7672.7209
 20
6469.442966
 30
0.0
 11
7672.7209
 21
6472.016114
 31
0.0
  0
LINE
  8
SUNPOU
 10
7797.7209
 20
6149.016114
 30
0.0
 11
7797.7209
 21
6472.016114
 31
0.0
  0
LINE
  8
SUNPOU
 10
7672.7209
 20
6172.016114
 30
0.0
 11
7672.7209
 21
6472.016114
 31
0.0
  0
LINE
  8
ITTEN
 10
9231.439334
 20
6042.016114
 30
0.0
 11
9101.439334
 21
6042.016114
 31
0.0
  0
LINE
  8
ITTEN
 10
9166.439334
 20
6107.016114
 30
0.0
 11
9166.439334
 21
5977.016114
 31
0.0
  0
LINE
  8
ITTEN
 10
7994.002467
 20
6042.016114
 30
0.0
 11
7864.002467
 21
6042.016114
 31
0.0
  0
LINE
  8
ITTEN
 10
7929.002467
 20
6107.016114
 30
0.0
 11
7929.002467
 21
5977.016114
 31
0.0
  0
LINE
  8
ITTEN
 10
9231.439334
 20
4442.016114
 30
0.0
 11
9101.439334
 21
4442.016114
 31
0.0
  0
LINE
  8
ITTEN
 10
9166.439334
 20
4507.016114
 30
0.0
 11
9166.439334
 21
4377.016114
 31
0.0
  0
LINE
  8
ITTEN
 10
7994.002467
 20
4442.016114
 30
0.0
 11
7864.002467
 21
4442.016114
 31
0.0
  0
LINE
  8
ITTEN
 10
7929.002467
 20
4507.016114
 30
0.0
 11
7929.002467
 21
4377.016114
 31
0.0
  0
CIRCLE
  8
JISSEN
 10
9166.439334
 20
6042.016114
 30
0.0
 40
15.0
  0
CIRCLE
  8
TENSEN
 10
7929.002467
 20
6042.016114
 30
0.0
 40
15.0
  0
CIRCLE
  8
TENSEN
 10
7929.002467
 20
4442.016114
 30
0.0
 40
15.0
  0
CIRCLE
  8
JISSEN
 10
9166.439334
 20
4442.016114
 30
0.0
 40
15.0
  0
LINE
  8
TENSEN
 10
8547.7209
 20
6119.016114
 30
0.0
 11
9297.7209
 21
6119.016114
 31
0.0
  0
ARC
  8
JISSEN
 10
7917.7209
 20
5977.016114
 30
0.0
 40
10.0
 50
270.0
 51
90.0
  0
LINE
  8
JISSEN
 10
7917.7209
 20
5967.016114
 30
0.0
 11
7797.7209
 21
5967.016114
 31
0.0
  0
LINE
  8
JISSEN
 10
7797.7209
 20
5987.016114
 30
0.0
 11
7917.7209
 21
5987.016114
 31
0.0
  0
LINE
  8
ITTEN
 10
7741.605046
 20
5977.016114
 30
0.0
 11
8097.7209
 21
5977.016114
 31
0.0
  0
ARC
  8
JISSEN
 10
7917.7209
 20
5677.016114
 30
0.0
 40
10.0
 50
270.0
 51
90.0
  0
LINE
  8
JISSEN
 10
7917.7209
 20
5667.016114
 30
0.0
 11
7797.7209
 21
5667.016114
 31
0.0
  0
LINE
  8
JISSEN
 10
7797.7209
 20
5687.016114
 30
0.0
 11
7917.7209
 21
5687.016114
 31
0.0
  0
LINE
  8
ITTEN
 10
7741.605046
 20
5677.016114
 30
0.0
 11
8097.7209
 21
5677.016114
 31
0.0
  0
ARC
  8
JISSEN
 10
7917.7209
 20
5377.016114
 30
0.0
 40
10.0
 50
270.0
 51
90.0
  0
LINE
  8
JISSEN
 10
7917.7209
 20
5367.016114
 30
0.0
 11
7797.7209
 21
5367.016114
 31
0.0
  0
LINE
  8
JISSEN
 10
7797.7209
 20
5387.016114
 30
0.0
 11
7917.7209
 21
5387.016114
 31
0.0
  0
LINE
  8
ITTEN
 10
7741.605046
 20
5377.016114
 30
0.0
 11
8097.7209
 21
5377.016114
 31
0.0
  0
LINE
  8
JISSEN
 10
7757.7209
 20
6142.016114
 30
0.0
 11
9337.7209
 21
6142.016114
 31
0.0
  0
LINE
  8
JISSEN
 10
9336.7209
 20
4342.016114
 30
0.0
 11
8547.7209
 21
4342.016114
 31
0.0
  0
LINE
  8
JISSEN
 10
7797.7209
 20
4327.016114
 30
0.0
 11
9297.7209
 21
4327.016114
 31
0.0
  0
LINE
  8
JISSEN
 10
7797.7209
 20
6119.016114
 30
0.0
 11
8547.7209
 21
6119.016114
 31
0.0
  0
LINE
  8
JISSEN
 10
9336.7209
 20
4342.016114
 30
0.0
 11
9325.7209
 21
4327.016114
 31
0.0
  0
LINE
  8
JISSEN
 10
9337.7209
 20
6142.016114
 30
0.0
 11
9330.7209
 21
6119.016114
 31
0.0
  0
LINE
  8
JISSEN
 10
9325.7209
 20
4327.016114
 30
0.0
 11
9297.7209
 21
4327.016114
 31
0.0
  0
LINE
  8
JISSEN
 10
9422.7209
 20
4342.016114
 30
0.0
 11
9336.7209
 21
4342.016114
 31
0.0
  0
LINE
  8
TENSEN
 10
9297.7209
 20
4327.016114
 30
0.0
 11
9297.7209
 21
6119.016114
 31
0.0
  0
LINE
  8
JISSEN
 10
9330.7209
 20
6119.016114
 30
0.0
 11
9297.7209
 21
6119.016114
 31
0.0
  0
LINE
  8
JISSEN
 10
9422.7209
 20
6142.016114
 30
0.0
 11
9422.7209
 21
4342.016114
 31
0.0
  0
LINE
  8
JISSEN
 10
9422.7209
 20
6142.016114
 30
0.0
 11
9337.7209
 21
6142.016114
 31
0.0
  0
LINE
  8
JISSEN
 10
7797.7209
 20
4327.016114
 30
0.0
 11
7797.7209
 21
6119.016114
 31
0.0
  0
LINE
  8
JISSEN
 10
7672.7209
 20
6142.016114
 30
0.0
 11
7672.7209
 21
4342.016114
 31
0.0
  0
LINE
  8
JISSEN
 10
7769.7209
 20
4327.016114
 30
0.0
 11
7797.7209
 21
4327.016114
 31
0.0
  0
LINE
  8
JISSEN
 10
7758.7209
 20
4342.016114
 30
0.0
 11
7769.7209
 21
4327.016114
 31
0.0
  0
LINE
  8
JISSEN
 10
7672.7209
 20
4342.016114
 30
0.0
 11
7758.7209
 21
4342.016114
 31
0.0
  0
LINE
  8
JISSEN
 10
7672.7209
 20
6142.016114
 30
0.0
 11
7672.7209
 21
6142.016114
 31
0.0
  0
LINE
  8
JISSEN
 10
7764.7209
 20
6119.016114
 30
0.0
 11
7797.7209
 21
6119.016114
 31
0.0
  0
LINE
  8
JISSEN
 10
7757.7209
 20
6142.016114
 30
0.0
 11
7764.7209
 21
6119.016114
 31
0.0
  0
LINE
  8
JISSEN
 10
7672.7209
 20
6142.016114
 30
0.0
 11
7757.7209
 21
6142.016114
 31
0.0
  0
LINE
  8
SUNPOU
 10
7342.7209
 20
4342.016114
 30
0.0
 11
7342.7209
 21
4342.016114
 31
0.0
  0
LINE
  8
SUNPOU
 10
7342.7209
 20
6142.016114
 30
0.0
 11
7342.7209
 21
6142.016114
 31
0.0
  0
INSERT
  8
SUNPOU
  2
ARROWANG
 10
7372.7209
 20
4342.016114
 30
0.0
 41
30.0
 42
30.0
 50
270.0
 43
30.0
  0
LINE
  8
SUNPOU
 10
8197.7209
 20
4327.016114
 30
0.0
 11
8197.7209
 21
4327.016114
 31
0.0
  0
LINE
  8
SUNPOU
 10
8197.7209
 20
6119.016114
 30
0.0
 11
8197.7209
 21
6119.016114
 31
0.0
  0
TEXT
  8
SUNPOU
 10
5682.7209
 20
4987.301829
 30
0.0
 40
45.0
  1
2092
 50
90.0
  7
K
 72
     1
 11
5682.7209
 21
5073.016114
 31
0.0
  0
INSERT
  8
SUNPOU
  2
ARROWANG
 10
5727.7209
 20
6119.016114
 30
0.0
 41
30.0
 42
30.0
 50
90.0
 43
30.0
  0
INSERT
  8
SUNPOU
  2
ARROWANG
 10
5727.7209
 20
4027.016114
 30
0.0
 41
30.0
 42
30.0
 50
270.0
 43
30.0
  0
LINE
  8
SUNPOU
 10
5727.7209
 20
4027.016114
 30
0.0
 11
5727.7209
 21
6119.016114
 31
0.0
  0
LINE
  8
SUNPOU
 10
5697.7209
 20
6119.016114
 30
0.0
 11
5697.7209
 21
6119.016114
 31
0.0
  0
LINE
  8
SUNPOU
 10
5697.7209
 20
4027.016114
 30
0.0
 11
5697.7209
 21
4027.016114
 31
0.0
  0
TEXT
  8
SUNPOU
 10
4827.7209
 20
5006.301829
 30
0.0
 40
45.0
  1
2100
 50
90.0
  7
K
 72
     1
 11
4827.7209
 21
5092.016114
 31
0.0
  0
INSERT
  8
SUNPOU
  2
ARROWANG
 10
4872.7209
 20
6142.016114
 30
0.0
 41
30.0
 42
30.0
 50
90.0
 43
30.0
  0
INSERT
  8
SUNPOU
  2
ARROWANG
 10
4872.7209
 20
4042.016114
 30
0.0
 41
30.0
 42
30.0
 50
270.0
 43
30.0
  0
LINE
  8
SUNPOU
 10
4872.7209
 20
4042.016114
 30
0.0
 11
4872.7209
 21
6142.016114
 31
0.0
  0
LINE
  8
SUNPOU
 10
4842.7209
 20
6142.016114
 30
0.0
 11
4842.7209
 21
6142.016114
 31
0.0
  0
LINE
  8
SUNPOU
 10
4842.7209
 20
4042.016114
 30
0.0
 11
4842.7209
 21
4042.016114
 31
0.0
  0
LINE
  8
JISSEN
 10
5172.7209
 20
6142.016114
 30
0.0
 11
5257.7209
 21
6142.016114
 31
0.0
  0
LINE
  8
JISSEN
 10
5257.7209
 20
6142.016114
 30
0.0
 11
5264.7209
 21
6119.016114
 31
0.0
  0
LINE
  8
JISSEN
 10
5264.7209
 20
6119.016114
 30
0.0
 11
5297.7209
 21
6119.016114
 31
0.0
  0
LINE
  8
JISSEN
 10
5172.7209
 20
6142.016114
 30
0.0
 11
5172.7209
 21
6142.016114
 31
0.0
  0
LINE
  8
JISSEN
 10
5172.7209
 20
4042.016114
 30
0.0
 11
5258.7209
 21
4042.016114
 31
0.0
  0
LINE
  8
JISSEN
 10
5258.7209
 20
4042.016114
 30
0.0
 11
5269.7209
 21
4027.016114
 31
0.0
  0
LINE
  8
JISSEN
 10
5269.7209
 20
4027.016114
 30
0.0
 11
5297.7209
 21
4027.016114
 31
0.0
  0
LINE
  8
JISSEN
 10
5172.7209
 20
6142.016114
 30
0.0
 11
5172.7209
 21
4042.016114
 31
0.0
  0
LINE
  8
JISSEN
 10
5297.7209
 20
4027.016114
 30
0.0
 11
5297.7209
 21
6119.016114
 31
0.0
  0
LINE
  8
JISSEN
 10
6922.7209
 20
6142.016114
 30
0.0
 11
6837.7209
 21
6142.016114
 31
0.0
  0
LINE
  8
JISSEN
 10
6922.7209
 20
6142.016114
 30
0.0
 11
6922.7209
 21
4042.016114
 31
0.0
  0
LINE
  8
JISSEN
 10
6830.7209
 20
6119.016114
 30
0.0
 11
6797.7209
 21
6119.016114
 31
0.0
  0
LINE
  8
TENSEN
 10
6797.7209
 20
4027.016114
 30
0.0
 11
6797.7209
 21
6119.016114
 31
0.0
  0
LINE
  8
JISSEN
 10
6922.7209
 20
4042.016114
 30
0.0
 11
6836.7209
 21
4042.016114
 31
0.0
  0
LINE
  8
JISSEN
 10
6825.7209
 20
4027.016114
 30
0.0
 11
6797.7209
 21
4027.016114
 31
0.0
  0
LINE
  8
JISSEN
 10
6837.7209
 20
6142.016114
 30
0.0
 11
6830.7209
 21
6119.016114
 31
0.0
  0
LINE
  8
JISSEN
 10
6836.7209
 20
4042.016114
 30
0.0
 11
6825.7209
 21
4027.016114
 31
0.0
  0
LINE
  8
JISSEN
 10
5297.7209
 20
6119.016114
 30
0.0
 11
6047.7209
 21
6119.016114
 31
0.0
  0
LINE
  8
JISSEN
 10
5297.7209
 20
4027.016114
 30
0.0
 11
6797.7209
 21
4027.016114
 31
0.0
  0
LINE
  8
JISSEN
 10
6836.7209
 20
4042.016114
 30
0.0
 11
6047.7209
 21
4042.016114
 31
0.0
  0
LINE
  8
JISSEN
 10
5257.7209
 20
6142.016114
 30
0.0
 11
6837.7209
 21
6142.016114
 31
0.0
  0
LINE
  8
ITTEN
 10
5241.605046
 20
5077.016114
 30
0.0
 11
5597.7209
 21
5077.016114
 31
0.0
  0
LINE
  8
JISSEN
 10
5297.7209
 20
5087.016114
 30
0.0
 11
5417.7209
 21
5087.016114
 31
0.0
  0
LINE
  8
JISSEN
 10
5417.7209
 20
5067.016114
 30
0.0
 11
5297.7209
 21
5067.016114
 31
0.0
  0
ARC
  8
JISSEN
 10
5417.7209
 20
5077.016114
 30
0.0
 40
10.0
 50
270.0
 51
90.0
  0
LINE
  8
ITTEN
 10
5241.605046
 20
5377.016114
 30
0.0
 11
5597.7209
 21
5377.016114
 31
0.0
  0
LINE
  8
JISSEN
 10
5297.7209
 20
5387.016114
 30
0.0
 11
5417.7209
 21
5387.016114
 31
0.0
  0
LINE
  8
JISSEN
 10
5417.7209
 20
5367.016114
 30
0.0
 11
5297.7209
 21
5367.016114
 31
0.0
  0
ARC
  8
JISSEN
 10
5417.7209
 20
5377.016114
 30
0.0
 40
10.0
 50
270.0
 51
90.0
  0
LINE
  8
ITTEN
 10
5241.605046
 20
5677.016114
 30
0.0
 11
5597.7209
 21
5677.016114
 31
0.0
  0
LINE
  8
JISSEN
 10
5297.7209
 20
5687.016114
 30
0.0
 11
5417.7209
 21
5687.016114
 31
0.0
  0
LINE
  8
JISSEN
 10
5417.7209
 20
5667.016114
 30
0.0
 11
5297.7209
 21
5667.016114
 31
0.0
  0
ARC
  8
JISSEN
 10
5417.7209
 20
5677.016114
 30
0.0
 40
10.0
 50
270.0
 51
90.0
  0
LINE
  8
ITTEN
 10
5241.605046
 20
5977.016114
 30
0.0
 11
5597.7209
 21
5977.016114
 31
0.0
  0
LINE
  8
JISSEN
 10
5297.7209
 20
5987.016114
 30
0.0
 11
5417.7209
 21
5987.016114
 31
0.0
  0
LINE
  8
JISSEN
 10
5417.7209
 20
5967.016114
 30
0.0
 11
5297.7209
 21
5967.016114
 31
0.0
  0
ARC
  8
JISSEN
 10
5417.7209
 20
5977.016114
 30
0.0
 40
10.0
 50
270.0
 51
90.0
  0
LINE
  8
TENSEN
 10
6047.7209
 20
6119.016114
 30
0.0
 11
6797.7209
 21
6119.016114
 31
0.0
  0
CIRCLE
  8
JISSEN
 10
6666.439334
 20
4142.016114
 30
0.0
 40
15.0
  0
CIRCLE
  8
TENSEN
 10
5429.002467
 20
4142.016114
 30
0.0
 40
15.0
  0
CIRCLE
  8
TENSEN
 10
5429.002467
 20
6042.016114
 30
0.0
 40
15.0
  0
CIRCLE
  8
JISSEN
 10
6666.439334
 20
6042.016114
 30
0.0
 40
15.0
  0
LINE
  8
ITTEN
 10
5429.002467
 20
4207.016114
 30
0.0
 11
5429.002467
 21
4077.016114
 31
0.0
  0
LINE
  8
ITTEN
 10
5494.002467
 20
4142.016114
 30
0.0
 11
5364.002467
 21
4142.016114
 31
0.0
  0
LINE
  8
ITTEN
 10
6666.439334
 20
4207.016114
 30
0.0
 11
6666.439334
 21
4077.016114
 31
0.0
  0
LINE
  8
ITTEN
 10
6731.439334
 20
4142.016114
 30
0.0
 11
6601.439334
 21
4142.016114
 31
0.0
  0
LINE
  8
ITTEN
 10
5429.002467
 20
6107.016114
 30
0.0
 11
5429.002467
 21
5977.016114
 31
0.0
  0
LINE
  8
ITTEN
 10
5494.002467
 20
6042.016114
 30
0.0
 11
5364.002467
 21
6042.016114
 31
0.0
  0
LINE
  8
ITTEN
 10
6666.439334
 20
6107.016114
 30
0.0
 11
6666.439334
 21
5977.016114
 31
0.0
  0
LINE
  8
ITTEN
 10
6731.439334
 20
6042.016114
 30
0.0
 11
6601.439334
 21
6042.016114
 31
0.0
  0
LINE
  8
SUNPOU
 10
5172.7209
 20
6172.016114
 30
0.0
 11
5172.7209
 21
6472.016114
 31
0.0
  0
LINE
  8
SUNPOU
 10
5297.7209
 20
6149.016114
 30
0.0
 11
5297.7209
 21
6472.016114
 31
0.0
  0
LINE
  8
SUNPOU
 10
5172.7209
 20
6469.442966
 30
0.0
 11
5172.7209
 21
6472.016114
 31
0.0
  0
LINE
  8
SUNPOU
 10
5297.7209
 20
6469.442966
 30
0.0
 11
5297.7209
 21
6472.016114
 31
0.0
  0
LINE
  8
SUNPOU
 10
5172.7209
 20
6442.016114
 30
0.0
 11
5297.7209
 21
6442.016114
 31
0.0
  0
INSERT
  8
SUNPOU
  2
ARROWANG
 10
5297.7209
 20
6442.016114
 30
0.0
 41
30.0
 42
30.0
 43
30.0
  0
INSERT
  8
SUNPOU
  2
ARROWANG
 10
5172.7209
 20
6442.016114
 30
0.0
 41
30.0
 42
30.0
 50
180.0
 43
30.0
  0
TEXT
  8
SUNPOU
 10
5171.618781
 20
6487.016114
 30
0.0
 40
45.0
  1
125
  7
K
 72
     1
 11
5239.118781
 21
6487.016114
 31
0.0
  0
LINE
  8
SUNPOU
 10
5297.7209
 20
6412.016114
 30
0.0
 11
5297.7209
 21
6412.016114
 31
0.0
  0
LINE
  8
SUNPOU
 10
5297.7209
 20
6442.016114
 30
0.0
 11
6797.7209
 21
6442.016114
 31
0.0
  0
INSERT
  8
SUNPOU
  2
ARROWANG
 10
5297.7209
 20
6442.016114
 30
0.0
 41
30.0
 42
30.0
 50
180.0
 43
30.0
  0
INSERT
  8
SUNPOU
  2
ARROWANG
 10
6797.7209
 20
6442.016114
 30
0.0
 41
30.0
 42
30.0
 43
30.0
  0
TEXT
  8
SUNPOU
 10
5958.792343
 20
6487.016114
 30
0.0
 40
45.0
  1
1500
  7
K
 72
     1
 11
6047.720915
 21
6487.016114
 31
0.0
  0
LINE
  8
SUNPOU
 10
6797.7209
 20
6149.016114
 30
0.0
 11
6797.7209
 21
6472.016114
 31
0.0
  0
LINE
  8
SUNPOU
 10
6922.7209
 20
6172.016114
 30
0.0
 11
6922.7209
 21
6472.016114
 31
0.0
  0
LINE
  8
SUNPOU
 10
6797.7209
 20
6442.016114
 30
0.0
 11
6922.7209
 21
6442.016114
 31
0.0
  0
INSERT
  8
SUNPOU
  2
ARROWANG
 10
6797.7209
 20
6442.016114
 30
0.0
 41
30.0
 42
30.0
 50
180.0
 43
30.0
  0
INSERT
  8
SUNPOU
  2
ARROWANG
 10
6922.7209
 20
6442.016114
 30
0.0
 41
30.0
 42
30.0
 43
30.0
  0
TEXT
  8
SUNPOU
 10
6792.720915
 20
6487.016114
 30
0.0
 40
45.0
  1
125
  7
K
 72
     1
 11
6860.220915
 21
6487.016114
 31
0.0
  0
LINE
  8
SUNPOU
 10
5257.7209
 20
6172.016114
 30
0.0
 11
5257.7209
 21
6372.016114
 31
0.0
  0
LINE
  8
SUNPOU
 10
6837.7209
 20
6172.016114
 30
0.0
 11
6837.7209
 21
6372.016114
 31
0.0
  0
LINE
  8
SUNPOU
 10
5257.7209
 20
6342.016114
 30
0.0
 11
6837.7209
 21
6342.016114
 31
0.0
  0
INSERT
  8
SUNPOU
  2
ARROWANG
 10
5257.7209
 20
6342.016114
 30
0.0
 41
30.0
 42
30.0
 50
180.0
 43
30.0
  0
INSERT
  8
SUNPOU
  2
ARROWANG
 10
6837.7209
 20
6342.016114
 30
0.0
 41
30.0
 42
30.0
 43
30.0
  0
TEXT
  8
SUNPOU
 10
5958.792343
 20
6387.016114
 30
0.0
 40
45.0
  1
1580
  7
K
 72
     1
 11
6047.720915
 21
6387.016114
 31
0.0
  0
LINE
  8
SUNPOU
 10
5264.7209
 20
6149.016114
 30
0.0
 11
5264.7209
 21
6272.016114
 31
0.0
  0
LINE
  8
SUNPOU
 10
6830.7209
 20
6149.016114
 30
0.0
 11
6830.7209
 21
6272.016114
 31
0.0
  0
LINE
  8
SUNPOU
 10
5264.7209
 20
6242.016114
 30
0.0
 11
6830.7209
 21
6242.016114
 31
0.0
  0
INSERT
  8
SUNPOU
  2
ARROWANG
 10
5264.7209
 20
6242.016114
 30
0.0
 41
30.0
 42
30.0
 50
180.0
 43
30.0
  0
INSERT
  8
SUNPOU
  2
ARROWANG
 10
6830.7209
 20
6242.016114
 30
0.0
 41
30.0
 42
30.0
 43
30.0
  0
TEXT
  8
SUNPOU
 10
5958.792343
 20
6287.016114
 30
0.0
 40
45.0
  1
1566
  7
K
 72
     1
 11
6047.720915
 21
6287.016114
 31
0.0
  0
LINE
  8
SUNPOU
 10
5142.7209
 20
4042.016114
 30
0.0
 11
4842.7209
 21
4042.016114
 31
0.0
  0
LINE
  8
SUNPOU
 10
5142.7209
 20
6142.016114
 30
0.0
 11
4842.7209
 21
6142.016114
 31
0.0
  0
LINE
  8
SUNPOU
 10
5052.7209
 20
6142.016114
 30
0.0
 11
5052.7209
 21
6142.016114
 31
0.0
  0
LINE
  8
SUNPOU
 10
5234.7209
 20
6119.016114
 30
0.0
 11
4992.7209
 21
6119.016114
 31
0.0
  0
LINE
  8
SUNPOU
 10
5052.7209
 20
6142.016114
 30
0.0
 11
5052.7209
 21
6142.016114
 31
0.0
  0
LINE
  8
SUNPOU
 10
5022.7209
 20
6119.016114
 30
0.0
 11
5022.7209
 21
6142.016114
 31
0.0
  0
INSERT
  8
SUNPOU
  2
ARROWANG
 10
5022.7209
 20
6119.016114
 30
0.0
 41
30.0
 42
30.0
 50
90.0
 43
30.0
  0
INSERT
  8
SUNPOU
  2
ARROWANG
 10
5022.7209
 20
6142.016114
 30
0.0
 41
30.0
 42
30.0
 50
270.0
 43
30.0
  0
LINE
  8
SUNPOU
 10
5022.7209
 20
6142.016114
 30
0.0
 11
5022.7209
 21
6241.016114
 31
0.0
  0
LINE
  8
SUNPOU
 10
5022.7209
 20
6119.016114
 30
0.0
 11
5022.720901
 21
6059.016114
 31
0.0
  0
TEXT
  8
SUNPOU
 10
4977.7209
 20
6148.658971
 30
0.0
 40
45.0
  1
23
 50
90.0
  7
K
 72
     1
 11
4977.7209
 21
6191.516114
 31
0.0
  0
LINE
  8
SUNPOU
 10
5239.7209
 20
4027.016114
 30
0.0
 11
4842.7209
 21
4027.016114
 31
0.0
  0
LINE
  8
SUNPOU
 10
4902.7209
 20
4042.016114
 30
0.0
 11
4902.7209
 21
4042.016114
 31
0.0
  0
LINE
  8
SUNPOU
 10
4872.7209
 20
4027.016114
 30
0.0
 11
4872.7209
 21
4042.016114
 31
0.0
  0
INSERT
  8
SUNPOU
  2
ARROWANG
 10
4872.7209
 20
4027.016114
 30
0.0
 41
30.0
 42
30.0
 50
90.0
 43
30.0
  0
INSERT
  8
SUNPOU
  2
ARROWANG
 10
4872.7209
 20
4042.016114
 30
0.0
 41
30.0
 42
30.0
 50
270.0
 43
30.0
  0
TEXT
  8
SUNPOU
 10
4827.7209
 20
3988.444686
 30
0.0
 40
45.0
  1
15
 50
90.0
  7
K
 72
     1
 11
4827.7209
 21
4034.516114
 31
0.0
  0
LINE
  8
SUNPOU
 10
4872.7209
 20
4042.016114
 30
0.0
 11
4872.7209
 21
4102.016114
 31
0.0
  0
LINE
  8
SUNPOU
 10
4872.7209
 20
4027.016114
 30
0.0
 11
4872.7209
 21
3967.016114
 31
0.0
  0
LINE
  8
SUNPOU
 10
6761.439334
 20
6042.016114
 30
0.0
 11
7102.7209
 21
6042.016114
 31
0.0
  0
LINE
  8
SUNPOU
 10
6952.7209
 20
6142.016114
 30
0.0
 11
7102.7209
 21
6142.016114
 31
0.0
  0
LINE
  8
SUNPOU
 10
7072.7209
 20
6042.016114
 30
0.0
 11
7072.7209
 21
6142.016114
 31
0.0
  0
INSERT
  8
SUNPOU
  2
ARROWANG
 10
7072.7209
 20
6042.016114
 30
0.0
 41
30.0
 42
30.0
 50
90.0
 43
30.0
  0
INSERT
  8
SUNPOU
  2
ARROWANG
 10
7072.7209
 20
6142.016114
 30
0.0
 41
30.0
 42
30.0
 50
270.0
 43
30.0
  0
LINE
  8
SUNPOU
 10
7072.7209
 20
6042.016114
 30
0.0
 11
7072.7209
 21
5900.266114
 31
0.0
  0
LINE
  8
SUNPOU
 10
7072.7209
 20
6142.016114
 30
0.0
 11
7072.7209
 21
6202.016114
 31
0.0
  0
TEXT
  8
SUNPOU
 10
7027.7209
 20
5900.266114
 30
0.0
 40
45.0
  1
100
 50
90.0
  7
K
 72
     1
 11
7027.7209
 21
5967.766114
 31
0.0
  0
LINE
  8
SUNPOU
 10
6952.7209
 20
4042.016114
 30
0.0
 11
7102.7209
 21
4042.016114
 31
0.0
  0
LINE
  8
SUNPOU
 10
6761.439334
 20
4142.016114
 30
0.0
 11
7102.7209
 21
4142.016114
 31
0.0
  0
LINE
  8
SUNPOU
 10
7072.7209
 20
4042.016114
 30
0.0
 11
7072.7209
 21
4142.016114
 31
0.0
  0
INSERT
  8
SUNPOU
  2
ARROWANG
 10
7072.7209
 20
4042.016114
 30
0.0
 41
30.0
 42
30.0
 50
90.0
 43
30.0
  0
INSERT
  8
SUNPOU
  2
ARROWANG
 10
7072.7209
 20
4142.016114
 30
0.0
 41
30.0
 42
30.0
 50
270.0
 43
30.0
  0
LINE
  8
SUNPOU
 10
7072.7209
 20
4142.016114
 30
0.0
 11
7072.7209
 21
4283.766114
 31
0.0
  0
LINE
  8
SUNPOU
 10
7072.7209
 20
4042.016114
 30
0.0
 11
7072.720901
 21
3982.016114
 31
0.0
  0
TEXT
  8
SUNPOU
 10
7027.7209
 20
4148.766114
 30
0.0
 40
45.0
  1
100
 50
90.0
  7
K
 72
     1
 11
7027.7209
 21
4216.266114
 31
0.0
  0
LINE
  8
SUNPOU
 10
5258.7209
 20
4012.016114
 30
0.0
 11
5258.7209
 21
3697.016114
 31
0.0
  0
LINE
  8
SUNPOU
 10
6836.7209
 20
4012.016114
 30
0.0
 11
6836.7209
 21
3697.016114
 31
0.0
  0
LINE
  8
SUNPOU
 10
5258.7209
 20
3727.016114
 30
0.0
 11
6836.7209
 21
3727.016114
 31
0.0
  0
INSERT
  8
SUNPOU
  2
ARROWANG
 10
5258.7209
 20
3727.016114
 30
0.0
 41
30.0
 42
30.0
 50
180.0
 43
30.0
  0
INSERT
  8
SUNPOU
  2
ARROWANG
 10
6836.7209
 20
3727.016114
 30
0.0
 41
30.0
 42
30.0
 43
30.0
  0
TEXT
  8
SUNPOU
 10
5958.792343
 20
3772.016114
 30
0.0
 40
45.0
  1
1578
  7
K
 72
     1
 11
6047.720915
 21
3772.016114
 31
0.0
  0
LINE
  8
SUNPOU
 10
5269.7209
 20
3997.016114
 30
0.0
 11
5269.7209
 21
3847.016114
 31
0.0
  0
LINE
  8
SUNPOU
 10
6825.7209
 20
3997.016114
 30
0.0
 11
6825.7209
 21
3847.016114
 31
0.0
  0
LINE
  8
SUNPOU
 10
5269.7209
 20
3877.016114
 30
0.0
 11
6825.7209
 21
3877.016114
 31
0.0
  0
INSERT
  8
SUNPOU
  2
ARROWANG
 10
5269.7209
 20
3877.016114
 30
0.0
 41
30.0
 42
30.0
 50
180.0
 43
30.0
  0
INSERT
  8
SUNPOU
  2
ARROWANG
 10
6825.7209
 20
3877.016114
 30
0.0
 41
30.0
 42
30.0
 43
30.0
  0
TEXT
  8
SUNPOU
 10
5958.792343
 20
3922.016114
 30
0.0
 40
45.0
  1
1556
  7
K
 72
     1
 11
6047.720915
 21
3922.016114
 31
0.0
  0
LINE
  8
SUNPOU
 10
5547.7209
 20
4027.016114
 30
0.0
 11
5547.7209
 21
4027.016114
 31
0.0
  0
LINE
  8
SUNPOU
 10
5547.7209
 20
5077.016114
 30
0.0
 11
5547.7209
 21
5077.016114
 31
0.0
  0
LINE
  8
SUNPOU
 10
5547.7209
 20
5077.016114
 30
0.0
 11
5547.7209
 21
5077.016114
 31
0.0
  0
LINE
  8
SUNPOU
 10
5547.7209
 20
5377.016114
 30
0.0
 11
5547.7209
 21
5377.016114
 31
0.0
  0
LINE
  8
SUNPOU
 10
5547.7209
 20
5377.016114
 30
0.0
 11
5547.7209
 21
5377.016114
 31
0.0
  0
LINE
  8
SUNPOU
 10
5547.7209
 20
5677.016114
 30
0.0
 11
5547.7209
 21
5677.016114
 31
0.0
  0
LINE
  8
SUNPOU
 10
5577.7209
 20
5377.016114
 30
0.0
 11
5577.7209
 21
5677.016114
 31
0.0
  0
INSERT
  8
SUNPOU
  2
ARROWANG
 10
5577.7209
 20
5377.016114
 30
0.0
 41
30.0
 42
30.0
 50
270.0
 43
30.0
  0
INSERT
  8
SUNPOU
  2
ARROWANG
 10
5577.7209
 20
5677.016114
 30
0.0
 41
30.0
 42
30.0
 50
90.0
 43
30.0
  0
TEXT
  8
SUNPOU
 10
5532.7209
 20
5462.7304
 30
0.0
 40
45.0
  1
300
 50
90.0
  7
K
 72
     1
 11
5532.7209
 21
5527.016114
 31
0.0
  0
LINE
  8
SUNPOU
 10
5547.7209
 20
5677.016114
 30
0.0
 11
5547.7209
 21
5677.016114
 31
0.0
  0
LINE
  8
SUNPOU
 10
5547.7209
 20
5977.016114
 30
0.0
 11
5547.7209
 21
5977.016114
 31
0.0
  0
LINE
  8
SUNPOU
 10
5577.7209
 20
5677.016114
 30
0.0
 11
5577.7209
 21
5977.016114
 31
0.0
  0
INSERT
  8
SUNPOU
  2
ARROWANG
 10
5577.7209
 20
5677.016114
 30
0.0
 41
30.0
 42
30.0
 50
270.0
 43
30.0
  0
INSERT
  8
SUNPOU
  2
ARROWANG
 10
5577.7209
 20
5977.016114
 30
0.0
 41
30.0
 42
30.0
 50
90.0
 43
30.0
  0
TEXT
  8
SUNPOU
 10
5532.7209
 20
5762.7304
 30
0.0
 40
45.0
  1
300
 50
90.0
  7
K
 72
     1
 11
5532.7209
 21
5827.016114
 31
0.0
  0
LINE
  8
SUNPOU
 10
5697.7209
 20
4027.016114
 30
0.0
 11
5697.7209
 21
4027.016114
 31
0.0
  0
LINE
  8
SUNPOU
 10
5697.7209
 20
6119.016114
 30
0.0
 11
5697.7209
 21
6119.016114
 31
0.0
  0
LINE
  8
SUNPOU
 10
5727.7209
 20
4027.016114
 30
0.0
 11
5727.7209
 21
6119.016114
 31
0.0
  0
LINE
  8
SUNPOU
 10
6423.601514
 20
3671.036373
 30
0.0
 11
6423.601514
 21
3671.036373
 31
0.0
  0
TEXT
  8
SUNPOU
 10
3183.066597
 20
4837.301829
 30
0.0
 40
45.0
  1
2392
 50
90.0
  7
K
 72
     1
 11
3183.066597
 21
4923.016114
 31
0.0
  0
INSERT
  8
SUNPOU
  2
ARROWANG
 10
3228.066597
 20
6119.016114
 30
0.0
 41
30.0
 42
30.0
 50
90.0
 43
30.0
  0
INSERT
  8
SUNPOU
  2
ARROWANG
 10
3228.066597
 20
3727.016114
 30
0.0
 41
30.0
 42
30.0
 50
270.0
 43
30.0
  0
LINE
  8
SUNPOU
 10
3228.066597
 20
3727.016114
 30
0.0
 11
3228.066597
 21
6119.016114
 31
0.0
  0
LINE
  8
SUNPOU
 10
3198.066597
 20
6119.016114
 30
0.0
 11
3198.066597
 21
6119.016114
 31
0.0
  0
LINE
  8
SUNPOU
 10
3198.066597
 20
3727.016114
 30
0.0
 11
3198.066597
 21
3727.016114
 31
0.0
  0
TEXT
  8
SUNPOU
 10
3033.066597
 20
5762.7304
 30
0.0
 40
45.0
  1
300
 50
90.0
  7
K
 72
     1
 11
3033.066597
 21
5827.016114
 31
0.0
  0
INSERT
  8
SUNPOU
  2
ARROWANG
 10
3078.066597
 20
5977.016114
 30
0.0
 41
30.0
 42
30.0
 50
90.0
 43
30.0
  0
INSERT
  8
SUNPOU
  2
ARROWANG
 10
3078.066597
 20
5677.016114
 30
0.0
 41
30.0
 42
30.0
 50
270.0
 43
30.0
  0
LINE
  8
SUNPOU
 10
3078.066597
 20
5677.016114
 30
0.0
 11
3078.066597
 21
5977.016114
 31
0.0
  0
LINE
  8
SUNPOU
 10
3048.066597
 20
5977.016114
 30
0.0
 11
3048.066597
 21
5977.016114
 31
0.0
  0
LINE
  8
SUNPOU
 10
3048.066597
 20
5677.016114
 30
0.0
 11
3048.066597
 21
5677.016114
 31
0.0
  0
TEXT
  8
SUNPOU
 10
3033.066597
 20
5462.7304
 30
0.0
 40
45.0
  1
300
 50
90.0
  7
K
 72
     1
 11
3033.066597
 21
5527.016114
 31
0.0
  0
INSERT
  8
SUNPOU
  2
ARROWANG
 10
3078.066597
 20
5677.016114
 30
0.0
 41
30.0
 42
30.0
 50
90.0
 43
30.0
  0
INSERT
  8
SUNPOU
  2
ARROWANG
 10
3078.066597
 20
5377.016114
 30
0.0
 41
30.0
 42
30.0
 50
270.0
 43
30.0
  0
LINE
  8
SUNPOU
 10
3078.066597
 20
5377.016114
 30
0.0
 11
3078.066597
 21
5677.016114
 31
0.0
  0
LINE
  8
SUNPOU
 10
3048.066597
 20
5677.016114
 30
0.0
 11
3048.066597
 21
5677.016114
 31
0.0
  0
LINE
  8
SUNPOU
 10
3048.066597
 20
5377.016114
 30
0.0
 11
3048.066597
 21
5377.016114
 31
0.0
  0
TEXT
  8
SUNPOU
 10
3033.066597
 20
5162.7304
 30
0.0
 40
45.0
  1
300
 50
90.0
  7
K
 72
     1
 11
3033.066597
 21
5227.016114
 31
0.0
  0
INSERT
  8
SUNPOU
  2
ARROWANG
 10
3078.066597
 20
5377.016114
 30
0.0
 41
30.0
 42
30.0
 50
90.0
 43
30.0
  0
INSERT
  8
SUNPOU
  2
ARROWANG
 10
3078.066597
 20
5077.016114
 30
0.0
 41
30.0
 42
30.0
 50
270.0
 43
30.0
  0
LINE
  8
SUNPOU
 10
3078.066597
 20
5077.016114
 30
0.0
 11
3078.066597
 21
5377.016114
 31
0.0
  0
LINE
  8
SUNPOU
 10
3048.066597
 20
5377.016114
 30
0.0
 11
3048.066597
 21
5377.016114
 31
0.0
  0
LINE
  8
SUNPOU
 10
3048.066597
 20
5077.016114
 30
0.0
 11
3048.066597
 21
5077.016114
 31
0.0
  0
LINE
  8
SUNPOU
 10
3048.066597
 20
5077.016114
 30
0.0
 11
3048.066597
 21
5077.016114
 31
0.0
  0
LINE
  8
SUNPOU
 10
3048.066597
 20
4777.016114
 30
0.0
 11
3048.066597
 21
4777.016114
 31
0.0
  0
LINE
  8
SUNPOU
 10
3108.066597
 20
4777.016114
 30
0.0
 11
3108.066597
 21
4777.016114
 31
0.0
  0
LINE
  8
SUNPOU
 10
3048.066597
 20
3727.016114
 30
0.0
 11
3048.066597
 21
3727.016114
 31
0.0
  0
TEXT
  8
SUNPOU
 10
3459.13804
 20
3622.016114
 30
0.0
 40
45.0
  1
1556
  7
K
 72
     1
 11
3548.066611
 21
3622.016114
 31
0.0
  0
INSERT
  8
SUNPOU
  2
ARROWANG
 10
4326.066597
 20
3577.016114
 30
0.0
 41
30.0
 42
30.0
 43
30.0
  0
INSERT
  8
SUNPOU
  2
ARROWANG
 10
2770.066597
 20
3577.016114
 30
0.0
 41
30.0
 42
30.0
 50
180.0
 43
30.0
  0
LINE
  8
SUNPOU
 10
2770.066597
 20
3577.016114
 30
0.0
 11
4326.066597
 21
3577.016114
 31
0.0
  0
LINE
  8
SUNPOU
 10
4326.066597
 20
3697.016114
 30
0.0
 11
4326.066597
 21
3547.016114
 31
0.0
  0
LINE
  8
SUNPOU
 10
2770.066597
 20
3697.016114
 30
0.0
 11
2770.066597
 21
3547.016114
 31
0.0
  0
TEXT
  8
SUNPOU
 10
3459.13804
 20
3472.016114
 30
0.0
 40
45.0
  1
1578
  7
K
 72
     1
 11
3548.066611
 21
3472.016114
 31
0.0
  0
INSERT
  8
SUNPOU
  2
ARROWANG
 10
4337.066597
 20
3427.016114
 30
0.0
 41
30.0
 42
30.0
 43
30.0
  0
INSERT
  8
SUNPOU
  2
ARROWANG
 10
2759.066597
 20
3427.016114
 30
0.0
 41
30.0
 42
30.0
 50
180.0
 43
30.0
  0
LINE
  8
SUNPOU
 10
2759.066597
 20
3427.016114
 30
0.0
 11
4337.066597
 21
3427.016114
 31
0.0
  0
LINE
  8
SUNPOU
 10
4337.066597
 20
3712.016114
 30
0.0
 11
4337.066597
 21
3397.016114
 31
0.0
  0
LINE
  8
SUNPOU
 10
2759.066597
 20
3712.016114
 30
0.0
 11
2759.066597
 21
3397.016114
 31
0.0
  0
TEXT
  8
SUNPOU
 10
4528.066597
 20
3848.766114
 30
0.0
 40
45.0
  1
100
 50
90.0
  7
K
 72
     1
 11
4528.066597
 21
3916.266114
 31
0.0
  0
LINE
  8
SUNPOU
 10
4573.066597
 20
3742.016114
 30
0.0
 11
4573.066598
 21
3682.016114
 31
0.0
  0
LINE
  8
SUNPOU
 10
4573.066597
 20
3842.016114
 30
0.0
 11
4573.066597
 21
3983.766114
 31
0.0
  0
INSERT
  8
SUNPOU
  2
ARROWANG
 10
4573.066597
 20
3842.016114
 30
0.0
 41
30.0
 42
30.0
 50
270.0
 43
30.0
  0
INSERT
  8
SUNPOU
  2
ARROWANG
 10
4573.066597
 20
3742.016114
 30
0.0
 41
30.0
 42
30.0
 50
90.0
 43
30.0
  0
LINE
  8
SUNPOU
 10
4573.066597
 20
3742.016114
 30
0.0
 11
4573.066597
 21
3842.016114
 31
0.0
  0
LINE
  8
SUNPOU
 10
4261.78503
 20
3842.016114
 30
0.0
 11
4603.066597
 21
3842.016114
 31
0.0
  0
LINE
  8
SUNPOU
 10
4453.066597
 20
3742.016114
 30
0.0
 11
4603.066597
 21
3742.016114
 31
0.0
  0
TEXT
  8
SUNPOU
 10
4528.066597
 20
5900.266114
 30
0.0
 40
45.0
  1
100
 50
90.0
  7
K
 72
     1
 11
4528.066597
 21
5967.766114
 31
0.0
  0
LINE
  8
SUNPOU
 10
4573.066597
 20
6142.016114
 30
0.0
 11
4573.066597
 21
6202.016114
 31
0.0
  0
LINE
  8
SUNPOU
 10
4573.066597
 20
6042.016114
 30
0.0
 11
4573.066597
 21
5900.266114
 31
0.0
  0
INSERT
  8
SUNPOU
  2
ARROWANG
 10
4573.066597
 20
6142.016114
 30
0.0
 41
30.0
 42
30.0
 50
270.0
 43
30.0
  0
INSERT
  8
SUNPOU
  2
ARROWANG
 10
4573.066597
 20
6042.016114
 30
0.0
 41
30.0
 42
30.0
 50
90.0
 43
30.0
  0
LINE
  8
SUNPOU
 10
4573.066597
 20
6042.016114
 30
0.0
 11
4573.066597
 21
6142.016114
 31
0.0
  0
LINE
  8
SUNPOU
 10
4453.066597
 20
6142.016114
 30
0.0
 11
4603.066597
 21
6142.016114
 31
0.0
  0
LINE
  8
SUNPOU
 10
4261.78503
 20
6042.016114
 30
0.0
 11
4603.066597
 21
6042.016114
 31
0.0
  0
LINE
  8
SUNPOU
 10
2373.066597
 20
3727.016114
 30
0.0
 11
2373.066597
 21
3667.016114
 31
0.0
  0
LINE
  8
SUNPOU
 10
2373.066597
 20
3742.016114
 30
0.0
 11
2373.066597
 21
3802.016114
 31
0.0
  0
TEXT
  8
SUNPOU
 10
2328.066597
 20
3688.444686
 30
0.0
 40
45.0
  1
15
 50
90.0
  7
K
 72
     1
 11
2328.066597
 21
3734.516114
 31
0.0
  0
INSERT
  8
SUNPOU
  2
ARROWANG
 10
2373.066597
 20
3742.016114
 30
0.0
 41
30.0
 42
30.0
 50
270.0
 43
30.0
  0
INSERT
  8
SUNPOU
  2
ARROWANG
 10
2373.066597
 20
3727.016114
 30
0.0
 41
30.0
 42
30.0
 50
90.0
 43
30.0
  0
LINE
  8
SUNPOU
 10
2373.066597
 20
3727.016114
 30
0.0
 11
2373.066597
 21
3742.016114
 31
0.0
  0
LINE
  8
SUNPOU
 10
2403.066597
 20
3742.016114
 30
0.0
 11
2403.066597
 21
3742.016114
 31
0.0
  0
LINE
  8
SUNPOU
 10
2740.066597
 20
3727.016114
 30
0.0
 11
2343.066597
 21
3727.016114
 31
0.0
  0
TEXT
  8
SUNPOU
 10
2478.066597
 20
6148.658971
 30
0.0
 40
45.0
  1
23
 50
90.0
  7
K
 72
     1
 11
2478.066597
 21
6191.516114
 31
0.0
  0
LINE
  8
SUNPOU
 10
2523.066597
 20
6119.016114
 30
0.0
 11
2523.066598
 21
6059.016114
 31
0.0
  0
LINE
  8
SUNPOU
 10
2523.066597
 20
6142.016114
 30
0.0
 11
2523.066597
 21
6241.016114
 31
0.0
  0
INSERT
  8
SUNPOU
  2
ARROWANG
 10
2523.066597
 20
6142.016114
 30
0.0
 41
30.0
 42
30.0
 50
270.0
 43
30.0
  0
INSERT
  8
SUNPOU
  2
ARROWANG
 10
2523.066597
 20
6119.016114
 30
0.0
 41
30.0
 42
30.0
 50
90.0
 43
30.0
  0
LINE
  8
SUNPOU
 10
2523.066597
 20
6119.016114
 30
0.0
 11
2523.066597
 21
6142.016114
 31
0.0
  0
LINE
  8
SUNPOU
 10
2553.066597
 20
6142.016114
 30
0.0
 11
2553.066597
 21
6142.016114
 31
0.0
  0
LINE
  8
SUNPOU
 10
2735.066597
 20
6119.016114
 30
0.0
 11
2493.066597
 21
6119.016114
 31
0.0
  0
LINE
  8
SUNPOU
 10
2553.066597
 20
6142.016114
 30
0.0
 11
2553.066597
 21
6142.016114
 31
0.0
  0
TEXT
  8
SUNPOU
 10
2328.066597
 20
4856.301829
 30
0.0
 40
45.0
  1
2400
 50
90.0
  7
K
 72
     1
 11
2328.066597
 21
4942.016114
 31
0.0
  0
INSERT
  8
SUNPOU
  2
ARROWANG
 10
2373.066597
 20
6142.016114
 30
0.0
 41
30.0
 42
30.0
 50
90.0
 43
30.0
  0
INSERT
  8
SUNPOU
  2
ARROWANG
 10
2373.066597
 20
3742.016114
 30
0.0
 41
30.0
 42
30.0
 50
270.0
 43
30.0
  0
LINE
  8
SUNPOU
 10
2373.066597
 20
3742.016114
 30
0.0
 11
2373.066597
 21
6142.016114
 31
0.0
  0
LINE
  8
SUNPOU
 10
2643.066597
 20
6142.016114
 30
0.0
 11
2343.066597
 21
6142.016114
 31
0.0
  0
LINE
  8
SUNPOU
 10
2643.066597
 20
3742.016114
 30
0.0
 11
2343.066597
 21
3742.016114
 31
0.0
  0
LINE
  8
ITTEN
 10
3548.066597
 20
6221.182349
 30
0.0
 11
3548.066597
 21
3677.760345
 31
0.0
  0
TEXT
  8
SUNPOU
 10
3459.13804
 20
6287.016114
 30
0.0
 40
45.0
  1
1566
  7
K
 72
     1
 11
3548.066611
 21
6287.016114
 31
0.0
  0
INSERT
  8
SUNPOU
  2
ARROWANG
 10
4331.066597
 20
6242.016114
 30
0.0
 41
30.0
 42
30.0
 43
30.0
  0
INSERT
  8
SUNPOU
  2
ARROWANG
 10
2765.066597
 20
6242.016114
 30
0.0
 41
30.0
 42
30.0
 50
180.0
 43
30.0
  0
LINE
  8
SUNPOU
 10
2765.066597
 20
6242.016114
 30
0.0
 11
4331.066597
 21
6242.016114
 31
0.0
  0
LINE
  8
SUNPOU
 10
4331.066597
 20
6149.016114
 30
0.0
 11
4331.066597
 21
6272.016114
 31
0.0
  0
LINE
  8
SUNPOU
 10
2765.066597
 20
6149.016114
 30
0.0
 11
2765.066597
 21
6272.016114
 31
0.0
  0
TEXT
  8
SUNPOU
 10
3459.13804
 20
6387.016114
 30
0.0
 40
45.0
  1
1580
  7
K
 72
     1
 11
3548.066611
 21
6387.016114
 31
0.0
  0
INSERT
  8
SUNPOU
  2
ARROWANG
 10
4338.066597
 20
6342.016114
 30
0.0
 41
30.0
 42
30.0
 43
30.0
  0
INSERT
  8
SUNPOU
  2
ARROWANG
 10
2758.066597
 20
6342.016114
 30
0.0
 41
30.0
 42
30.0
 50
180.0
 43
30.0
  0
LINE
  8
SUNPOU
 10
2758.066597
 20
6342.016114
 30
0.0
 11
4338.066597
 21
6342.016114
 31
0.0
  0
LINE
  8
SUNPOU
 10
4338.066597
 20
6172.016114
 30
0.0
 11
4338.066597
 21
6372.016114
 31
0.0
  0
LINE
  8
SUNPOU
 10
2758.066597
 20
6172.016114
 30
0.0
 11
2758.066597
 21
6372.016114
 31
0.0
  0
TEXT
  8
SUNPOU
 10
4293.066611
 20
6487.016114
 30
0.0
 40
45.0
  1
125
  7
K
 72
     1
 11
4360.566611
 21
6487.016114
 31
0.0
  0
INSERT
  8
SUNPOU
  2
ARROWANG
 10
4423.066597
 20
6442.016114
 30
0.0
 41
30.0
 42
30.0
 43
30.0
  0
INSERT
  8
SUNPOU
  2
ARROWANG
 10
4298.066597
 20
6442.016114
 30
0.0
 41
30.0
 42
30.0
 50
180.0
 43
30.0
  0
LINE
  8
SUNPOU
 10
4298.066597
 20
6442.016114
 30
0.0
 11
4423.066597
 21
6442.016114
 31
0.0
  0
LINE
  8
SUNPOU
 10
4423.066597
 20
6172.016114
 30
0.0
 11
4423.066597
 21
6472.016114
 31
0.0
  0
LINE
  8
SUNPOU
 10
4298.066597
 20
6149.016114
 30
0.0
 11
4298.066597
 21
6472.016114
 31
0.0
  0
TEXT
  8
SUNPOU
 10
3459.13804
 20
6487.016114
 30
0.0
 40
45.0
  1
1500
  7
K
 72
     1
 11
3548.066611
 21
6487.016114
 31
0.0
  0
INSERT
  8
SUNPOU
  2
ARROWANG
 10
4298.066597
 20
6442.016114
 30
0.0
 41
30.0
 42
30.0
 43
30.0
  0
INSERT
  8
SUNPOU
  2
ARROWANG
 10
2798.066597
 20
6442.016114
 30
0.0
 41
30.0
 42
30.0
 50
180.0
 43
30.0
  0
LINE
  8
SUNPOU
 10
2798.066597
 20
6442.016114
 30
0.0
 11
4298.066597
 21
6442.016114
 31
0.0
  0
LINE
  8
SUNPOU
 10
2798.066597
 20
6412.016114
 30
0.0
 11
2798.066597
 21
6412.016114
 31
0.0
  0
TEXT
  8
SUNPOU
 10
2671.964478
 20
6487.016114
 30
0.0
 40
45.0
  1
125
  7
K
 72
     1
 11
2739.464478
 21
6487.016114
 31
0.0
  0
INSERT
  8
SUNPOU
  2
ARROWANG
 10
2673.066597
 20
6442.016114
 30
0.0
 41
30.0
 42
30.0
 50
180.0
 43
30.0
  0
INSERT
  8
SUNPOU
  2
ARROWANG
 10
2798.066597
 20
6442.016114
 30
0.0
 41
30.0
 42
30.0
 43
30.0
  0
LINE
  8
SUNPOU
 10
2673.066597
 20
6442.016114
 30
0.0
 11
2798.066597
 21
6442.016114
 31
0.0
  0
LINE
  8
SUNPOU
 10
2798.066597
 20
6469.442966
 30
0.0
 11
2798.066597
 21
6472.016114
 31
0.0
  0
LINE
  8
SUNPOU
 10
2673.066597
 20
6469.442966
 30
0.0
 11
2673.066597
 21
6472.016114
 31
0.0
  0
LINE
  8
SUNPOU
 10
2798.066597
 20
6149.016114
 30
0.0
 11
2798.066597
 21
6472.016114
 31
0.0
  0
LINE
  8
SUNPOU
 10
2673.066597
 20
6172.016114
 30
0.0
 11
2673.066597
 21
6472.016114
 31
0.0
  0
ARC
  8
JISSEN
 10
2898.066589
 20
2307.016114
 30
0.0
 40
30.0
 50
0.0
 51
90.0
  0
ARC
  8
JISSEN
 10
2898.066589
 20
1947.016114
 30
0.0
 40
30.0
 50
270.0
 51
0.0
  0
ARC
  8
JISSEN
 10
2888.066589
 20
1957.016114
 30
0.0
 40
20.0
 50
270.0
 51
0.0
  0
ARC
  8
JISSEN
 10
2888.066589
 20
2297.016114
 30
0.0
 40
20.0
 50
0.0
 51
90.0
  0
LINE
  8
JISSEN
 10
2888.066589
 20
2317.016114
 30
0.0
 11
2822.532311
 21
2317.016114
 31
0.0
  0
LINE
  8
JISSEN
 10
2908.066589
 20
1957.016114
 30
0.0
 11
2908.066589
 21
2297.016114
 31
0.0
  0
LINE
  8
JISSEN
 10
2822.532311
 20
1937.016114
 30
0.0
 11
2888.066589
 21
1937.016114
 31
0.0
  0
LINE
  8
JISSEN
 10
2898.066589
 20
1917.016114
 30
0.0
 11
2828.066597
 21
1917.016114
 31
0.0
  0
LINE
  8
JISSEN
 10
2928.066589
 20
2307.016114
 30
0.0
 11
2928.066589
 21
1947.016114
 31
0.0
  0
LINE
  8
JISSEN
 10
2828.066597
 20
2337.016114
 30
0.0
 11
2898.066589
 21
2337.016114
 31
0.0
  0
LINE
  8
ITTEN
 10
4231.78503
 20
6042.016114
 30
0.0
 11
4101.78503
 21
6042.016114
 31
0.0
  0
LINE
  8
ITTEN
 10
4166.78503
 20
6107.016114
 30
0.0
 11
4166.78503
 21
5977.016114
 31
0.0
  0
LINE
  8
ITTEN
 10
2994.348163
 20
6042.016114
 30
0.0
 11
2864.348163
 21
6042.016114
 31
0.0
  0
LINE
  8
ITTEN
 10
2929.348163
 20
6107.016114
 30
0.0
 11
2929.348163
 21
5977.016114
 31
0.0
  0
LINE
  8
ITTEN
 10
4231.78503
 20
3842.016114
 30
0.0
 11
4101.78503
 21
3842.016114
 31
0.0
  0
LINE
  8
ITTEN
 10
4166.78503
 20
3907.016114
 30
0.0
 11
4166.78503
 21
3777.016114
 31
0.0
  0
LINE
  8
ITTEN
 10
2994.348163
 20
3842.016114
 30
0.0
 11
2864.348163
 21
3842.016114
 31
0.0
  0
LINE
  8
ITTEN
 10
2929.348163
 20
3907.016114
 30
0.0
 11
2929.348163
 21
3777.016114
 31
0.0
  0
LINE
  8
TENSEN
 10
4159.673555
 20
2752.765208
 30
0.0
 11
4124.358623
 21
2717.450277
 31
0.0
  0
LINE
  8
TENSEN
 10
4124.358623
 20
2717.450277
 30
0.0
 11
4138.500759
 21
2703.308141
 31
0.0
  0
LINE
  8
TENSEN
 10
4138.500759
 20
2703.308141
 30
0.0
 11
4173.81569
 21
2738.623073
 31
0.0
  0
LINE
  8
TENSEN
 10
2971.77457
 20
2717.450277
 30
0.0
 11
2936.459638
 21
2752.765208
 31
0.0
  0
LINE
  8
TENSEN
 10
2957.632434
 20
2703.308141
 30
0.0
 11
2971.77457
 21
2717.450277
 31
0.0
  0
LINE
  8
TENSEN
 10
2922.317503
 20
2738.623073
 30
0.0
 11
2957.632434
 21
2703.308141
 31
0.0
  0
LINE
  8
TENSEN
 10
4138.500759
 20
1550.724088
 30
0.0
 11
4173.81569
 21
1515.409156
 31
0.0
  0
LINE
  8
TENSEN
 10
4124.358623
 20
1536.581952
 30
0.0
 11
4138.500759
 21
1550.724088
 31
0.0
  0
LINE
  8
TENSEN
 10
4159.673555
 20
1501.26702
 30
0.0
 11
4124.358623
 21
1536.581952
 31
0.0
  0
LINE
  8
TENSEN
 10
2971.77457
 20
1536.581952
 30
0.0
 11
2936.459638
 21
1501.26702
 31
0.0
  0
LINE
  8
TENSEN
 10
2957.632434
 20
1550.724088
 30
0.0
 11
2971.77457
 21
1536.581952
 31
0.0
  0
LINE
  8
TENSEN
 10
2922.317503
 20
1515.409156
 30
0.0
 11
2957.632434
 21
1550.724088
 31
0.0
  0
CIRCLE
  8
JISSEN
 10
4166.78503
 20
6042.016114
 30
0.0
 40
15.0
  0
CIRCLE
  8
TENSEN
 10
2929.348163
 20
6042.016114
 30
0.0
 40
15.0
  0
CIRCLE
  8
TENSEN
 10
2929.348163
 20
3842.016114
 30
0.0
 40
15.0
  0
CIRCLE
  8
JISSEN
 10
4166.78503
 20
3842.016114
 30
0.0
 40
15.0
  0
LINE
  8
SAISEN
 10
4048.302198
 20
2627.251716
 30
0.0
 11
4237.495708
 21
2816.445226
 31
0.0
  0
LINE
  8
SAISEN
 10
4048.302198
 20
1626.780512
 30
0.0
 11
4237.495708
 21
1437.587003
 31
0.0
  0
LINE
  8
SAISEN
 10
2858.637485
 20
2816.445226
 30
0.0
 11
3047.860391
 21
2627.22232
 31
0.0
  0
LINE
  8
SAISEN
 10
2858.637485
 20
1437.587003
 30
0.0
 11
3047.830995
 21
1626.780512
 31
0.0
  0
POINT
  8
SUNPOU
 10
3549.066597
 20
2127.016114
 30
0.0
  0
POINT
  8
SUNPOU
 10
3549.066597
 20
2127.016114
 30
0.0
  0
POINT
  8
SUNPOU
 10
3549.066597
 20
2127.016114
 30
0.0
  0
POINT
  8
SUNPOU
 10
3549.066597
 20
2127.016114
 30
0.0
  0
POINT
  8
SUNPOU
 10
3549.066597
 20
2127.016114
 30
0.0
  0
LINE
  8
ITTEN
 10
4523.066597
 20
2127.016114
 30
0.0
 11
2573.066597
 21
2127.016114
 31
0.0
  0
CIRCLE
  8
SUNPOU
 10
3548.066597
 20
2127.016114
 30
0.0
 40
783.0
  0
CIRCLE
  8
JISSEN
 10
3548.066597
 20
2127.016114
 30
0.0
 40
790.0
  0
CIRCLE
  8
JISSEN
 10
3548.066597
 20
2127.016114
 30
0.0
 40
750.0
  0
CIRCLE
  8
JISSEN
 10
3548.066597
 20
2127.016114
 30
0.0
 40
875.0
  0
LINE
  8
TENSEN
 10
3548.066597
 20
6119.016114
 30
0.0
 11
4298.066597
 21
6119.016114
 31
0.0
  0
ARC
  8
JISSEN
 10
2918.066597
 20
5977.016114
 30
0.0
 40
10.0
 50
270.0
 51
90.0
  0
LINE
  8
JISSEN
 10
2918.066597
 20
5967.016114
 30
0.0
 11
2798.066597
 21
5967.016114
 31
0.0
  0
LINE
  8
JISSEN
 10
2798.066597
 20
5987.016114
 30
0.0
 11
2918.066597
 21
5987.016114
 31
0.0
  0
LINE
  8
ITTEN
 10
2741.950742
 20
5977.016114
 30
0.0
 11
3098.066597
 21
5977.016114
 31
0.0
  0
ARC
  8
JISSEN
 10
2918.066597
 20
5677.016114
 30
0.0
 40
10.0
 50
270.0
 51
90.0
  0
LINE
  8
JISSEN
 10
2918.066597
 20
5667.016114
 30
0.0
 11
2798.066597
 21
5667.016114
 31
0.0
  0
LINE
  8
JISSEN
 10
2798.066597
 20
5687.016114
 30
0.0
 11
2918.066597
 21
5687.016114
 31
0.0
  0
LINE
  8
ITTEN
 10
2741.950742
 20
5677.016114
 30
0.0
 11
3098.066597
 21
5677.016114
 31
0.0
  0
ARC
  8
JISSEN
 10
2918.066597
 20
5377.016114
 30
0.0
 40
10.0
 50
270.0
 51
90.0
  0
LINE
  8
JISSEN
 10
2918.066597
 20
5367.016114
 30
0.0
 11
2798.066597
 21
5367.016114
 31
0.0
  0
LINE
  8
JISSEN
 10
2798.066597
 20
5387.016114
 30
0.0
 11
2918.066597
 21
5387.016114
 31
0.0
  0
LINE
  8
ITTEN
 10
2741.950742
 20
5377.016114
 30
0.0
 11
3098.066597
 21
5377.016114
 31
0.0
  0
ARC
  8
JISSEN
 10
2918.066597
 20
5077.016114
 30
0.0
 40
10.0
 50
270.0
 51
90.0
  0
LINE
  8
JISSEN
 10
2918.066597
 20
5067.016114
 30
0.0
 11
2798.066597
 21
5067.016114
 31
0.0
  0
LINE
  8
JISSEN
 10
2798.066597
 20
5087.016114
 30
0.0
 11
2918.066597
 21
5087.016114
 31
0.0
  0
LINE
  8
ITTEN
 10
2741.950742
 20
5077.016114
 30
0.0
 11
3098.066597
 21
5077.016114
 31
0.0
  0
ARC
  8
JISSEN
 10
2918.066597
 20
4777.016114
 30
0.0
 40
10.0
 50
270.0
 51
90.0
  0
LINE
  8
JISSEN
 10
2918.066597
 20
4767.016114
 30
0.0
 11
2798.066597
 21
4767.016114
 31
0.0
  0
LINE
  8
JISSEN
 10
2798.066597
 20
4787.016114
 30
0.0
 11
2918.066597
 21
4787.016114
 31
0.0
  0
LINE
  8
ITTEN
 10
2741.950742
 20
4777.016114
 30
0.0
 11
3098.066597
 21
4777.016114
 31
0.0
  0
LINE
  8
JISSEN
 10
2758.066597
 20
6142.016114
 30
0.0
 11
4338.066597
 21
6142.016114
 31
0.0
  0
LINE
  8
JISSEN
 10
4337.066597
 20
3742.016114
 30
0.0
 11
3548.066597
 21
3742.016114
 31
0.0
  0
LINE
  8
JISSEN
 10
2798.066597
 20
3727.016114
 30
0.0
 11
4298.066597
 21
3727.016114
 31
0.0
  0
LINE
  8
JISSEN
 10
2798.066597
 20
6119.016114
 30
0.0
 11
3548.066597
 21
6119.016114
 31
0.0
  0
LINE
  8
JISSEN
 10
4337.066597
 20
3742.016114
 30
0.0
 11
4326.066597
 21
3727.016114
 31
0.0
  0
LINE
  8
JISSEN
 10
4338.066597
 20
6142.016114
 30
0.0
 11
4331.066597
 21
6119.016114
 31
0.0
  0
LINE
  8
JISSEN
 10
4326.066597
 20
3727.016114
 30
0.0
 11
4298.066597
 21
3727.016114
 31
0.0
  0
LINE
  8
JISSEN
 10
4423.066597
 20
3742.016114
 30
0.0
 11
4337.066597
 21
3742.016114
 31
0.0
  0
LINE
  8
TENSEN
 10
4298.066597
 20
3727.016114
 30
0.0
 11
4298.066597
 21
6119.016114
 31
0.0
  0
LINE
  8
JISSEN
 10
4331.066597
 20
6119.016114
 30
0.0
 11
4298.066597
 21
6119.016114
 31
0.0
  0
LINE
  8
JISSEN
 10
4423.066597
 20
6142.016114
 30
0.0
 11
4423.066597
 21
3742.016114
 31
0.0
  0
LINE
  8
JISSEN
 10
4423.066597
 20
6142.016114
 30
0.0
 11
4338.066597
 21
6142.016114
 31
0.0
  0
LINE
  8
JISSEN
 10
2798.066597
 20
3727.016114
 30
0.0
 11
2798.066597
 21
6119.016114
 31
0.0
  0
LINE
  8
JISSEN
 10
2673.066597
 20
6142.016114
 30
0.0
 11
2673.066597
 21
3742.016114
 31
0.0
  0
LINE
  8
JISSEN
 10
2770.066597
 20
3727.016114
 30
0.0
 11
2798.066597
 21
3727.016114
 31
0.0
  0
LINE
  8
JISSEN
 10
2759.066597
 20
3742.016114
 30
0.0
 11
2770.066597
 21
3727.016114
 31
0.0
  0
LINE
  8
JISSEN
 10
2673.066597
 20
3742.016114
 30
0.0
 11
2759.066597
 21
3742.016114
 31
0.0
  0
LINE
  8
JISSEN
 10
2673.066597
 20
6142.016114
 30
0.0
 11
2673.066597
 21
6142.016114
 31
0.0
  0
LINE
  8
JISSEN
 10
2765.066597
 20
6119.016114
 30
0.0
 11
2798.066597
 21
6119.016114
 31
0.0
  0
LINE
  8
JISSEN
 10
2758.066597
 20
6142.016114
 30
0.0
 11
2765.066597
 21
6119.016114
 31
0.0
  0
ARC
  8
TENSEN
 10
6047.7209
 20
2143.195997
 30
0.0
 40
500.0
 50
270.0
 51
90.0
  0
ARC
  8
JISSEN
 10
6047.7209
 20
2143.195997
 30
0.0
 40
500.0
 50
90.0
 51
270.0
  0
LINE
  8
SUNPOU
 10
5547.7209
 20
2577.016114
 30
0.0
 11
5547.7209
 21
2577.016114
 31
0.0
  0
LINE
  8
SUNPOU
 10
5547.7209
 20
2719.016114
 30
0.0
 11
5547.7209
 21
2719.016114
 31
0.0
  0
LINE
  8
SUNPOU
 10
5547.7209
 20
2577.016114
 30
0.0
 11
5547.7209
 21
2577.016114
 31
0.0
  0
LINE
  8
SUNPOU
 10
5457.7209
 20
2727.016114
 30
0.0
 11
5607.7209
 21
2727.016114
 31
0.0
  0
LINE
  8
SUNPOU
 10
5577.7209
 20
2577.016114
 30
0.0
 11
5577.7209
 21
2727.016114
 31
0.0
  0
INSERT
  8
SUNPOU
  2
ARROWANG
 10
5577.7209
 20
2577.016114
 30
0.0
 41
30.0
 42
30.0
 50
270.0
 43
30.0
  0
INSERT
  8
SUNPOU
  2
ARROWANG
 10
5577.7209
 20
2727.016114
 30
0.0
 41
30.0
 42
30.0
 50
90.0
 43
30.0
  0
TEXT
  8
SUNPOU
 10
5532.7209
 20
2584.516114
 30
0.0
 40
45.0
  1
150
 50
90.0
  7
K
 72
     1
 11
5532.7209
 21
2652.016114
 31
0.0
  0
ARC
  8
JISSEN
 10
3547.7209
 20
4517.016114
 30
0.0
 40
675.000089
 50
89.970656
 51
270.0
  0
ARC
  8
TENSEN
 10
3547.7209
 20
4517.016114
 30
0.0
 40
675.000089
 50
269.970656
 51
89.970656
  0
LINE
  8
SUNPOU
 10
3048.066597
 20
5977.016114
 30
0.0
 11
3048.066597
 21
5977.016114
 31
0.0
  0
LINE
  8
SUNPOU
 10
2958.066381
 20
6126.983317
 30
0.0
 11
3108.066597
 21
6126.983317
 31
0.0
  0
LINE
  8
SUNPOU
 10
3078.066597
 20
5977.016114
 30
0.0
 11
3078.066597
 21
6126.983317
 31
0.0
  0
INSERT
  8
SUNPOU
  2
ARROWANG
 10
3078.066597
 20
5977.016114
 30
0.0
 41
30.0
 42
30.0
 50
270.0
 43
30.0
  0
INSERT
  8
SUNPOU
  2
ARROWANG
 10
3078.066597
 20
6126.983317
 30
0.0
 41
30.0
 42
30.0
 50
90.0
 43
30.0
  0
TEXT
  8
SUNPOU
 10
3033.066597
 20
5984.499716
 30
0.0
 40
45.0
  1
150
 50
90.0
  7
K
 72
     1
 11
3033.066597
 21
6051.999716
 31
0.0
  0
ARC
  8
JISSEN
 10
6047.7209
 20
4817.016114
 30
0.0
 40
675.0
 50
90.0
 51
270.0
  0
ARC
  8
TENSEN
 10
6047.7209
 20
4142.016114
 30
0.0
 40
0.0
 50
270.0
 51
0.0
  0
ARC
  8
TENSEN
 10
6047.7209
 20
4817.016114
 30
0.0
 40
675.0
 50
270.0
 51
90.0
  0
LINE
  8
SUNPOU
 10
5547.7209
 20
5977.016114
 30
0.0
 11
5547.7209
 21
5977.016114
 31
0.0
  0
LINE
  8
SUNPOU
 10
5457.7209
 20
6127.016114
 30
0.0
 11
5607.7209
 21
6127.016114
 31
0.0
  0
LINE
  8
SUNPOU
 10
5577.7209
 20
5977.016114
 30
0.0
 11
5577.7209
 21
6127.016114
 31
0.0
  0
INSERT
  8
SUNPOU
  2
ARROWANG
 10
5577.7209
 20
5977.016114
 30
0.0
 41
30.0
 42
30.0
 50
270.0
 43
30.0
  0
INSERT
  8
SUNPOU
  2
ARROWANG
 10
5577.7209
 20
6127.016114
 30
0.0
 41
30.0
 42
30.0
 50
90.0
 43
30.0
  0
TEXT
  8
SUNPOU
 10
5532.7209
 20
5984.516114
 30
0.0
 40
45.0
  1
150
 50
90.0
  7
K
 72
     1
 11
5532.7209
 21
6052.016114
 31
0.0
  0
ARC
  8
JISSEN
 10
8547.7209
 20
5117.016114
 30
0.0
 40
675.0
 50
90.0
 51
270.0
  0
ARC
  8
TENSEN
 10
8547.7209
 20
5117.016114
 30
0.0
 40
675.0
 50
270.0
 51
90.0
  0
LINE
  8
SUNPOU
 10
8047.7209
 20
5977.016114
 30
0.0
 11
8047.7209
 21
5977.016114
 31
0.0
  0
LINE
  8
SUNPOU
 10
7957.7209
 20
6127.016114
 30
0.0
 11
8107.7209
 21
6127.016114
 31
0.0
  0
LINE
  8
SUNPOU
 10
8077.7209
 20
5977.016114
 30
0.0
 11
8077.7209
 21
6127.016114
 31
0.0
  0
INSERT
  8
SUNPOU
  2
ARROWANG
 10
8077.7209
 20
5977.016114
 30
0.0
 41
30.0
 42
30.0
 50
270.0
 43
30.0
  0
INSERT
  8
SUNPOU
  2
ARROWANG
 10
8077.7209
 20
6127.016114
 30
0.0
 41
30.0
 42
30.0
 50
90.0
 43
30.0
  0
TEXT
  8
SUNPOU
 10
8032.7209
 20
5984.516114
 30
0.0
 40
45.0
  1
150
 50
90.0
  7
K
 72
     1
 11
8032.7209
 21
6052.016114
 31
0.0
  0
LINE
  8
SUNPOU
 10
8197.7209
 20
4327.016114
 30
0.0
 11
8197.7209
 21
4327.016114
 31
0.0
  0
LINE
  8
SUNPOU
 10
8197.7209
 20
6119.016114
 30
0.0
 11
8197.7209
 21
6119.016114
 31
0.0
  0
LINE
  8
SUNPOU
 10
8227.7209
 20
4327.016114
 30
0.0
 11
8227.7209
 21
6119.016114
 31
0.0
  0
INSERT
  8
SUNPOU
  2
ARROWANG
 10
8227.7209
 20
4327.016114
 30
0.0
 41
30.0
 42
30.0
 50
270.0
 43
30.0
  0
INSERT
  8
SUNPOU
  2
ARROWANG
 10
8227.7209
 20
6119.016114
 30
0.0
 41
30.0
 42
30.0
 50
90.0
 43
30.0
  0
TEXT
  8
SUNPOU
 10
8182.7209
 20
5134.087543
 30
0.0
 40
45.0
  1
1792
 50
90.0
  7
K
 72
     1
 11
8182.7209
 21
5223.016114
 31
0.0
  0
LINE
  8
SUNPOU
 10
8047.7209
 20
5377.016114
 30
0.0
 11
8047.287398
 21
5377.016114
 31
0.0
  0
LINE
  8
SUNPOU
 10
8047.7209
 20
5677.016114
 30
0.0
 11
8047.287398
 21
5677.016114
 31
0.0
  0
LINE
  8
SUNPOU
 10
8077.287398
 20
5377.016114
 30
0.0
 11
8077.287398
 21
5677.016114
 31
0.0
  0
INSERT
  8
SUNPOU
  2
ARROWANG
 10
8077.287398
 20
5377.016114
 30
0.0
 41
30.0
 42
30.0
 50
270.0
 43
30.0
  0
INSERT
  8
SUNPOU
  2
ARROWANG
 10
8077.287398
 20
5677.016114
 30
0.0
 41
30.0
 42
30.0
 50
90.0
 43
30.0
  0
TEXT
  8
SUNPOU
 10
8032.287398
 20
5536.793743
 30
0.0
 40
45.0
  1
300
 50
90.0
  7
K
 72
     1
 11
8032.287398
 21
5601.079457
 31
0.0
  0
LINE
  8
SUNPOU
 10
5607.7209
 20
5077.016114
 30
0.0
 11
5608.068849
 21
5077.016114
 31
0.0
  0
LINE
  8
SUNPOU
 10
5607.7209
 20
5377.016114
 30
0.0
 11
5608.068849
 21
5377.016114
 31
0.0
  0
LINE
  8
SUNPOU
 10
5578.068849
 20
5077.016114
 30
0.0
 11
5578.068849
 21
5377.016114
 31
0.0
  0
INSERT
  8
SUNPOU
  2
ARROWANG
 10
5578.068849
 20
5077.016114
 30
0.0
 41
30.0
 42
30.0
 50
270.0
 43
30.0
  0
INSERT
  8
SUNPOU
  2
ARROWANG
 10
5578.068849
 20
5377.016114
 30
0.0
 41
30.0
 42
30.0
 50
90.0
 43
30.0
  0
TEXT
  8
SUNPOU
 10
5533.068849
 20
5237.551966
 30
0.0
 40
45.0
  1
300
 50
90.0
  7
K
 72
     1
 11
5533.068849
 21
5301.83768
 31
0.0
  0
LINE
  8
SUNPOU
 10
3048.066597
 20
4777.016114
 30
0.0
 11
3047.346969
 21
4777.016114
 31
0.0
  0
LINE
  8
SUNPOU
 10
3048.066597
 20
5077.016114
 30
0.0
 11
3047.346969
 21
5077.016114
 31
0.0
  0
LINE
  8
SUNPOU
 10
3077.346969
 20
4777.016114
 30
0.0
 11
3077.346969
 21
5077.016114
 31
0.0
  0
INSERT
  8
SUNPOU
  2
ARROWANG
 10
3077.346969
 20
4777.016114
 30
0.0
 41
30.0
 42
30.0
 50
270.0
 43
30.0
  0
INSERT
  8
SUNPOU
  2
ARROWANG
 10
3077.346969
 20
5077.016114
 30
0.0
 41
30.0
 42
30.0
 50
90.0
 43
30.0
  0
TEXT
  8
SUNPOU
 10
3032.346969
 20
4944.515351
 30
0.0
 40
45.0
  1
300
 50
90.0
  7
K
 72
     1
 11
3032.346969
 21
5008.801065
 31
0.0
  0
ARC
  8
JISSEN
 10
8547.7209
 20
2267.016114
 30
0.0
 40
625.0
 50
90.0
 51
270.0
  0
ARC
  8
TENSEN
 10
8547.7209
 20
2267.016114
 30
0.0
 40
625.0
 50
270.0
 51
90.0
  0
LINE
  8
SUNPOU
 10
8047.7209
 20
2877.016114
 30
0.0
 11
8047.7209
 21
2877.016114
 31
0.0
  0
LINE
  8
SUNPOU
 10
7957.7209
 20
3027.016114
 30
0.0
 11
8107.7209
 21
3027.016114
 31
0.0
  0
LINE
  8
SUNPOU
 10
8077.7209
 20
2877.016114
 30
0.0
 11
8077.7209
 21
3027.016114
 31
0.0
  0
INSERT
  8
SUNPOU
  2
ARROWANG
 10
8077.7209
 20
2877.016114
 30
0.0
 41
30.0
 42
30.0
 50
270.0
 43
30.0
  0
INSERT
  8
SUNPOU
  2
ARROWANG
 10
8077.7209
 20
3027.016114
 30
0.0
 41
30.0
 42
30.0
 50
90.0
 43
30.0
  0
TEXT
  8
SUNPOU
 10
8032.7209
 20
2884.516114
 30
0.0
 40
45.0
  1
150
 50
90.0
  7
K
 72
     1
 11
8032.7209
 21
2952.016114
 31
0.0
  0
TEXT
  8
TEXT
 10
2796.271174
 20
7597.133443
 30
0.0
 40
300.0
  1
組立マンホール構造図 (内径1500mm)
  7
K
  0
TEXT
  8
TEXT
 10
5526.744624
 20
6853.366701
 30
0.0
 40
150.0
  1
管取付壁
  7
K
  0
TEXT
  8
TEXT
 10
3260.285309
 20
6571.595822
 30
0.0
 40
90.0
  1
M3B240
  7
K
  0
TEXT
  8
TEXT
 10
5763.53888
 20
6571.595822
 30
0.0
 40
90.0
  1
M3B210
  7
K
  0
TEXT
  8
TEXT
 10
8261.154494
 20
6571.595822
 30
0.0
 40
90.0
  1
M3B180
  7
K
  0
TEXT
  8
TEXT
 10
5750.383644
 20
3173.093998
 30
0.0
 40
90.0
  1
M3B120
  7
K
  0
TEXT
  8
TEXT
 10
8247.999257
 20
3473.26624
 30
0.0
 40
90.0
  1
M3B150
  7
K
  0
LINE
  8
TENSEN
 10
2872.83248
 20
2683.508601
 30
0.0
 11
2872.83248
 21
2453.449704
 31
0.0
  0
LINE
  8
TENSEN
 10
4222.713395
 20
2684.220473
 30
0.0
 11
4222.713395
 21
2454.661803
 31
0.0
  0
POLYLINE
  8
WAKU
 66
     1
 10
0.0
 20
0.0
 30
0.0
 70
     1
  0
VERTEX
  8
WAKU
 10
0.0
 20
0.0
 30
0.0
  0
VERTEX
  8
WAKU
 10
11850.0
 20
0.0
 30
0.0
  0
VERTEX
  8
WAKU
 10
11850.0
 20
8190.0
 30
0.0
  0
VERTEX
  8
WAKU
 10
0.0
 20
8190.0
 30
0.0
  0
SEQEND
  8
WAKU
  0
TEXT
  8
TEXT
 10
10962.59249
 20
614.509349
 30
0.0
 40
150.0
  1
1/30
  7
K
  0
ENDSEC
  0
EOF
