  0
SECTION
  2
HEADER
  9
$ACADVER
  1
AC1009
  9
$INSBASE
 10
0.0
 20
0.0
 30
0.0
  9
$EXTMIN
 10
0.0
 20
0.0
 30
0.0
  9
$EXTMAX
 10
11850.0
 20
8190.0
 30
0.0
  9
$LIMMIN
 10
0.0
 20
0.0
  9
$LIMMAX
 10
11850.0
 20
8190.0
  9
$ORTHOMODE
 70
     0
  9
$REGENMODE
 70
     1
  9
$FILLMODE
 70
     1
  9
$QTEXTMODE
 70
     0
  9
$MIRRTEXT
 70
     0
  9
$DRAGMODE
 70
     2
  9
$LTSCALE
 40
150.0
  9
$OSMODE
 70
    32
  9
$ATTMODE
 70
     1
  9
$TEXTSIZE
 40
45.0
  9
$TRACEWID
 40
0.05
  9
$TEXTSTYLE
  7
K
  9
$CLAYER
  8
TENSEN
  9
$CELTYPE
  6
BYLAYER
  9
$CECOLOR
 62
   256
  9
$DIMSCALE
 40
30.0
  9
$DIMASZ
 40
1.5
  9
$DIMEXO
 40
1.0
  9
$DIMDLI
 40
6.0
  9
$DIMRND
 40
0.0
  9
$DIMDLE
 40
0.0
  9
$DIMEXE
 40
1.0
  9
$DIMTP
 40
495.0
  9
$DIMTM
 40
0.0
  9
$DIMTXT
 40
3.0
  9
$DIMCEN
 40
0.0
  9
$DIMTSZ
 40
0.0
  9
$DIMTOL
 70
     0
  9
$DIMLIM
 70
     0
  9
$DIMTIH
 70
     0
  9
$DIMTOH
 70
     0
  9
$DIMSE1
 70
     0
  9
$DIMSE2
 70
     0
  9
$DIMTAD
 70
     1
  9
$DIMZIN
 70
     8
  9
$DIMBLK
  1
ARROW
  9
$DIMASO
 70
     0
  9
$DIMSHO
 70
     0
  9
$DIMPOST
  1

  9
$DIMAPOST
  1

  9
$DIMALT
 70
     0
  9
$DIMALTD
 70
     2
  9
$DIMALTF
 40
25.4
  9
$DIMLFAC
 40
1.0
  9
$DIMTOFL
 70
     1
  9
$DIMTVP
 40
0.0
  9
$DIMTIX
 70
     1
  9
$DIMSOXD
 70
     0
  9
$DIMSAH
 70
     0
  9
$DIMBLK1
  1

  9
$DIMBLK2
  1

  9
$DIMSTYLE
  2
*UNNAMED
  9
$DIMCLRD
 70
     0
  9
$DIMCLRE
 70
     0
  9
$DIMCLRT
 70
     0
  9
$DIMTFAC
 40
1.0
  9
$DIMGAP
 40
0.09
  9
$LUNITS
 70
     2
  9
$LUPREC
 70
     2
  9
$AXISMODE
 70
     0
  9
$AXISUNIT
 10
100.0
 20
100.0
  9
$SKETCHINC
 40
0.1
  9
$FILLETRAD
 40
9.5
  9
$AUNITS
 70
     0
  9
$AUPREC
 70
     2
  9
$MENU
  1
d:stdgx5
  9
$ELEVATION
 40
0.0
  9
$PELEVATION
 40
0.0
  9
$THICKNESS
 40
0.0
  9
$LIMCHECK
 70
     0
  9
$BLIPMODE
 70
     1
  9
$CHAMFERA
 40
0.0
  9
$CHAMFERB
 40
0.0
  9
$SKPOLY
 70
     0
  9
$TDCREATE
 40
2450248.583495370
  9
$TDUPDATE
 40
2450248.586608796
  9
$TDINDWG
 40
0.0016666667
  9
$TDUSRTIMER
 40
0.0016666667
  9
$USRTIMER
 70
     1
  9
$ANGBASE
 50
0.0
  9
$ANGDIR
 70
     0
  9
$PDMODE
 70
     0
  9
$PDSIZE
 40
0.0
  9
$PLINEWID
 40
0.0
  9
$COORDS
 70
     2
  9
$SPLFRAME
 70
     0
  9
$SPLINETYPE
 70
     6
  9
$SPLINESEGS
 70
     8
  9
$ATTDIA
 70
     0
  9
$ATTREQ
 70
     1
  9
$HANDLING
 70
     0
  9
$HANDSEED
  5
0
  9
$SURFTAB1
 70
     6
  9
$SURFTAB2
 70
     6
  9
$SURFTYPE
 70
     6
  9
$SURFU
 70
     6
  9
$SURFV
 70
     6
  9
$UCSNAME
  2

  9
$UCSORG
 10
0.0
 20
0.0
 30
0.0
  9
$UCSXDIR
 10
1.0
 20
0.0
 30
0.0
  9
$UCSYDIR
 10
0.0
 20
1.0
 30
0.0
  9
$PUCSNAME
  2

  9
$PUCSORG
 10
0.0
 20
0.0
 30
0.0
  9
$PUCSXDIR
 10
1.0
 20
0.0
 30
0.0
  9
$PUCSYDIR
 10
0.0
 20
1.0
 30
0.0
  9
$USERI1
 70
     3
  9
$USERI2
 70
    32
  9
$USERI3
 70
     0
  9
$USERI4
 70
     1
  9
$USERI5
 70
     0
  9
$USERR1
 40
30.0
  9
$USERR2
 40
3.0
  9
$USERR3
 40
3.0
  9
$USERR4
 40
1.5
  9
$USERR5
 40
10.0
  9
$WORLDVIEW
 70
     1
  9
$SHADEDGE
 70
     3
  9
$SHADEDIF
 70
    70
  9
$TILEMODE
 70
     1
  9
$MAXACTVP
 70
    16
  9
$PINSBASE
 10
0.0
 20
0.0
 30
0.0
  9
$PLIMCHECK
 70
     0
  9
$PEXTMIN
 10
1.000000E+20
 20
1.000000E+20
 30
1.000000E+20
  9
$PEXTMAX
 10
-1.000000E+20
 20
-1.000000E+20
 30
-1.000000E+20
  9
$PLIMMIN
 10
0.0
 20
0.0
  9
$PLIMMAX
 10
12.0
 20
9.0
  9
$UNITMODE
 70
     0
  9
$VISRETAIN
 70
     0
  0
ENDSEC
  0
SECTION
  2
TABLES
  0
TABLE
  2
VPORT
 70
    10
  0
VPORT
  2
*ACTIVE
 70
     0
 10
0.0
 20
0.0
 11
1.0
 21
1.0
 12
6691.515737
 22
4095.0
 13
0.0
 23
0.0
 14
1.0
 24
1.0
 15
10.0
 25
10.0
 16
0.0
 26
0.0
 36
1.0
 17
0.0
 27
0.0
 37
0.0
 40
8190.0
 41
1.63407
 42
50.0
 43
0.0
 44
0.0
 50
0.0
 51
0.0
 71
     0
 72
   500
 73
     1
 74
     0
 75
     0
 76
     0
 77
     0
 78
     0
  0
VPORT
  2
2
 70
     0
 10
0.5
 20
0.0
 11
1.0
 21
1.0
 12
0.924031
 22
1.052651
 13
0.0
 23
0.0
 14
1.0
 24
1.0
 15
10.0
 25
10.0
 16
0.0
 26
0.0
 36
1.0
 17
0.0
 27
0.0
 37
0.0
 40
2.105302
 41
0.877814
 42
50.0
 43
0.0
 44
0.0
 50
0.0
 51
0.0
 71
     0
 72
   500
 73
     1
 74
     1
 75
     0
 76
     0
 77
     0
 78
     0
  0
VPORT
  2
2
 70
     0
 10
0.0
 20
0.0
 11
0.5
 21
1.0
 12
0.924031
 22
1.052651
 13
0.0
 23
0.0
 14
1.0
 24
1.0
 15
10.0
 25
10.0
 16
0.0
 26
0.0
 36
1.0
 17
0.0
 27
0.0
 37
0.0
 40
2.105302
 41
0.877814
 42
50.0
 43
0.0
 44
0.0
 50
0.0
 51
0.0
 71
     0
 72
   500
 73
     1
 74
     1
 75
     0
 76
     0
 77
     0
 78
     0
  0
VPORT
  2
3
 70
     0
 10
0.0
 20
0.5
 11
1.0
 21
1.0
 12
2.83217
 22
1.052651
 13
0.0
 23
0.0
 14
1.0
 24
1.0
 15
10.0
 25
10.0
 16
0.0
 26
0.0
 36
1.0
 17
0.0
 27
0.0
 37
0.0
 40
2.105302
 41
3.571429
 42
50.0
 43
0.0
 44
0.0
 50
0.0
 51
0.0
 71
     0
 72
   500
 73
     1
 74
     1
 75
     0
 76
     0
 77
     0
 78
     0
  0
VPORT
  2
3
 70
     0
 10
0.0
 20
0.0
 11
1.0
 21
0.5
 12
2.856742
 22
1.052651
 13
0.0
 23
0.0
 14
1.0
 24
1.0
 15
10.0
 25
10.0
 16
0.0
 26
0.0
 36
1.0
 17
0.0
 27
0.0
 37
0.0
 40
2.105302
 41
3.594771
 42
50.0
 43
0.0
 44
0.0
 50
0.0
 51
0.0
 71
     0
 72
   500
 73
     1
 74
     1
 75
     0
 76
     0
 77
     0
 78
     0
  0
VPORT
  2
4
 70
     0
 10
0.5
 20
0.0
 11
1.0
 21
0.5
 12
2.886858
 22
1.052651
 13
0.0
 23
0.0
 14
1.0
 24
1.0
 15
10.0
 25
10.0
 16
0.0
 26
0.0
 36
1.0
 17
0.0
 27
0.0
 37
0.0
 40
4.275207
 41
1.784314
 42
50.0
 43
0.0
 44
0.0
 50
0.0
 51
0.0
 71
     0
 72
   500
 73
     1
 74
     1
 75
     0
 76
     0
 77
     0
 78
     0
  0
VPORT
  2
4
 70
     0
 10
0.5
 20
0.5
 11
1.0
 21
1.0
 12
2.86209
 22
1.052651
 13
0.0
 23
0.0
 14
1.0
 24
1.0
 15
10.0
 25
10.0
 16
0.0
 26
0.0
 36
1.0
 17
0.0
 27
0.0
 37
0.0
 40
4.275207
 41
1.772727
 42
50.0
 43
0.0
 44
0.0
 50
0.0
 51
0.0
 71
     0
 72
   500
 73
     1
 74
     1
 75
     0
 76
     0
 77
     0
 78
     0
  0
VPORT
  2
4
 70
     0
 10
0.0
 20
0.5
 11
0.5
 21
1.0
 12
2.86209
 22
1.052651
 13
0.0
 23
0.0
 14
1.0
 24
1.0
 15
10.0
 25
10.0
 16
0.0
 26
0.0
 36
1.0
 17
0.0
 27
0.0
 37
0.0
 40
4.275207
 41
1.772727
 42
50.0
 43
0.0
 44
0.0
 50
0.0
 51
0.0
 71
     0
 72
   500
 73
     1
 74
     1
 75
     0
 76
     0
 77
     0
 78
     0
  0
VPORT
  2
4
 70
     0
 10
0.0
 20
0.0
 11
0.5
 21
0.5
 12
2.886858
 22
1.052651
 13
0.0
 23
0.0
 14
1.0
 24
1.0
 15
10.0
 25
10.0
 16
0.0
 26
0.0
 36
1.0
 17
0.0
 27
0.0
 37
0.0
 40
4.275207
 41
1.784314
 42
50.0
 43
0.0
 44
0.0
 50
0.0
 51
0.0
 71
     0
 72
   500
 73
     1
 74
     1
 75
     0
 76
     0
 77
     0
 78
     0
  0
ENDTAB
  0
TABLE
  2
LTYPE
 70
     5
  0
LTYPE
  2
CONTINUOUS
 70
    64
  3
実線
 72
    65
 73
     0
 40
0.0
  0
LTYPE
  2
DASHED
 70
    64
  3
__ __ __ __ __ __ __ __ __ __ __ __ __ __ __
 72
    65
 73
     2
 40
0.75
 49
0.5
 49
-0.25
  0
LTYPE
  2
CENTER
 70
    64
  3
____ _ ____ _ ____ _ ____ _ ____ _ ____ _ ____
 72
    65
 73
     4
 40
2.0
 49
1.25
 49
-0.25
 49
0.25
 49
-0.25
  0
LTYPE
  2
PHANTOM
 70
    64
  3
_____ _ _ _____ _ _ _____ _ _ _____ _ _ ____
 72
    65
 73
     6
 40
2.5
 49
1.25
 49
-0.25
 49
0.25
 49
-0.25
 49
0.25
 49
-0.25
  0
LTYPE
  2
HIDDEN
 70
    64
  3
_ _ _ _ _ _ _ _ _ _ _ _ _ _ _ _ _ _ _ _ _ _ _
 72
    65
 73
     2
 40
0.375
 49
0.25
 49
-0.125
  0
ENDTAB
  0
TABLE
  2
LAYER
 70
    14
  0
LAYER
  2
0
 70
    64
 62
     7
  6
CONTINUOUS
  0
LAYER
  2
ITTEN
 70
    64
 62
     1
  6
CENTER
  0
LAYER
  2
SUNPOU
 70
    64
 62
     3
  6
CONTINUOUS
  0
LAYER
  2
TEXT
 70
    64
 62
     3
  6
CONTINUOUS
  0
LAYER
  2
JISSEN
 70
    64
 62
     7
  6
CONTINUOUS
  0
LAYER
  2
HOJO
 70
    64
 62
    13
  6
CONTINUOUS
  0
LAYER
  2
TENSEN
 70
    64
 62
     2
  6
HIDDEN
  0
LAYER
  2
HOJOORG
 70
    64
 62
    -9
  6
CONTINUOUS
  0
LAYER
  2
WAKU
 70
    64
 62
    -5
  6
CONTINUOUS
  0
ENDTAB
  0
TABLE
  2
STYLE
 70
     2
  0
STYLE
  2
STANDARD
 70
     0
 40
0.0
 41
1.0
 50
0.0
 71
     0
 42
0.2
  3
ROMANS
  4
EXTFONT
  0
STYLE
  2
K
 70
    64
 40
0.0
 41
1.0
 50
0.0
 71
     0
 42
45.0
  3
ROMANS
  4
EXTFONT
  0
ENDTAB
  0
TABLE
  2
VIEW
 70
     0
  0
ENDTAB
  0
TABLE
  2
UCS
 70
     0
  0
ENDTAB
  0
TABLE
  2
APPID
 70
     1
  0
APPID
  2
ACAD
 70
    64
  0
ENDTAB
  0
TABLE
  2
DIMSTYLE
 70
     0
  0
ENDTAB
  0
ENDSEC
  0
SECTION
  2
BLOCKS
  0
BLOCK
  8
SUNPOU
  2
ARROWANG
 70
    64
 10
0.0
 20
0.0
 30
0.0
  3
ARROWANG
  0
LINE
  8
SUNPOU
 10
0.0
 20
0.0
 30
0.0
 11
-1.5
 21
0.401924
 31
0.0
  0
LINE
  8
SUNPOU
 10
0.0
 20
0.0
 30
0.0
 11
-1.5
 21
-0.401924
 31
0.0
  0
ENDBLK
  8
SUNPOU
  0
ENDSEC
  0
SECTION
  2
ENTITIES
  0
LINE
  8
JISSEN
 10
2320.379458
 20
4972.734488
 30
0.0
 11
2320.379458
 21
4807.734488
 31
0.0
  0
LINE
  8
JISSEN
 10
2320.379458
 20
4972.734488
 30
0.0
 11
2430.379458
 21
4972.734488
 31
0.0
  0
LINE
  8
JISSEN
 10
2430.379458
 20
4972.734488
 30
0.0
 11
2437.379458
 21
4957.734488
 31
0.0
  0
LINE
  8
JISSEN
 10
2320.379458
 20
4902.734488
 30
0.0
 11
2395.379458
 21
4902.734488
 31
0.0
  0
LINE
  8
JISSEN
 10
2395.379458
 20
4902.734488
 30
0.0
 11
2395.379458
 21
4882.734488
 31
0.0
  0
LINE
  8
JISSEN
 10
2395.379458
 20
4882.734488
 30
0.0
 11
2320.379458
 21
4882.734488
 31
0.0
  0
LINE
  8
JISSEN
 10
2430.379458
 20
4972.734488
 30
0.0
 11
3220.379458
 21
4972.734488
 31
0.0
  0
LINE
  8
JISSEN
 10
3220.379458
 20
4957.734488
 30
0.0
 11
2437.379458
 21
4957.734488
 31
0.0
  0
LINE
  8
JISSEN
 10
2320.379458
 20
4807.734488
 30
0.0
 11
3220.379458
 21
4807.734488
 31
0.0
  0
LINE
  8
JISSEN
 10
2920.379458
 20
4957.734488
 30
0.0
 11
2920.379458
 21
4837.734488
 31
0.0
  0
LINE
  8
JISSEN
 10
2920.379458
 20
4837.734488
 30
0.0
 11
3220.379458
 21
4837.734488
 31
0.0
  0
LINE
  8
TENSEN
 10
3520.379458
 20
4837.734488
 30
0.0
 11
3220.379458
 21
4837.734488
 31
0.0
  0
LINE
  8
TENSEN
 10
3520.379458
 20
4957.734488
 30
0.0
 11
3520.379458
 21
4837.734488
 31
0.0
  0
LINE
  8
JISSEN
 10
4120.379458
 20
4807.734488
 30
0.0
 11
3220.379458
 21
4807.734488
 31
0.0
  0
LINE
  8
TENSEN
 10
3220.379458
 20
4957.734488
 30
0.0
 11
4003.379458
 21
4957.734488
 31
0.0
  0
LINE
  8
JISSEN
 10
4010.379458
 20
4972.734488
 30
0.0
 11
3220.379458
 21
4972.734488
 31
0.0
  0
LINE
  8
TENSEN
 10
4045.379458
 20
4882.734488
 30
0.0
 11
4120.379458
 21
4882.734488
 31
0.0
  0
LINE
  8
TENSEN
 10
4045.379458
 20
4902.734488
 30
0.0
 11
4045.379458
 21
4882.734488
 31
0.0
  0
LINE
  8
TENSEN
 10
4120.379458
 20
4902.734488
 30
0.0
 11
4045.379458
 21
4902.734488
 31
0.0
  0
LINE
  8
JISSEN
 10
4010.379458
 20
4972.734488
 30
0.0
 11
4003.379458
 21
4957.734488
 31
0.0
  0
LINE
  8
JISSEN
 10
4120.379458
 20
4972.734488
 30
0.0
 11
4010.379458
 21
4972.734488
 31
0.0
  0
LINE
  8
JISSEN
 10
4120.379458
 20
4972.734488
 30
0.0
 11
4120.379458
 21
4807.734488
 31
0.0
  0
LINE
  8
ITTEN
 10
3220.379458
 20
5042.734488
 30
0.0
 11
3220.379458
 21
4742.734488
 31
0.0
  0
LINE
  8
SUNPOU
 10
2320.379458
 20
4777.734488
 30
0.0
 11
2320.379458
 21
4477.734488
 31
0.0
  0
LINE
  8
SUNPOU
 10
4120.379458
 20
4777.734488
 30
0.0
 11
4120.379458
 21
4477.734488
 31
0.0
  0
LINE
  8
SUNPOU
 10
2920.379458
 20
4777.734488
 30
0.0
 11
2920.379458
 21
4577.734488
 31
0.0
  0
LINE
  8
SUNPOU
 10
3520.379458
 20
4777.734488
 30
0.0
 11
3520.379458
 21
4577.734488
 31
0.0
  0
LINE
  8
SUNPOU
 10
4033.379458
 20
4957.734488
 30
0.0
 11
4350.379458
 21
4957.734488
 31
0.0
  0
LINE
  8
SUNPOU
 10
4049.893577
 20
4892.734488
 30
0.0
 11
4250.379458
 21
4892.734488
 31
0.0
  0
CIRCLE
  8
JISSEN
 10
3220.379458
 20
3478.702912
 30
0.0
 40
900.0
  0
CIRCLE
  8
JISSEN
 10
3220.379458
 20
3478.702912
 30
0.0
 40
790.0
  0
CIRCLE
  8
JISSEN
 10
3220.379458
 20
3478.702912
 30
0.0
 40
783.0
  0
LINE
  8
TENSEN
 10
3230.379458
 20
2908.097591
 30
0.0
 11
3210.379458
 21
2908.097591
 31
0.0
  0
LINE
  8
TENSEN
 10
3210.379458
 20
2578.758469
 30
0.0
 11
3210.379458
 21
2653.702912
 31
0.0
  0
LINE
  8
TENSEN
 10
3230.379458
 20
2653.702912
 30
0.0
 11
3210.379458
 21
2653.702912
 31
0.0
  0
LINE
  8
TENSEN
 10
3230.379458
 20
2578.758469
 30
0.0
 11
3230.379458
 21
2653.702912
 31
0.0
  0
POINT
  8
TENSEN
 10
3220.379458
 20
3604.900252
 30
0.0
  0
LINE
  8
TENSEN
 10
2320.435016
 20
3488.702912
 30
0.0
 11
2395.379458
 21
3488.702912
 31
0.0
  0
LINE
  8
TENSEN
 10
2395.379458
 20
3468.702912
 30
0.0
 11
2395.379458
 21
3488.702912
 31
0.0
  0
LINE
  8
TENSEN
 10
2320.435016
 20
3468.702912
 30
0.0
 11
2395.379458
 21
3468.702912
 31
0.0
  0
LINE
  8
TENSEN
 10
3210.379458
 20
4378.647355
 30
0.0
 11
3210.379458
 21
4303.702912
 31
0.0
  0
LINE
  8
TENSEN
 10
3230.379458
 20
4378.647355
 30
0.0
 11
3230.379458
 21
4303.702912
 31
0.0
  0
LINE
  8
TENSEN
 10
3210.379458
 20
4303.702912
 30
0.0
 11
3230.379458
 21
4303.702912
 31
0.0
  0
POINT
  8
JISSEN
 10
3220.379458
 20
3479.702912
 30
0.0
  0
POINT
  8
JISSEN
 10
5831.777011
 20
3479.758469
 30
0.0
  0
LINE
  8
TENSEN
 10
5821.777011
 20
4303.758469
 30
0.0
 11
5841.777011
 21
4303.758469
 31
0.0
  0
LINE
  8
TENSEN
 10
5841.777011
 20
4378.702912
 30
0.0
 11
5841.777011
 21
4303.758469
 31
0.0
  0
LINE
  8
TENSEN
 10
5821.777011
 20
4378.702912
 30
0.0
 11
5821.777011
 21
4303.758469
 31
0.0
  0
LINE
  8
TENSEN
 10
4931.832568
 20
3468.758469
 30
0.0
 11
5006.777011
 21
3468.758469
 31
0.0
  0
LINE
  8
TENSEN
 10
5006.777011
 20
3468.758469
 30
0.0
 11
5006.777011
 21
3488.758469
 31
0.0
  0
LINE
  8
TENSEN
 10
4931.832568
 20
3488.758469
 30
0.0
 11
5006.777011
 21
3488.758469
 31
0.0
  0
POINT
  8
TENSEN
 10
5831.777011
 20
3604.955809
 30
0.0
  0
LINE
  8
TENSEN
 10
5841.777011
 20
2578.814026
 30
0.0
 11
5841.777011
 21
2653.758469
 31
0.0
  0
LINE
  8
TENSEN
 10
5841.777011
 20
2653.758469
 30
0.0
 11
5821.777011
 21
2653.758469
 31
0.0
  0
LINE
  8
TENSEN
 10
5821.777011
 20
2578.814026
 30
0.0
 11
5821.777011
 21
2653.758469
 31
0.0
  0
CIRCLE
  8
JISSEN
 10
5831.777011
 20
3478.758469
 30
0.0
 40
783.0
  0
CIRCLE
  8
JISSEN
 10
5831.777011
 20
3478.758469
 30
0.0
 40
790.0
  0
CIRCLE
  8
JISSEN
 10
5831.777011
 20
3478.758469
 30
0.0
 40
900.0
  0
LINE
  8
SUNPOU
 10
6661.291129
 20
4892.790045
 30
0.0
 11
6861.777011
 21
4892.790045
 31
0.0
  0
LINE
  8
SUNPOU
 10
6644.777011
 20
4957.790045
 30
0.0
 11
6961.777011
 21
4957.790045
 31
0.0
  0
LINE
  8
SUNPOU
 10
5646.986944
 20
4837.790045
 30
0.0
 11
5646.986944
 21
4837.790045
 31
0.0
  0
LINE
  8
SUNPOU
 10
5646.986944
 20
4807.790045
 30
0.0
 11
5646.986944
 21
4807.790045
 31
0.0
  0
LINE
  8
SUNPOU
 10
6131.777011
 20
4777.790045
 30
0.0
 11
6131.777011
 21
4577.790045
 31
0.0
  0
LINE
  8
SUNPOU
 10
5531.777011
 20
4777.790045
 30
0.0
 11
5531.777011
 21
4577.790045
 31
0.0
  0
LINE
  8
SUNPOU
 10
6731.777011
 20
4777.790045
 30
0.0
 11
6731.777011
 21
4477.790045
 31
0.0
  0
LINE
  8
SUNPOU
 10
4931.777011
 20
4777.790045
 30
0.0
 11
4931.777011
 21
4477.790045
 31
0.0
  0
LINE
  8
ITTEN
 10
5831.777011
 20
5042.790045
 30
0.0
 11
5831.777011
 21
4742.790045
 31
0.0
  0
LINE
  8
JISSEN
 10
6731.777011
 20
4972.790045
 30
0.0
 11
6731.777011
 21
4807.790045
 31
0.0
  0
LINE
  8
JISSEN
 10
6731.777011
 20
4972.790045
 30
0.0
 11
6621.777011
 21
4972.790045
 31
0.0
  0
LINE
  8
JISSEN
 10
6621.777011
 20
4972.790045
 30
0.0
 11
6614.777011
 21
4957.790045
 31
0.0
  0
LINE
  8
TENSEN
 10
6731.777011
 20
4902.790045
 30
0.0
 11
6656.777011
 21
4902.790045
 31
0.0
  0
LINE
  8
TENSEN
 10
6656.777011
 20
4902.790045
 30
0.0
 11
6656.777011
 21
4882.790045
 31
0.0
  0
LINE
  8
TENSEN
 10
6656.777011
 20
4882.790045
 30
0.0
 11
6731.777011
 21
4882.790045
 31
0.0
  0
LINE
  8
JISSEN
 10
6621.777011
 20
4972.790045
 30
0.0
 11
5831.777011
 21
4972.790045
 31
0.0
  0
LINE
  8
TENSEN
 10
5831.777011
 20
4957.790045
 30
0.0
 11
6614.777011
 21
4957.790045
 31
0.0
  0
LINE
  8
JISSEN
 10
6731.777011
 20
4807.790045
 30
0.0
 11
5831.777011
 21
4807.790045
 31
0.0
  0
LINE
  8
JISSEN
 10
4931.777011
 20
4807.790045
 30
0.0
 11
5831.777011
 21
4807.790045
 31
0.0
  0
LINE
  8
JISSEN
 10
5831.777011
 20
4957.790045
 30
0.0
 11
5048.777011
 21
4957.790045
 31
0.0
  0
LINE
  8
JISSEN
 10
5041.777011
 20
4972.790045
 30
0.0
 11
5831.777011
 21
4972.790045
 31
0.0
  0
LINE
  8
JISSEN
 10
5006.777011
 20
4882.790045
 30
0.0
 11
4931.777011
 21
4882.790045
 31
0.0
  0
LINE
  8
JISSEN
 10
5006.777011
 20
4902.790045
 30
0.0
 11
5006.777011
 21
4882.790045
 31
0.0
  0
LINE
  8
JISSEN
 10
4931.777011
 20
4902.790045
 30
0.0
 11
5006.777011
 21
4902.790045
 31
0.0
  0
LINE
  8
JISSEN
 10
5041.777011
 20
4972.790045
 30
0.0
 11
5048.777011
 21
4957.790045
 31
0.0
  0
LINE
  8
JISSEN
 10
4931.777011
 20
4972.790045
 30
0.0
 11
5041.777011
 21
4972.790045
 31
0.0
  0
LINE
  8
JISSEN
 10
4931.777011
 20
4972.790045
 30
0.0
 11
4931.777011
 21
4807.790045
 31
0.0
  0
LINE
  8
JISSEN
 10
5531.777011
 20
4957.790045
 30
0.0
 11
5531.777011
 21
4807.790045
 31
0.0
  0
LINE
  8
TENSEN
 10
6131.777011
 20
4957.790045
 30
0.0
 11
6131.777011
 21
4807.790045
 31
0.0
  0
CIRCLE
  8
JISSEN
 10
5831.777011
 20
3478.758469
 30
0.0
 40
300.0
  0
CIRCLE
  8
JISSEN
 10
3220.379458
 20
3478.702912
 30
0.0
 40
300.0
  0
LINE
  8
ITTEN
 10
3220.379458
 20
4478.702912
 30
0.0
 11
3220.379458
 21
2478.702912
 31
0.0
  0
LINE
  8
ITTEN
 10
4220.379458
 20
3478.702912
 30
0.0
 11
2220.379458
 21
3478.702912
 31
0.0
  0
LINE
  8
ITTEN
 10
5831.777011
 20
4478.758469
 30
0.0
 11
5831.777011
 21
2478.758469
 31
0.0
  0
LINE
  8
ITTEN
 10
6831.777011
 20
3478.758469
 30
0.0
 11
4831.777011
 21
3478.758469
 31
0.0
  0
POINT
  8
JISSEN
 10
5832.777011
 20
3478.758469
 30
0.0
  0
LINE
  8
TENSEN
 10
6731.721454
 20
3488.758469
 30
0.0
 11
6656.777011
 21
3488.758469
 31
0.0
  0
LINE
  8
TENSEN
 10
6656.777011
 20
3488.758469
 30
0.0
 11
6656.777011
 21
3468.758469
 31
0.0
  0
LINE
  8
TENSEN
 10
6731.721454
 20
3468.758469
 30
0.0
 11
6656.777011
 21
3468.758469
 31
0.0
  0
LINE
  8
SUNPOU
 10
2320.379458
 20
4537.734488
 30
0.0
 11
2320.379458
 21
4537.734488
 31
0.0
  0
LINE
  8
SUNPOU
 10
4120.379458
 20
4537.734488
 30
0.0
 11
4120.379458
 21
4537.734488
 31
0.0
  0
LINE
  8
SUNPOU
 10
2320.379458
 20
4507.734488
 30
0.0
 11
4120.379458
 21
4507.734488
 31
0.0
  0
INSERT
  8
SUNPOU
  2
ARROWANG
 10
4120.379458
 20
4507.734488
 30
0.0
 41
30.0
 42
30.0
 43
30.0
  0
INSERT
  8
SUNPOU
  2
ARROWANG
 10
2320.379458
 20
4507.734488
 30
0.0
 41
30.0
 42
30.0
 50
180.0
 43
30.0
  0
TEXT
  8
SUNPOU
 10
3131.450887
 20
4552.734488
 30
0.0
 40
45.0
  1
1800
  7
K
 72
     1
 11
3220.379458
 21
4552.734488
 31
0.0
  0
LINE
  8
SUNPOU
 10
2320.379458
 20
4577.734488
 30
0.0
 11
2320.379458
 21
4577.734488
 31
0.0
  0
LINE
  8
SUNPOU
 10
2920.379458
 20
4577.734488
 30
0.0
 11
2920.379458
 21
4577.734488
 31
0.0
  0
LINE
  8
SUNPOU
 10
2320.379458
 20
4607.734488
 30
0.0
 11
2920.379458
 21
4607.734488
 31
0.0
  0
INSERT
  8
SUNPOU
  2
ARROWANG
 10
2320.379458
 20
4607.734488
 30
0.0
 41
30.0
 42
30.0
 50
180.0
 43
30.0
  0
INSERT
  8
SUNPOU
  2
ARROWANG
 10
2920.379458
 20
4607.734488
 30
0.0
 41
30.0
 42
30.0
 43
30.0
  0
TEXT
  8
SUNPOU
 10
2555.02233
 20
4652.734488
 30
0.0
 40
45.0
  1
600
  7
K
 72
     1
 11
2620.379473
 21
4652.734488
 31
0.0
  0
LINE
  8
SUNPOU
 10
2920.379458
 20
4577.734488
 30
0.0
 11
2920.379458
 21
4577.734488
 31
0.0
  0
LINE
  8
SUNPOU
 10
3520.379458
 20
4577.734488
 30
0.0
 11
3520.379458
 21
4577.734488
 31
0.0
  0
LINE
  8
SUNPOU
 10
2920.379458
 20
4607.734488
 30
0.0
 11
3520.379458
 21
4607.734488
 31
0.0
  0
INSERT
  8
SUNPOU
  2
ARROWANG
 10
2920.379458
 20
4607.734488
 30
0.0
 41
30.0
 42
30.0
 50
180.0
 43
30.0
  0
INSERT
  8
SUNPOU
  2
ARROWANG
 10
3520.379458
 20
4607.734488
 30
0.0
 41
30.0
 42
30.0
 43
30.0
  0
TEXT
  8
SUNPOU
 10
3155.02233
 20
4652.734488
 30
0.0
 40
45.0
  1
600
  7
K
 72
     1
 11
3220.379473
 21
4652.734488
 31
0.0
  0
LINE
  8
SUNPOU
 10
3520.379458
 20
4577.734488
 30
0.0
 11
3520.379458
 21
4577.734488
 31
0.0
  0
LINE
  8
SUNPOU
 10
4120.379458
 20
4577.734488
 30
0.0
 11
4120.379458
 21
4577.734488
 31
0.0
  0
LINE
  8
SUNPOU
 10
3520.379458
 20
4607.734488
 30
0.0
 11
4120.379458
 21
4607.734488
 31
0.0
  0
INSERT
  8
SUNPOU
  2
ARROWANG
 10
3520.379458
 20
4607.734488
 30
0.0
 41
30.0
 42
30.0
 50
180.0
 43
30.0
  0
INSERT
  8
SUNPOU
  2
ARROWANG
 10
4120.379458
 20
4607.734488
 30
0.0
 41
30.0
 42
30.0
 43
30.0
  0
TEXT
  8
SUNPOU
 10
3755.02233
 20
4652.734488
 30
0.0
 40
45.0
  1
600
  7
K
 72
     1
 11
3820.379473
 21
4652.734488
 31
0.0
  0
LINE
  8
SUNPOU
 10
3096.371193
 20
4807.734488
 30
0.0
 11
3096.371193
 21
4807.734488
 31
0.0
  0
LINE
  8
SUNPOU
 10
3096.371193
 20
4837.734488
 30
0.0
 11
3096.371193
 21
4837.734488
 31
0.0
  0
LINE
  8
SUNPOU
 10
3066.371193
 20
4807.734488
 30
0.0
 11
3066.371193
 21
4837.734488
 31
0.0
  0
INSERT
  8
SUNPOU
  2
ARROWANG
 10
3066.371193
 20
4807.734488
 30
0.0
 41
30.0
 42
30.0
 50
90.0
 43
30.0
  0
INSERT
  8
SUNPOU
  2
ARROWANG
 10
3066.371193
 20
4837.734488
 30
0.0
 41
30.0
 42
30.0
 50
270.0
 43
30.0
  0
LINE
  8
SUNPOU
 10
3066.371193
 20
4807.734488
 30
0.0
 11
3066.371193
 21
4708.734488
 31
0.0
  0
LINE
  8
SUNPOU
 10
3066.371193
 20
4837.734488
 30
0.0
 11
3066.371193
 21
4897.734488
 31
0.0
  0
TEXT
  8
SUNPOU
 10
3021.371193
 20
4715.377345
 30
0.0
 40
45.0
  1
30
 50
90.0
  7
K
 72
     1
 11
3021.371193
 21
4758.234488
 31
0.0
  0
LINE
  8
SUNPOU
 10
4150.379458
 20
4807.734488
 30
0.0
 11
4450.379458
 21
4807.734488
 31
0.0
  0
LINE
  8
SUNPOU
 10
4150.379458
 20
4972.734488
 30
0.0
 11
4450.379458
 21
4972.734488
 31
0.0
  0
LINE
  8
SUNPOU
 10
4420.379458
 20
4807.734488
 30
0.0
 11
4420.379458
 21
4972.734488
 31
0.0
  0
INSERT
  8
SUNPOU
  2
ARROWANG
 10
4420.379458
 20
4807.734488
 30
0.0
 41
30.0
 42
30.0
 50
270.0
 43
30.0
  0
INSERT
  8
SUNPOU
  2
ARROWANG
 10
4420.379458
 20
4972.734488
 30
0.0
 41
30.0
 42
30.0
 50
90.0
 43
30.0
  0
TEXT
  8
SUNPOU
 10
4375.379458
 20
4822.734488
 30
0.0
 40
45.0
  1
165
 50
90.0
  7
K
 72
     1
 11
4375.379458
 21
4890.234488
 31
0.0
  0
LINE
  8
SUNPOU
 10
4290.379458
 20
4957.734488
 30
0.0
 11
4280.550305
 21
4957.734488
 31
0.0
  0
LINE
  8
SUNPOU
 10
4290.379458
 20
4972.734488
 30
0.0
 11
4280.550305
 21
4972.734488
 31
0.0
  0
LINE
  8
SUNPOU
 10
4190.379458
 20
4892.734488
 30
0.0
 11
4173.359489
 21
4892.734488
 31
0.0
  0
LINE
  8
SUNPOU
 10
4190.379458
 20
4957.734488
 30
0.0
 11
4173.359489
 21
4957.734488
 31
0.0
  0
LINE
  8
SUNPOU
 10
4931.777011
 20
4577.734488
 30
0.0
 11
4931.777011
 21
4577.734488
 31
0.0
  0
LINE
  8
SUNPOU
 10
5531.777011
 20
4577.734488
 30
0.0
 11
5531.777011
 21
4577.734488
 31
0.0
  0
LINE
  8
SUNPOU
 10
4931.777011
 20
4607.734488
 30
0.0
 11
5531.777011
 21
4607.734488
 31
0.0
  0
INSERT
  8
SUNPOU
  2
ARROWANG
 10
4931.777011
 20
4607.734488
 30
0.0
 41
30.0
 42
30.0
 50
180.0
 43
30.0
  0
INSERT
  8
SUNPOU
  2
ARROWANG
 10
5531.777011
 20
4607.734488
 30
0.0
 41
30.0
 42
30.0
 43
30.0
  0
TEXT
  8
SUNPOU
 10
5166.419883
 20
4652.734488
 30
0.0
 40
45.0
  1
600
  7
K
 72
     1
 11
5231.777026
 21
4652.734488
 31
0.0
  0
LINE
  8
SUNPOU
 10
5531.777011
 20
4577.734488
 30
0.0
 11
5531.777011
 21
4577.734488
 31
0.0
  0
LINE
  8
SUNPOU
 10
6131.777011
 20
4577.734488
 30
0.0
 11
6131.777011
 21
4577.734488
 31
0.0
  0
LINE
  8
SUNPOU
 10
5531.777011
 20
4607.734488
 30
0.0
 11
6131.777011
 21
4607.734488
 31
0.0
  0
INSERT
  8
SUNPOU
  2
ARROWANG
 10
5531.777011
 20
4607.734488
 30
0.0
 41
30.0
 42
30.0
 50
180.0
 43
30.0
  0
INSERT
  8
SUNPOU
  2
ARROWANG
 10
6131.777011
 20
4607.734488
 30
0.0
 41
30.0
 42
30.0
 43
30.0
  0
TEXT
  8
SUNPOU
 10
5766.419883
 20
4652.734488
 30
0.0
 40
45.0
  1
600
  7
K
 72
     1
 11
5831.777026
 21
4652.734488
 31
0.0
  0
LINE
  8
SUNPOU
 10
6131.777011
 20
4577.734488
 30
0.0
 11
6131.777011
 21
4577.734488
 31
0.0
  0
LINE
  8
SUNPOU
 10
6731.777011
 20
4577.734488
 30
0.0
 11
6731.777011
 21
4577.734488
 31
0.0
  0
LINE
  8
SUNPOU
 10
6131.777011
 20
4607.734488
 30
0.0
 11
6731.777011
 21
4607.734488
 31
0.0
  0
INSERT
  8
SUNPOU
  2
ARROWANG
 10
6131.777011
 20
4607.734488
 30
0.0
 41
30.0
 42
30.0
 50
180.0
 43
30.0
  0
INSERT
  8
SUNPOU
  2
ARROWANG
 10
6731.777011
 20
4607.734488
 30
0.0
 41
30.0
 42
30.0
 43
30.0
  0
TEXT
  8
SUNPOU
 10
6366.419883
 20
4652.734488
 30
0.0
 40
45.0
  1
600
  7
K
 72
     1
 11
6431.777026
 21
4652.734488
 31
0.0
  0
LINE
  8
SUNPOU
 10
4931.777011
 20
4477.734488
 30
0.0
 11
4931.777011
 21
4477.734488
 31
0.0
  0
LINE
  8
SUNPOU
 10
6731.777011
 20
4477.734488
 30
0.0
 11
6731.777011
 21
4477.734488
 31
0.0
  0
LINE
  8
SUNPOU
 10
4931.777011
 20
4507.734488
 30
0.0
 11
6731.777011
 21
4507.734488
 31
0.0
  0
INSERT
  8
SUNPOU
  2
ARROWANG
 10
4931.777011
 20
4507.734488
 30
0.0
 41
30.0
 42
30.0
 50
180.0
 43
30.0
  0
INSERT
  8
SUNPOU
  2
ARROWANG
 10
6731.777011
 20
4507.734488
 30
0.0
 41
30.0
 42
30.0
 43
30.0
  0
TEXT
  8
SUNPOU
 10
5742.848454
 20
4552.734488
 30
0.0
 40
45.0
  1
1800
  7
K
 72
     1
 11
5831.777026
 21
4552.734488
 31
0.0
  0
LINE
  8
SUNPOU
 10
6761.777011
 20
4807.790045
 30
0.0
 11
7061.777011
 21
4807.790045
 31
0.0
  0
LINE
  8
SUNPOU
 10
6761.777011
 20
4972.790045
 30
0.0
 11
7061.777011
 21
4972.790045
 31
0.0
  0
LINE
  8
SUNPOU
 10
7031.777011
 20
4807.790045
 30
0.0
 11
7031.777011
 21
4972.790045
 31
0.0
  0
INSERT
  8
SUNPOU
  2
ARROWANG
 10
7031.777011
 20
4807.790045
 30
0.0
 41
30.0
 42
30.0
 50
270.0
 43
30.0
  0
INSERT
  8
SUNPOU
  2
ARROWANG
 10
7031.777011
 20
4972.790045
 30
0.0
 41
30.0
 42
30.0
 50
90.0
 43
30.0
  0
TEXT
  8
SUNPOU
 10
6986.777011
 20
4822.790045
 30
0.0
 40
45.0
  1
165
 50
90.0
  7
K
 72
     1
 11
6986.777011
 21
4890.290045
 31
0.0
  0
LINE
  8
SUNPOU
 10
6961.777011
 20
4957.790045
 30
0.0
 11
6961.777011
 21
4957.790045
 31
0.0
  0
LINE
  8
SUNPOU
 10
6961.777011
 20
4972.790045
 30
0.0
 11
6961.777011
 21
4972.790045
 31
0.0
  0
LINE
  8
SUNPOU
 10
6931.777011
 20
4957.790045
 30
0.0
 11
6931.777011
 21
4972.790045
 31
0.0
  0
INSERT
  8
SUNPOU
  2
ARROWANG
 10
6931.777011
 20
4957.790045
 30
0.0
 41
30.0
 42
30.0
 50
90.0
 43
30.0
  0
INSERT
  8
SUNPOU
  2
ARROWANG
 10
6931.777011
 20
4972.790045
 30
0.0
 41
30.0
 42
30.0
 50
270.0
 43
30.0
  0
LINE
  8
SUNPOU
 10
6931.777011
 20
4972.790045
 30
0.0
 11
6931.777011
 21
5071.790045
 31
0.0
  0
LINE
  8
SUNPOU
 10
6931.777011
 20
4957.790045
 30
0.0
 11
6931.777012
 21
4897.790045
 31
0.0
  0
TEXT
  8
SUNPOU
 10
6886.777011
 20
4976.218616
 30
0.0
 40
45.0
  1
15
 50
90.0
  7
K
 72
     1
 11
6886.777011
 21
5022.290045
 31
0.0
  0
LINE
  8
SUNPOU
 10
6861.777011
 20
4892.790045
 30
0.0
 11
6861.777011
 21
4892.790045
 31
0.0
  0
LINE
  8
SUNPOU
 10
6861.777011
 20
4972.790045
 30
0.0
 11
6861.777011
 21
4972.790045
 31
0.0
  0
LINE
  8
SUNPOU
 10
6831.777011
 20
4892.790045
 30
0.0
 11
6831.777011
 21
4972.790045
 31
0.0
  0
INSERT
  8
SUNPOU
  2
ARROWANG
 10
6831.777011
 20
4892.790045
 30
0.0
 41
30.0
 42
30.0
 50
90.0
 43
30.0
  0
INSERT
  8
SUNPOU
  2
ARROWANG
 10
6831.777011
 20
4972.790045
 30
0.0
 41
30.0
 42
30.0
 50
270.0
 43
30.0
  0
LINE
  8
SUNPOU
 10
6831.777011
 20
4972.790045
 30
0.0
 11
6831.777011
 21
5071.790045
 31
0.0
  0
LINE
  8
SUNPOU
 10
6831.777011
 20
4892.790045
 30
0.0
 11
6831.777012
 21
4832.790045
 31
0.0
  0
TEXT
  8
SUNPOU
 10
6786.777011
 20
4979.432902
 30
0.0
 40
45.0
  1
80
 50
90.0
  7
K
 72
     1
 11
6786.777011
 21
5022.290045
 31
0.0
  0
LINE
  8
SUNPOU
 10
4250.379458
 20
4892.734488
 30
0.0
 11
4250.379458
 21
4892.734488
 31
0.0
  0
LINE
  8
SUNPOU
 10
4250.379458
 20
4972.734488
 30
0.0
 11
4250.379458
 21
4972.734488
 31
0.0
  0
LINE
  8
SUNPOU
 10
4220.379458
 20
4892.734488
 30
0.0
 11
4220.379458
 21
4972.734488
 31
0.0
  0
INSERT
  8
SUNPOU
  2
ARROWANG
 10
4220.379458
 20
4892.734488
 30
0.0
 41
30.0
 42
30.0
 50
90.0
 43
30.0
  0
INSERT
  8
SUNPOU
  2
ARROWANG
 10
4220.379458
 20
4972.734488
 30
0.0
 41
30.0
 42
30.0
 50
270.0
 43
30.0
  0
LINE
  8
SUNPOU
 10
4220.379458
 20
4972.734488
 30
0.0
 11
4220.379458
 21
5071.734488
 31
0.0
  0
LINE
  8
SUNPOU
 10
4220.379458
 20
4892.734488
 30
0.0
 11
4220.379459
 21
4832.734488
 31
0.0
  0
TEXT
  8
SUNPOU
 10
4175.379458
 20
4979.377345
 30
0.0
 40
45.0
  1
80
 50
90.0
  7
K
 72
     1
 11
4175.379458
 21
5022.234488
 31
0.0
  0
LINE
  8
SUNPOU
 10
4350.379458
 20
4957.734488
 30
0.0
 11
4350.379458
 21
4957.734488
 31
0.0
  0
LINE
  8
SUNPOU
 10
4350.379458
 20
4972.734488
 30
0.0
 11
4350.379458
 21
4972.734488
 31
0.0
  0
LINE
  8
SUNPOU
 10
4320.379458
 20
4957.734488
 30
0.0
 11
4320.379458
 21
4972.734488
 31
0.0
  0
INSERT
  8
SUNPOU
  2
ARROWANG
 10
4320.379458
 20
4957.734488
 30
0.0
 41
30.0
 42
30.0
 50
90.0
 43
30.0
  0
INSERT
  8
SUNPOU
  2
ARROWANG
 10
4320.379458
 20
4972.734488
 30
0.0
 41
30.0
 42
30.0
 50
270.0
 43
30.0
  0
LINE
  8
SUNPOU
 10
4320.379458
 20
4972.734488
 30
0.0
 11
4320.379458
 21
5071.734488
 31
0.0
  0
LINE
  8
SUNPOU
 10
4320.379458
 20
4957.734488
 30
0.0
 11
4320.379459
 21
4897.734488
 31
0.0
  0
TEXT
  8
SUNPOU
 10
4275.379458
 20
4976.163059
 30
0.0
 40
45.0
  1
15
 50
90.0
  7
K
 72
     1
 11
4275.379458
 21
5022.234488
 31
0.0
  0
TEXT
  8
TEXT
 10
2992.32364
 20
7597.133443
 30
0.0
 40
300.0
  1
組立マンホール構造図 (内径1500mm)
  7
K
  0
TEXT
  8
TEXT
 10
5639.47808
 20
5364.951564
 30
0.0
 40
150.0
  1
底版
  7
K
  0
TEXT
  8
TEXT
 10
3028.900746
 20
5139.479304
 30
0.0
 40
90.0
  1
M3PB
  7
K
  0
TEXT
  8
TEXT
 10
5683.002267
 20
5139.479304
 30
0.0
 40
90.0
  1
M3P
  7
K
  0
LINE
  8
TENSEN
 10
4045.379458
 20
3488.702912
 30
0.0
 11
4045.379458
 21
3468.702912
 31
0.0
  0
LINE
  8
TENSEN
 10
4120.323901
 20
3468.702912
 30
0.0
 11
4045.379458
 21
3468.702912
 31
0.0
  0
LINE
  8
TENSEN
 10
4120.323901
 20
3488.702912
 30
0.0
 11
4045.379458
 21
3488.702912
 31
0.0
  0
TEXT
  8
TEXT
 10
8294.399819
 20
5139.479304
 30
0.0
 40
90.0
  1
M3PF
  7
K
  0
TEXT
  8
SUNPOU
 10
9398.174563
 20
4979.432902
 30
0.0
 40
45.0
  1
80
 50
90.0
  7
K
 72
     1
 11
9398.174563
 21
5022.290045
 31
0.0
  0
LINE
  8
SUNPOU
 10
9443.174563
 20
4892.790045
 30
0.0
 11
9443.174565
 21
4832.790045
 31
0.0
  0
LINE
  8
SUNPOU
 10
9443.174563
 20
4972.790045
 30
0.0
 11
9443.174563
 21
5071.790045
 31
0.0
  0
INSERT
  8
SUNPOU
  2
ARROWANG
 10
9443.174563
 20
4972.790045
 30
0.0
 41
30.0
 42
30.0
 50
270.0
 43
30.0
  0
INSERT
  8
SUNPOU
  2
ARROWANG
 10
9443.174563
 20
4892.790045
 30
0.0
 41
30.0
 42
30.0
 50
90.0
 43
30.0
  0
LINE
  8
SUNPOU
 10
9443.174563
 20
4892.790045
 30
0.0
 11
9443.174563
 21
4972.790045
 31
0.0
  0
LINE
  8
SUNPOU
 10
9473.174563
 20
4972.790045
 30
0.0
 11
9473.174563
 21
4972.790045
 31
0.0
  0
LINE
  8
SUNPOU
 10
9473.174563
 20
4892.790045
 30
0.0
 11
9473.174563
 21
4892.790045
 31
0.0
  0
TEXT
  8
SUNPOU
 10
9498.174563
 20
4976.218616
 30
0.0
 40
45.0
  1
15
 50
90.0
  7
K
 72
     1
 11
9498.174563
 21
5022.290045
 31
0.0
  0
LINE
  8
SUNPOU
 10
9543.174563
 20
4957.790045
 30
0.0
 11
9543.174565
 21
4897.790045
 31
0.0
  0
LINE
  8
SUNPOU
 10
9543.174563
 20
4972.790045
 30
0.0
 11
9543.174563
 21
5071.790045
 31
0.0
  0
INSERT
  8
SUNPOU
  2
ARROWANG
 10
9543.174563
 20
4972.790045
 30
0.0
 41
30.0
 42
30.0
 50
270.0
 43
30.0
  0
INSERT
  8
SUNPOU
  2
ARROWANG
 10
9543.174563
 20
4957.790045
 30
0.0
 41
30.0
 42
30.0
 50
90.0
 43
30.0
  0
LINE
  8
SUNPOU
 10
9543.174563
 20
4957.790045
 30
0.0
 11
9543.174563
 21
4972.790045
 31
0.0
  0
LINE
  8
SUNPOU
 10
9573.174563
 20
4972.790045
 30
0.0
 11
9573.174563
 21
4972.790045
 31
0.0
  0
LINE
  8
SUNPOU
 10
9573.174563
 20
4957.790045
 30
0.0
 11
9573.174563
 21
4957.790045
 31
0.0
  0
TEXT
  8
SUNPOU
 10
9598.174563
 20
4822.790045
 30
0.0
 40
45.0
  1
165
 50
90.0
  7
K
 72
     1
 11
9598.174563
 21
4890.290045
 31
0.0
  0
INSERT
  8
SUNPOU
  2
ARROWANG
 10
9643.174563
 20
4972.790045
 30
0.0
 41
30.0
 42
30.0
 50
90.0
 43
30.0
  0
INSERT
  8
SUNPOU
  2
ARROWANG
 10
9643.174563
 20
4807.790045
 30
0.0
 41
30.0
 42
30.0
 50
270.0
 43
30.0
  0
LINE
  8
SUNPOU
 10
9643.174563
 20
4807.790045
 30
0.0
 11
9643.174563
 21
4972.790045
 31
0.0
  0
LINE
  8
SUNPOU
 10
9373.174563
 20
4972.790045
 30
0.0
 11
9673.174563
 21
4972.790045
 31
0.0
  0
LINE
  8
SUNPOU
 10
9373.174563
 20
4807.790045
 30
0.0
 11
9673.174563
 21
4807.790045
 31
0.0
  0
TEXT
  8
SUNPOU
 10
8354.246007
 20
4552.734488
 30
0.0
 40
45.0
  1
1800
  7
K
 72
     1
 11
8443.174578
 21
4552.734488
 31
0.0
  0
INSERT
  8
SUNPOU
  2
ARROWANG
 10
9343.174563
 20
4507.734488
 30
0.0
 41
30.0
 42
30.0
 43
30.0
  0
INSERT
  8
SUNPOU
  2
ARROWANG
 10
7543.174563
 20
4507.734488
 30
0.0
 41
30.0
 42
30.0
 50
180.0
 43
30.0
  0
LINE
  8
SUNPOU
 10
7543.174563
 20
4507.734488
 30
0.0
 11
9343.174563
 21
4507.734488
 31
0.0
  0
LINE
  8
SUNPOU
 10
9343.174563
 20
4477.734488
 30
0.0
 11
9343.174563
 21
4477.734488
 31
0.0
  0
LINE
  8
SUNPOU
 10
7543.174563
 20
4477.734488
 30
0.0
 11
7543.174563
 21
4477.734488
 31
0.0
  0
LINE
  8
TENSEN
 10
9343.119006
 20
3468.758469
 30
0.0
 11
9268.174563
 21
3468.758469
 31
0.0
  0
LINE
  8
TENSEN
 10
9268.174563
 20
3488.758469
 30
0.0
 11
9268.174563
 21
3468.758469
 31
0.0
  0
LINE
  8
TENSEN
 10
9343.119006
 20
3488.758469
 30
0.0
 11
9268.174563
 21
3488.758469
 31
0.0
  0
POINT
  8
JISSEN
 10
8444.174563
 20
3478.758469
 30
0.0
  0
LINE
  8
ITTEN
 10
9443.174563
 20
3478.758469
 30
0.0
 11
7443.174563
 21
3478.758469
 31
0.0
  0
LINE
  8
ITTEN
 10
8443.174563
 20
4478.758469
 30
0.0
 11
8443.174563
 21
2478.758469
 31
0.0
  0
LINE
  8
JISSEN
 10
7543.174563
 20
4972.790045
 30
0.0
 11
7543.174563
 21
4807.790045
 31
0.0
  0
LINE
  8
JISSEN
 10
7543.174563
 20
4972.790045
 30
0.0
 11
7653.174563
 21
4972.790045
 31
0.0
  0
LINE
  8
JISSEN
 10
7653.174563
 20
4972.790045
 30
0.0
 11
7660.174563
 21
4957.790045
 31
0.0
  0
LINE
  8
JISSEN
 10
7543.174563
 20
4902.790045
 30
0.0
 11
7618.174563
 21
4902.790045
 31
0.0
  0
LINE
  8
JISSEN
 10
7618.174563
 20
4902.790045
 30
0.0
 11
7618.174563
 21
4882.790045
 31
0.0
  0
LINE
  8
JISSEN
 10
7618.174563
 20
4882.790045
 30
0.0
 11
7543.174563
 21
4882.790045
 31
0.0
  0
LINE
  8
JISSEN
 10
7653.174563
 20
4972.790045
 30
0.0
 11
8443.174563
 21
4972.790045
 31
0.0
  0
LINE
  8
JISSEN
 10
8443.174563
 20
4957.790045
 30
0.0
 11
7660.174563
 21
4957.790045
 31
0.0
  0
LINE
  8
JISSEN
 10
7543.174563
 20
4807.790045
 30
0.0
 11
8443.174563
 21
4807.790045
 31
0.0
  0
LINE
  8
JISSEN
 10
9343.174563
 20
4807.790045
 30
0.0
 11
8443.174563
 21
4807.790045
 31
0.0
  0
LINE
  8
TENSEN
 10
8443.174563
 20
4957.790045
 30
0.0
 11
9226.174563
 21
4957.790045
 31
0.0
  0
LINE
  8
JISSEN
 10
9233.174563
 20
4972.790045
 30
0.0
 11
8443.174563
 21
4972.790045
 31
0.0
  0
LINE
  8
TENSEN
 10
9268.174563
 20
4882.790045
 30
0.0
 11
9343.174563
 21
4882.790045
 31
0.0
  0
LINE
  8
TENSEN
 10
9268.174563
 20
4902.790045
 30
0.0
 11
9268.174563
 21
4882.790045
 31
0.0
  0
LINE
  8
TENSEN
 10
9343.174563
 20
4902.790045
 30
0.0
 11
9268.174563
 21
4902.790045
 31
0.0
  0
LINE
  8
JISSEN
 10
9233.174563
 20
4972.790045
 30
0.0
 11
9226.174563
 21
4957.790045
 31
0.0
  0
LINE
  8
JISSEN
 10
9343.174563
 20
4972.790045
 30
0.0
 11
9233.174563
 21
4972.790045
 31
0.0
  0
LINE
  8
JISSEN
 10
9343.174563
 20
4972.790045
 30
0.0
 11
9343.174563
 21
4807.790045
 31
0.0
  0
LINE
  8
ITTEN
 10
8443.174563
 20
5042.790045
 30
0.0
 11
8443.174563
 21
4742.790045
 31
0.0
  0
LINE
  8
SUNPOU
 10
7543.174563
 20
4777.790045
 30
0.0
 11
7543.174563
 21
4477.790045
 31
0.0
  0
LINE
  8
SUNPOU
 10
9343.174563
 20
4777.790045
 30
0.0
 11
9343.174563
 21
4477.790045
 31
0.0
  0
LINE
  8
SUNPOU
 10
8258.384496
 20
4807.790045
 30
0.0
 11
8258.384496
 21
4807.790045
 31
0.0
  0
LINE
  8
SUNPOU
 10
8258.384496
 20
4837.790045
 30
0.0
 11
8258.384496
 21
4837.790045
 31
0.0
  0
LINE
  8
SUNPOU
 10
9256.174563
 20
4957.790045
 30
0.0
 11
9573.174563
 21
4957.790045
 31
0.0
  0
LINE
  8
SUNPOU
 10
9272.688682
 20
4892.790045
 30
0.0
 11
9473.174563
 21
4892.790045
 31
0.0
  0
CIRCLE
  8
JISSEN
 10
8443.174563
 20
3478.758469
 30
0.0
 40
900.0
  0
CIRCLE
  8
JISSEN
 10
8443.174563
 20
3478.758469
 30
0.0
 40
790.0
  0
CIRCLE
  8
JISSEN
 10
8443.174563
 20
3478.758469
 30
0.0
 40
783.0
  0
LINE
  8
TENSEN
 10
8433.174563
 20
2578.814026
 30
0.0
 11
8433.174563
 21
2653.758469
 31
0.0
  0
LINE
  8
TENSEN
 10
8453.174563
 20
2653.758469
 30
0.0
 11
8433.174563
 21
2653.758469
 31
0.0
  0
LINE
  8
TENSEN
 10
8453.174563
 20
2578.814026
 30
0.0
 11
8453.174563
 21
2653.758469
 31
0.0
  0
POINT
  8
TENSEN
 10
8443.174563
 20
3604.955809
 30
0.0
  0
LINE
  8
TENSEN
 10
7543.230121
 20
3488.758469
 30
0.0
 11
7618.174563
 21
3488.758469
 31
0.0
  0
LINE
  8
TENSEN
 10
7618.174563
 20
3468.758469
 30
0.0
 11
7618.174563
 21
3488.758469
 31
0.0
  0
LINE
  8
TENSEN
 10
7543.230121
 20
3468.758469
 30
0.0
 11
7618.174563
 21
3468.758469
 31
0.0
  0
LINE
  8
TENSEN
 10
8433.174563
 20
4378.702912
 30
0.0
 11
8433.174563
 21
4303.758469
 31
0.0
  0
LINE
  8
TENSEN
 10
8453.174563
 20
4378.702912
 30
0.0
 11
8453.174563
 21
4303.758469
 31
0.0
  0
LINE
  8
TENSEN
 10
8433.174563
 20
4303.758469
 30
0.0
 11
8453.174563
 21
4303.758469
 31
0.0
  0
POINT
  8
JISSEN
 10
8443.174563
 20
3479.758469
 30
0.0
  0
POLYLINE
  8
WAKU
 66
     1
 10
0.0
 20
0.0
 30
0.0
 70
     1
  0
VERTEX
  8
WAKU
 10
0.0
 20
0.0
 30
0.0
  0
VERTEX
  8
WAKU
 10
11850.0
 20
0.0
 30
0.0
  0
VERTEX
  8
WAKU
 10
11850.0
 20
8190.0
 30
0.0
  0
VERTEX
  8
WAKU
 10
0.0
 20
8190.0
 30
0.0
  0
SEQEND
  8
WAKU
  0
TEXT
  8
TEXT
 10
11199.324942
 20
720.161232
 30
0.0
 40
150.0
  1
1/30
  7
K
  0
ENDSEC
  0
EOF
