  0
SECTION
  2
HEADER
  9
$ACADVER
  1
AC1009
  9
$INSBASE
 10
0.0
 20
0.0
 30
0.0
  9
$EXTMIN
 10
0.0
 20
0.0
 30
0.0
  9
$EXTMAX
 10
11850.0
 20
8190.0
 30
0.0
  9
$LIMMIN
 10
0.0
 20
0.0
  9
$LIMMAX
 10
11850.0
 20
8190.0
  9
$ORTHOMODE
 70
     0
  9
$REGENMODE
 70
     1
  9
$FILLMODE
 70
     1
  9
$QTEXTMODE
 70
     0
  9
$MIRRTEXT
 70
     0
  9
$DRAGMODE
 70
     2
  9
$LTSCALE
 40
150.0
  9
$OSMODE
 70
    32
  9
$ATTMODE
 70
     1
  9
$TEXTSIZE
 40
45.0
  9
$TRACEWID
 40
0.05
  9
$TEXTSTYLE
  7
K
  9
$CLAYER
  8
TENSEN
  9
$CELTYPE
  6
BYLAYER
  9
$CECOLOR
 62
   256
  9
$DIMSCALE
 40
30.0
  9
$DIMASZ
 40
1.5
  9
$DIMEXO
 40
1.0
  9
$DIMDLI
 40
6.0
  9
$DIMRND
 40
0.0
  9
$DIMDLE
 40
0.0
  9
$DIMEXE
 40
1.0
  9
$DIMTP
 40
495.0
  9
$DIMTM
 40
0.0
  9
$DIMTXT
 40
3.0
  9
$DIMCEN
 40
0.0
  9
$DIMTSZ
 40
0.0
  9
$DIMTOL
 70
     0
  9
$DIMLIM
 70
     0
  9
$DIMTIH
 70
     0
  9
$DIMTOH
 70
     0
  9
$DIMSE1
 70
     0
  9
$DIMSE2
 70
     0
  9
$DIMTAD
 70
     1
  9
$DIMZIN
 70
     8
  9
$DIMBLK
  1
ARROW
  9
$DIMASO
 70
     0
  9
$DIMSHO
 70
     0
  9
$DIMPOST
  1

  9
$DIMAPOST
  1

  9
$DIMALT
 70
     0
  9
$DIMALTD
 70
     2
  9
$DIMALTF
 40
25.4
  9
$DIMLFAC
 40
1.0
  9
$DIMTOFL
 70
     1
  9
$DIMTVP
 40
0.0
  9
$DIMTIX
 70
     1
  9
$DIMSOXD
 70
     0
  9
$DIMSAH
 70
     0
  9
$DIMBLK1
  1

  9
$DIMBLK2
  1

  9
$DIMSTYLE
  2
*UNNAMED
  9
$DIMCLRD
 70
     0
  9
$DIMCLRE
 70
     0
  9
$DIMCLRT
 70
     0
  9
$DIMTFAC
 40
1.0
  9
$DIMGAP
 40
0.09
  9
$LUNITS
 70
     2
  9
$LUPREC
 70
     2
  9
$AXISMODE
 70
     0
  9
$AXISUNIT
 10
100.0
 20
100.0
  9
$SKETCHINC
 40
0.1
  9
$FILLETRAD
 40
9.5
  9
$AUNITS
 70
     0
  9
$AUPREC
 70
     2
  9
$MENU
  1
d:stdgx5
  9
$ELEVATION
 40
0.0
  9
$PELEVATION
 40
0.0
  9
$THICKNESS
 40
0.0
  9
$LIMCHECK
 70
     0
  9
$BLIPMODE
 70
     1
  9
$CHAMFERA
 40
0.0
  9
$CHAMFERB
 40
0.0
  9
$SKPOLY
 70
     0
  9
$TDCREATE
 40
2450248.554490740
  9
$TDUPDATE
 40
2450248.573715277
  9
$TDINDWG
 40
0.0069444444
  9
$TDUSRTIMER
 40
0.0069444444
  9
$USRTIMER
 70
     1
  9
$ANGBASE
 50
0.0
  9
$ANGDIR
 70
     0
  9
$PDMODE
 70
     0
  9
$PDSIZE
 40
0.0
  9
$PLINEWID
 40
0.0
  9
$COORDS
 70
     2
  9
$SPLFRAME
 70
     0
  9
$SPLINETYPE
 70
     6
  9
$SPLINESEGS
 70
     8
  9
$ATTDIA
 70
     0
  9
$ATTREQ
 70
     1
  9
$HANDLING
 70
     0
  9
$HANDSEED
  5
0
  9
$SURFTAB1
 70
     6
  9
$SURFTAB2
 70
     6
  9
$SURFTYPE
 70
     6
  9
$SURFU
 70
     6
  9
$SURFV
 70
     6
  9
$UCSNAME
  2

  9
$UCSORG
 10
0.0
 20
0.0
 30
0.0
  9
$UCSXDIR
 10
1.0
 20
0.0
 30
0.0
  9
$UCSYDIR
 10
0.0
 20
1.0
 30
0.0
  9
$PUCSNAME
  2

  9
$PUCSORG
 10
0.0
 20
0.0
 30
0.0
  9
$PUCSXDIR
 10
1.0
 20
0.0
 30
0.0
  9
$PUCSYDIR
 10
0.0
 20
1.0
 30
0.0
  9
$USERI1
 70
     3
  9
$USERI2
 70
    32
  9
$USERI3
 70
     0
  9
$USERI4
 70
     1
  9
$USERI5
 70
     0
  9
$USERR1
 40
30.0
  9
$USERR2
 40
3.0
  9
$USERR3
 40
3.0
  9
$USERR4
 40
1.5
  9
$USERR5
 40
10.0
  9
$WORLDVIEW
 70
     1
  9
$SHADEDGE
 70
     3
  9
$SHADEDIF
 70
    70
  9
$TILEMODE
 70
     1
  9
$MAXACTVP
 70
    16
  9
$PINSBASE
 10
0.0
 20
0.0
 30
0.0
  9
$PLIMCHECK
 70
     0
  9
$PEXTMIN
 10
1.000000E+20
 20
1.000000E+20
 30
1.000000E+20
  9
$PEXTMAX
 10
-1.000000E+20
 20
-1.000000E+20
 30
-1.000000E+20
  9
$PLIMMIN
 10
0.0
 20
0.0
  9
$PLIMMAX
 10
12.0
 20
9.0
  9
$UNITMODE
 70
     0
  9
$VISRETAIN
 70
     0
  0
ENDSEC
  0
SECTION
  2
TABLES
  0
TABLE
  2
VPORT
 70
    10
  0
VPORT
  2
*ACTIVE
 70
     0
 10
0.0
 20
0.0
 11
1.0
 21
1.0
 12
6691.515737
 22
4095.0
 13
0.0
 23
0.0
 14
1.0
 24
1.0
 15
10.0
 25
10.0
 16
0.0
 26
0.0
 36
1.0
 17
0.0
 27
0.0
 37
0.0
 40
8190.0
 41
1.63407
 42
50.0
 43
0.0
 44
0.0
 50
0.0
 51
0.0
 71
     0
 72
   500
 73
     1
 74
     0
 75
     0
 76
     0
 77
     0
 78
     0
  0
VPORT
  2
2
 70
     0
 10
0.5
 20
0.0
 11
1.0
 21
1.0
 12
0.924031
 22
1.052651
 13
0.0
 23
0.0
 14
1.0
 24
1.0
 15
10.0
 25
10.0
 16
0.0
 26
0.0
 36
1.0
 17
0.0
 27
0.0
 37
0.0
 40
2.105302
 41
0.877814
 42
50.0
 43
0.0
 44
0.0
 50
0.0
 51
0.0
 71
     0
 72
   500
 73
     1
 74
     1
 75
     0
 76
     0
 77
     0
 78
     0
  0
VPORT
  2
2
 70
     0
 10
0.0
 20
0.0
 11
0.5
 21
1.0
 12
0.924031
 22
1.052651
 13
0.0
 23
0.0
 14
1.0
 24
1.0
 15
10.0
 25
10.0
 16
0.0
 26
0.0
 36
1.0
 17
0.0
 27
0.0
 37
0.0
 40
2.105302
 41
0.877814
 42
50.0
 43
0.0
 44
0.0
 50
0.0
 51
0.0
 71
     0
 72
   500
 73
     1
 74
     1
 75
     0
 76
     0
 77
     0
 78
     0
  0
VPORT
  2
3
 70
     0
 10
0.0
 20
0.5
 11
1.0
 21
1.0
 12
2.83217
 22
1.052651
 13
0.0
 23
0.0
 14
1.0
 24
1.0
 15
10.0
 25
10.0
 16
0.0
 26
0.0
 36
1.0
 17
0.0
 27
0.0
 37
0.0
 40
2.105302
 41
3.571429
 42
50.0
 43
0.0
 44
0.0
 50
0.0
 51
0.0
 71
     0
 72
   500
 73
     1
 74
     1
 75
     0
 76
     0
 77
     0
 78
     0
  0
VPORT
  2
3
 70
     0
 10
0.0
 20
0.0
 11
1.0
 21
0.5
 12
2.856742
 22
1.052651
 13
0.0
 23
0.0
 14
1.0
 24
1.0
 15
10.0
 25
10.0
 16
0.0
 26
0.0
 36
1.0
 17
0.0
 27
0.0
 37
0.0
 40
2.105302
 41
3.594771
 42
50.0
 43
0.0
 44
0.0
 50
0.0
 51
0.0
 71
     0
 72
   500
 73
     1
 74
     1
 75
     0
 76
     0
 77
     0
 78
     0
  0
VPORT
  2
4
 70
     0
 10
0.5
 20
0.0
 11
1.0
 21
0.5
 12
2.886858
 22
1.052651
 13
0.0
 23
0.0
 14
1.0
 24
1.0
 15
10.0
 25
10.0
 16
0.0
 26
0.0
 36
1.0
 17
0.0
 27
0.0
 37
0.0
 40
4.275207
 41
1.784314
 42
50.0
 43
0.0
 44
0.0
 50
0.0
 51
0.0
 71
     0
 72
   500
 73
     1
 74
     1
 75
     0
 76
     0
 77
     0
 78
     0
  0
VPORT
  2
4
 70
     0
 10
0.5
 20
0.5
 11
1.0
 21
1.0
 12
2.86209
 22
1.052651
 13
0.0
 23
0.0
 14
1.0
 24
1.0
 15
10.0
 25
10.0
 16
0.0
 26
0.0
 36
1.0
 17
0.0
 27
0.0
 37
0.0
 40
4.275207
 41
1.772727
 42
50.0
 43
0.0
 44
0.0
 50
0.0
 51
0.0
 71
     0
 72
   500
 73
     1
 74
     1
 75
     0
 76
     0
 77
     0
 78
     0
  0
VPORT
  2
4
 70
     0
 10
0.0
 20
0.5
 11
0.5
 21
1.0
 12
2.86209
 22
1.052651
 13
0.0
 23
0.0
 14
1.0
 24
1.0
 15
10.0
 25
10.0
 16
0.0
 26
0.0
 36
1.0
 17
0.0
 27
0.0
 37
0.0
 40
4.275207
 41
1.772727
 42
50.0
 43
0.0
 44
0.0
 50
0.0
 51
0.0
 71
     0
 72
   500
 73
     1
 74
     1
 75
     0
 76
     0
 77
     0
 78
     0
  0
VPORT
  2
4
 70
     0
 10
0.0
 20
0.0
 11
0.5
 21
0.5
 12
2.886858
 22
1.052651
 13
0.0
 23
0.0
 14
1.0
 24
1.0
 15
10.0
 25
10.0
 16
0.0
 26
0.0
 36
1.0
 17
0.0
 27
0.0
 37
0.0
 40
4.275207
 41
1.784314
 42
50.0
 43
0.0
 44
0.0
 50
0.0
 51
0.0
 71
     0
 72
   500
 73
     1
 74
     1
 75
     0
 76
     0
 77
     0
 78
     0
  0
ENDTAB
  0
TABLE
  2
LTYPE
 70
     5
  0
LTYPE
  2
CONTINUOUS
 70
    64
  3
実線
 72
    65
 73
     0
 40
0.0
  0
LTYPE
  2
DASHED
 70
    64
  3
__ __ __ __ __ __ __ __ __ __ __ __ __ __ __
 72
    65
 73
     2
 40
0.75
 49
0.5
 49
-0.25
  0
LTYPE
  2
CENTER
 70
    64
  3
____ _ ____ _ ____ _ ____ _ ____ _ ____ _ ____
 72
    65
 73
     4
 40
2.0
 49
1.25
 49
-0.25
 49
0.25
 49
-0.25
  0
LTYPE
  2
PHANTOM
 70
    64
  3
_____ _ _ _____ _ _ _____ _ _ _____ _ _ ____
 72
    65
 73
     6
 40
2.5
 49
1.25
 49
-0.25
 49
0.25
 49
-0.25
 49
0.25
 49
-0.25
  0
LTYPE
  2
HIDDEN
 70
    64
  3
_ _ _ _ _ _ _ _ _ _ _ _ _ _ _ _ _ _ _ _ _ _ _
 72
    65
 73
     2
 40
0.375
 49
0.25
 49
-0.125
  0
ENDTAB
  0
TABLE
  2
LAYER
 70
    14
  0
LAYER
  2
0
 70
    64
 62
     7
  6
CONTINUOUS
  0
LAYER
  2
ITTEN
 70
    64
 62
     1
  6
CENTER
  0
LAYER
  2
SUNPOU
 70
    64
 62
     3
  6
CONTINUOUS
  0
LAYER
  2
TEXT
 70
    64
 62
     3
  6
CONTINUOUS
  0
LAYER
  2
JISSEN
 70
    64
 62
     7
  6
CONTINUOUS
  0
LAYER
  2
HOJO
 70
    64
 62
    13
  6
CONTINUOUS
  0
LAYER
  2
TENSEN
 70
    64
 62
     2
  6
HIDDEN
  0
LAYER
  2
HOJOORG
 70
    64
 62
    -9
  6
CONTINUOUS
  0
LAYER
  2
WAKU
 70
    64
 62
    -5
  6
CONTINUOUS
  0
ENDTAB
  0
TABLE
  2
STYLE
 70
     2
  0
STYLE
  2
STANDARD
 70
     0
 40
0.0
 41
1.0
 50
0.0
 71
     0
 42
0.2
  3
ROMANS
  4
EXTFONT
  0
STYLE
  2
K
 70
    64
 40
0.0
 41
1.0
 50
0.0
 71
     0
 42
45.0
  3
ROMANS
  4
EXTFONT
  0
ENDTAB
  0
TABLE
  2
VIEW
 70
     0
  0
ENDTAB
  0
TABLE
  2
UCS
 70
     0
  0
ENDTAB
  0
TABLE
  2
APPID
 70
     1
  0
APPID
  2
ACAD
 70
    64
  0
ENDTAB
  0
TABLE
  2
DIMSTYLE
 70
     0
  0
ENDTAB
  0
ENDSEC
  0
SECTION
  2
BLOCKS
  0
BLOCK
  8
SUNPOU
  2
ARROWANG
 70
    64
 10
0.0
 20
0.0
 30
0.0
  3
ARROWANG
  0
LINE
  8
SUNPOU
 10
0.0
 20
0.0
 30
0.0
 11
-1.5
 21
0.401924
 31
0.0
  0
LINE
  8
SUNPOU
 10
0.0
 20
0.0
 30
0.0
 11
-1.5
 21
-0.401924
 31
0.0
  0
ENDBLK
  8
SUNPOU
  0
ENDSEC
  0
SECTION
  2
ENTITIES
  0
LINE
  8
JISSEN
 10
6600.45184
 20
5674.413702
 30
0.0
 11
6690.45184
 21
5674.413702
 31
0.0
  0
LINE
  8
JISSEN
 10
6690.45184
 20
5674.413702
 30
0.0
 11
6697.45184
 21
5651.413702
 31
0.0
  0
LINE
  8
JISSEN
 10
6697.45184
 20
5651.413702
 30
0.0
 11
6725.45184
 21
5651.413702
 31
0.0
  0
LINE
  8
JISSEN
 10
6600.45184
 20
5674.413702
 30
0.0
 11
6600.45184
 21
5074.413702
 31
0.0
  0
LINE
  8
JISSEN
 10
6697.45184
 20
5059.413702
 30
0.0
 11
6725.45184
 21
5059.413702
 31
0.0
  0
LINE
  8
JISSEN
 10
6725.45184
 20
5651.413702
 30
0.0
 11
6725.45184
 21
5059.413702
 31
0.0
  0
LINE
  8
JISSEN
 10
8225.45184
 20
5059.413702
 30
0.0
 11
8253.45184
 21
5059.413702
 31
0.0
  0
LINE
  8
JISSEN
 10
8253.45184
 20
5059.413702
 30
0.0
 11
8264.45184
 21
5074.413702
 31
0.0
  0
LINE
  8
JISSEN
 10
8264.45184
 20
5074.413702
 30
0.0
 11
8350.45184
 21
5074.413702
 31
0.0
  0
LINE
  8
JISSEN
 10
8350.45184
 20
5074.413702
 30
0.0
 11
8350.45184
 21
5174.413702
 31
0.0
  0
LINE
  8
TENSEN
 10
7625.45184
 20
5651.413702
 30
0.0
 11
7653.45184
 21
5651.413702
 31
0.0
  0
LINE
  8
TENSEN
 10
7653.45184
 20
5651.413702
 30
0.0
 11
7660.45184
 21
5674.413702
 31
0.0
  0
LINE
  8
JISSEN
 10
7660.45184
 20
5674.413702
 30
0.0
 11
7835.45184
 21
5674.413702
 31
0.0
  0
LINE
  8
JISSEN
 10
7835.45184
 20
5674.413702
 30
0.0
 11
8350.45184
 21
5174.413702
 31
0.0
  0
LINE
  8
TENSEN
 10
7625.45184
 20
5651.413702
 30
0.0
 11
7625.45184
 21
5591.413702
 31
0.0
  0
LINE
  8
TENSEN
 10
7625.45184
 20
5591.413702
 30
0.0
 11
8225.45184
 21
5059.413702
 31
0.0
  0
LINE
  8
JISSEN
 10
6725.45184
 20
5059.413702
 30
0.0
 11
8225.45184
 21
5059.413702
 31
0.0
  0
LINE
  8
JISSEN
 10
6690.45184
 20
5674.413702
 30
0.0
 11
7660.45184
 21
5674.413702
 31
0.0
  0
LINE
  8
ITTEN
 10
7135.714469
 20
5755.875311
 30
0.0
 11
7515.492021
 21
4977.331328
 31
0.0
  0
LINE
  8
JISSEN
 10
6725.45184
 20
5651.413702
 30
0.0
 11
7186.671352
 21
5651.413702
 31
0.0
  0
LINE
  8
TENSEN
 10
7186.671352
 20
5651.413702
 30
0.0
 11
7625.45184
 21
5651.413702
 31
0.0
  0
LINE
  8
JISSEN
 10
7419.354279
 20
5174.413702
 30
0.0
 11
8350.45184
 21
5174.413702
 31
0.0
  0
LINE
  8
JISSEN
 10
7468.134766
 20
5074.413702
 30
0.0
 11
8264.45184
 21
5074.413702
 31
0.0
  0
TEXT
  8
SUNPOU
 10
6960.45184
 20
5295.127987
 30
0.0
 40
45.0
  1
300
 50
90.0
  7
K
 72
     1
 11
6960.45184
 21
5359.413702
 31
0.0
  0
INSERT
  8
SUNPOU
  2
ARROWANG
 10
7005.45184
 20
5209.413702
 30
0.0
 41
30.0
 42
30.0
 50
90.0
 43
30.0
  0
LINE
  8
SUNPOU
 10
7005.45184
 20
5209.413702
 30
0.0
 11
7005.45184
 21
5209.413702
 31
0.0
  0
LINE
  8
SUNPOU
 10
7035.45184
 20
5209.413702
 30
0.0
 11
7035.45184
 21
5209.413702
 31
0.0
  0
LINE
  8
SUNPOU
 10
7035.45184
 20
5209.413702
 30
0.0
 11
7035.45184
 21
5209.413702
 31
0.0
  0
LINE
  8
SUNPOU
 10
6975.45184
 20
5509.413702
 30
0.0
 11
6975.45184
 21
5509.413702
 31
0.0
  0
LINE
  8
SUNPOU
 10
6975.45184
 20
5209.413702
 30
0.0
 11
6975.45184
 21
5209.413702
 31
0.0
  0
ARC
  8
JISSEN
 10
6845.45184
 20
5509.413702
 30
0.0
 40
10.0
 50
270.0
 51
90.0
  0
LINE
  8
ITTEN
 10
6669.335986
 20
5509.413702
 30
0.0
 11
7025.45184
 21
5509.413702
 31
0.0
  0
LINE
  8
JISSEN
 10
6845.45184
 20
5499.413702
 30
0.0
 11
6725.45184
 21
5499.413702
 31
0.0
  0
LINE
  8
JISSEN
 10
6725.45184
 20
5519.413702
 30
0.0
 11
6845.45184
 21
5519.413702
 31
0.0
  0
LINE
  8
SUNPOU
 10
7005.45184
 20
5209.413702
 30
0.0
 11
7005.45184
 21
5209.413702
 31
0.0
  0
LINE
  8
SUNPOU
 10
6975.45184
 20
5209.413702
 30
0.0
 11
6975.45184
 21
5209.413702
 31
0.0
  0
LINE
  8
SUNPOU
 10
6975.45184
 20
5209.413702
 30
0.0
 11
6975.45184
 21
5209.413702
 31
0.0
  0
LINE
  8
SUNPOU
 10
6975.45184
 20
5209.413702
 30
0.0
 11
6975.45184
 21
5209.413702
 31
0.0
  0
LINE
  8
SUNPOU
 10
6975.45184
 20
5209.413702
 30
0.0
 11
6975.45184
 21
5209.413702
 31
0.0
  0
LINE
  8
ITTEN
 10
6669.335986
 20
5209.413702
 30
0.0
 11
7025.45184
 21
5209.413702
 31
0.0
  0
LINE
  8
SUNPOU
 10
6975.45184
 20
5509.413702
 30
0.0
 11
6975.45184
 21
5509.413702
 31
0.0
  0
LINE
  8
SUNPOU
 10
6975.45184
 20
5209.413702
 30
0.0
 11
6975.45184
 21
5209.413702
 31
0.0
  0
INSERT
  8
SUNPOU
  2
ARROWANG
 10
7005.45184
 20
5209.413702
 30
0.0
 41
30.0
 42
30.0
 50
90.0
 43
30.0
  0
LINE
  8
SUNPOU
 10
7005.45184
 20
5209.413702
 30
0.0
 11
7005.45184
 21
5209.413702
 31
0.0
  0
LINE
  8
SUNPOU
 10
6975.45184
 20
5209.413702
 30
0.0
 11
6975.45184
 21
5209.413702
 31
0.0
  0
LINE
  8
SUNPOU
 10
6975.45184
 20
5209.413702
 30
0.0
 11
6975.45184
 21
5209.413702
 31
0.0
  0
LINE
  8
SUNPOU
 10
7005.45184
 20
5209.413702
 30
0.0
 11
7005.45184
 21
5209.413702
 31
0.0
  0
LINE
  8
SUNPOU
 10
6975.45184
 20
5209.413702
 30
0.0
 11
6975.45184
 21
5209.413702
 31
0.0
  0
LINE
  8
SUNPOU
 10
6975.45184
 20
5209.413702
 30
0.0
 11
6975.45184
 21
5209.413702
 31
0.0
  0
LINE
  8
SUNPOU
 10
6975.45184
 20
5209.413702
 30
0.0
 11
6975.45184
 21
5209.413702
 31
0.0
  0
LINE
  8
SUNPOU
 10
6975.45184
 20
5209.413702
 30
0.0
 11
6975.45184
 21
5209.413702
 31
0.0
  0
LINE
  8
SUNPOU
 10
7005.45184
 20
5209.413702
 30
0.0
 11
7005.45184
 21
5209.413702
 31
0.0
  0
LINE
  8
SUNPOU
 10
7035.45184
 20
5209.413702
 30
0.0
 11
7035.45184
 21
5209.413702
 31
0.0
  0
LINE
  8
SUNPOU
 10
7035.45184
 20
5209.413702
 30
0.0
 11
7035.45184
 21
5209.413702
 31
0.0
  0
LINE
  8
SUNPOU
 10
7005.45184
 20
5209.413702
 30
0.0
 11
7005.45184
 21
5209.413702
 31
0.0
  0
LINE
  8
SUNPOU
 10
6975.45184
 20
5209.413702
 30
0.0
 11
6975.45184
 21
5209.413702
 31
0.0
  0
LINE
  8
SUNPOU
 10
6975.45184
 20
5209.413702
 30
0.0
 11
6975.45184
 21
5209.413702
 31
0.0
  0
LINE
  8
SUNPOU
 10
7035.45184
 20
5209.413702
 30
0.0
 11
7035.45184
 21
5209.413702
 31
0.0
  0
LINE
  8
SUNPOU
 10
7035.45184
 20
5209.413702
 30
0.0
 11
7035.45184
 21
5209.413702
 31
0.0
  0
TEXT
  8
SUNPOU
 10
6960.45184
 20
5066.913702
 30
0.0
 40
45.0
  1
150
 50
90.0
  7
K
 72
     1
 11
6960.45184
 21
5134.413702
 31
0.0
  0
INSERT
  8
SUNPOU
  2
ARROWANG
 10
7005.45184
 20
5209.413702
 30
0.0
 41
30.0
 42
30.0
 50
90.0
 43
30.0
  0
INSERT
  8
SUNPOU
  2
ARROWANG
 10
7005.45184
 20
5059.413702
 30
0.0
 41
30.0
 42
30.0
 50
270.0
 43
30.0
  0
LINE
  8
SUNPOU
 10
7005.45184
 20
5059.413702
 30
0.0
 11
7005.45184
 21
5209.413702
 31
0.0
  0
LINE
  8
SUNPOU
 10
6975.45184
 20
5209.413702
 30
0.0
 11
6975.45184
 21
5209.413702
 31
0.0
  0
LINE
  8
SUNPOU
 10
6975.45184
 20
5059.413702
 30
0.0
 11
6975.45184
 21
5059.413702
 31
0.0
  0
LINE
  8
ITTEN
 10
6669.335986
 20
5509.413702
 30
0.0
 11
7025.45184
 21
5509.413702
 31
0.0
  0
LINE
  8
ITTEN
 10
6669.335986
 20
5209.413702
 30
0.0
 11
7025.45184
 21
5209.413702
 31
0.0
  0
LINE
  8
ITTEN
 10
6669.335986
 20
5209.413702
 30
0.0
 11
7025.45184
 21
5209.413702
 31
0.0
  0
LINE
  8
ITTEN
 10
6669.335986
 20
5209.413702
 30
0.0
 11
7025.45184
 21
5209.413702
 31
0.0
  0
LINE
  8
ITTEN
 10
6669.335986
 20
5209.413702
 30
0.0
 11
7025.45184
 21
5209.413702
 31
0.0
  0
LINE
  8
ITTEN
 10
6669.335986
 20
5209.413702
 30
0.0
 11
7025.45184
 21
5209.413702
 31
0.0
  0
LINE
  8
JISSEN
 10
6845.45184
 20
5199.413702
 30
0.0
 11
6725.45184
 21
5199.413702
 31
0.0
  0
LINE
  8
JISSEN
 10
6725.45184
 20
5219.413702
 30
0.0
 11
6845.45184
 21
5219.413702
 31
0.0
  0
ARC
  8
JISSEN
 10
6845.45184
 20
5209.413702
 30
0.0
 40
10.0
 50
270.0
 51
90.0
  0
LINE
  8
SUNPOU
 10
6975.45184
 20
5209.413702
 30
0.0
 11
6975.45184
 21
5209.413702
 31
0.0
  0
LINE
  8
SUNPOU
 10
6975.45184
 20
5209.413702
 30
0.0
 11
6975.45184
 21
5209.413702
 31
0.0
  0
LINE
  8
SUNPOU
 10
6975.45184
 20
5209.413702
 30
0.0
 11
6975.45184
 21
5209.413702
 31
0.0
  0
LINE
  8
SUNPOU
 10
6975.45184
 20
5209.413702
 30
0.0
 11
6975.45184
 21
5209.413702
 31
0.0
  0
LINE
  8
SUNPOU
 10
6975.45184
 20
5209.413702
 30
0.0
 11
6975.45184
 21
5209.413702
 31
0.0
  0
LINE
  8
SUNPOU
 10
7035.45184
 20
5509.413702
 30
0.0
 11
7035.45184
 21
5509.413702
 31
0.0
  0
LINE
  8
SUNPOU
 10
7005.45184
 20
5209.413702
 30
0.0
 11
7005.45184
 21
5509.413702
 31
0.0
  0
INSERT
  8
SUNPOU
  2
ARROWANG
 10
7005.45184
 20
5209.413702
 30
0.0
 41
30.0
 42
30.0
 50
270.0
 43
30.0
  0
INSERT
  8
SUNPOU
  2
ARROWANG
 10
7005.45184
 20
5509.413702
 30
0.0
 41
30.0
 42
30.0
 50
90.0
 43
30.0
  0
TEXT
  8
SUNPOU
 10
6960.45184
 20
5295.127987
 30
0.0
 40
45.0
  1
300
 50
90.0
  7
K
 72
     1
 11
6960.45184
 21
5359.413702
 31
0.0
  0
CIRCLE
  8
JISSEN
 10
7475.45184
 20
3648.641463
 30
0.0
 40
875.0
  0
CIRCLE
  8
TENSEN
 10
7475.45184
 20
3648.641463
 30
0.0
 40
750.0
  0
CIRCLE
  8
JISSEN
 10
7175.45184
 20
3648.641463
 30
0.0
 40
485.0
  0
CIRCLE
  8
JISSEN
 10
7175.45184
 20
3648.641463
 30
0.0
 40
478.0
  0
CIRCLE
  8
JISSEN
 10
7217.95184
 20
3648.641463
 30
0.0
 40
617.5
  0
CIRCLE
  8
JISSEN
 10
7175.45184
 20
3648.641463
 30
0.0
 40
450.0
  0
CIRCLE
  8
JISSEN
 10
7634.445304
 20
3913.641463
 30
0.0
 40
10.0
  0
LINE
  8
ITTEN
 10
7621.945304
 20
3935.292098
 30
0.0
 11
7646.945304
 21
3891.990828
 31
0.0
  0
LINE
  8
ITTEN
 10
7656.095939
 20
3926.141463
 30
0.0
 11
7612.794668
 21
3901.141463
 31
0.0
  0
POINT
  8
ITTEN
 10
7176.45184
 20
3648.641463
 30
0.0
  0
LINE
  8
ITTEN
 10
7175.45184
 20
4203.641463
 30
0.0
 11
7175.45184
 21
4153.641463
 31
0.0
  0
LINE
  8
ITTEN
 10
7150.45184
 20
4178.641463
 30
0.0
 11
7200.45184
 21
4178.641463
 31
0.0
  0
CIRCLE
  8
JISSEN
 10
7175.45184
 20
4178.641463
 30
0.0
 40
10.0
  0
LINE
  8
ITTEN
 10
6694.80774
 20
3926.141463
 30
0.0
 11
6738.109011
 21
3901.141463
 31
0.0
  0
LINE
  8
ITTEN
 10
6703.958376
 20
3891.990828
 30
0.0
 11
6728.958376
 21
3935.292098
 31
0.0
  0
CIRCLE
  8
JISSEN
 10
6716.458376
 20
3913.641463
 30
0.0
 40
10.0
  0
LINE
  8
ITTEN
 10
6694.80774
 20
3371.141463
 30
0.0
 11
6738.109011
 21
3396.141463
 31
0.0
  0
LINE
  8
ITTEN
 10
6728.958376
 20
3361.990828
 30
0.0
 11
6703.958376
 21
3405.292098
 31
0.0
  0
CIRCLE
  8
JISSEN
 10
6716.458376
 20
3383.641463
 30
0.0
 40
10.0
  0
POINT
  8
ITTEN
 10
7176.45184
 20
3648.641463
 30
0.0
  0
LINE
  8
ITTEN
 10
7175.45184
 20
3093.641463
 30
0.0
 11
7175.45184
 21
3143.641463
 31
0.0
  0
LINE
  8
ITTEN
 10
7200.45184
 20
3118.641463
 30
0.0
 11
7150.45184
 21
3118.641463
 31
0.0
  0
CIRCLE
  8
JISSEN
 10
7175.45184
 20
3118.641463
 30
0.0
 40
10.0
  0
LINE
  8
ITTEN
 10
7656.095939
 20
3371.141463
 30
0.0
 11
7612.794668
 21
3396.141463
 31
0.0
  0
LINE
  8
ITTEN
 10
7646.945304
 20
3405.292098
 30
0.0
 11
7621.945304
 21
3361.990828
 31
0.0
  0
CIRCLE
  8
JISSEN
 10
7634.445304
 20
3383.641463
 30
0.0
 40
10.0
  0
CIRCLE
  8
JISSEN
 10
7564.360569
 20
3259.732734
 30
0.0
 40
10.0
  0
LINE
  8
ITTEN
 10
7582.038239
 20
3277.410403
 30
0.0
 11
7546.6829
 21
3242.055064
 31
0.0
  0
LINE
  8
ITTEN
 10
7582.038239
 20
3242.055064
 30
0.0
 11
7546.6829
 21
3277.410403
 31
0.0
  0
LINE
  8
ITTEN
 10
6768.86544
 20
4055.227862
 30
0.0
 11
6804.220779
 21
4019.872523
 31
0.0
  0
LINE
  8
ITTEN
 10
6768.86544
 20
4019.872523
 30
0.0
 11
6804.220779
 21
4055.227862
 31
0.0
  0
CIRCLE
  8
JISSEN
 10
6786.54311
 20
4037.550193
 30
0.0
 40
10.0
  0
LINE
  8
TENSEN
 10
8087.058798
 20
4274.390557
 30
0.0
 11
8037.601529
 21
4224.933288
 31
0.0
  0
LINE
  8
TENSEN
 10
8037.601529
 20
4224.933288
 30
0.0
 11
8051.743665
 21
4210.791153
 31
0.0
  0
LINE
  8
TENSEN
 10
8051.743665
 20
4210.791153
 30
0.0
 11
8101.200933
 21
4260.248422
 31
0.0
  0
LINE
  8
ITTEN
 10
8115.383275
 20
4288.572899
 30
0.0
 11
7973.961919
 21
4147.151543
 31
0.0
  0
LINE
  8
ITTEN
 10
6835.520404
 20
4288.572899
 30
0.0
 11
6976.94176
 21
4147.151543
 31
0.0
  0
LINE
  8
TENSEN
 10
6913.30215
 20
4224.933288
 30
0.0
 11
6863.844881
 21
4274.390557
 31
0.0
  0
LINE
  8
TENSEN
 10
6899.160014
 20
4210.791153
 30
0.0
 11
6913.30215
 21
4224.933288
 31
0.0
  0
LINE
  8
TENSEN
 10
6849.702746
 20
4260.248422
 30
0.0
 11
6899.160014
 21
4210.791153
 31
0.0
  0
LINE
  8
ITTEN
 10
6835.520404
 20
3008.710028
 30
0.0
 11
6976.94176
 21
3150.131384
 31
0.0
  0
LINE
  8
TENSEN
 10
6899.160014
 20
3086.491774
 30
0.0
 11
6849.702746
 21
3037.034505
 31
0.0
  0
LINE
  8
TENSEN
 10
6913.30215
 20
3072.349638
 30
0.0
 11
6899.160014
 21
3086.491774
 31
0.0
  0
LINE
  8
TENSEN
 10
6863.844881
 20
3022.892369
 30
0.0
 11
6913.30215
 21
3072.349638
 31
0.0
  0
LINE
  8
ITTEN
 10
8115.383275
 20
3008.710028
 30
0.0
 11
7973.961919
 21
3150.131384
 31
0.0
  0
LINE
  8
TENSEN
 10
8037.601529
 20
3072.349638
 30
0.0
 11
8087.058798
 21
3022.892369
 31
0.0
  0
LINE
  8
TENSEN
 10
8051.743665
 20
3086.491774
 30
0.0
 11
8037.601529
 21
3072.349638
 31
0.0
  0
LINE
  8
TENSEN
 10
8101.200933
 20
3037.034505
 30
0.0
 11
8051.743665
 21
3086.491774
 31
0.0
  0
LINE
  8
ITTEN
 10
7475.45184
 20
4623.641463
 30
0.0
 11
7475.45184
 21
3787.204572
 31
0.0
  0
LINE
  8
ITTEN
 10
8450.45184
 20
3648.641463
 30
0.0
 11
7425.7726
 21
3648.641463
 31
0.0
  0
LINE
  8
ITTEN
 10
7175.45184
 20
4198.641463
 30
0.0
 11
7175.45184
 21
3774.140689
 31
0.0
  0
LINE
  8
ITTEN
 10
7175.45184
 20
3692.240192
 30
0.0
 11
7175.45184
 21
3098.641463
 31
0.0
  0
LINE
  8
ITTEN
 10
7045.626513
 20
3648.641463
 30
0.0
 11
6500.45184
 21
3648.641463
 31
0.0
  0
LINE
  8
ITTEN
 10
7341.204464
 20
3648.641463
 30
0.0
 11
7104.331578
 21
3648.641463
 31
0.0
  0
LINE
  8
ITTEN
 10
7475.45184
 20
3699.777047
 30
0.0
 11
7475.45184
 21
2673.641463
 31
0.0
  0
ARC
  8
JISSEN
 10
6825.451832
 20
3828.641463
 30
0.0
 40
30.0
 50
0.0
 51
90.0
  0
ARC
  8
JISSEN
 10
6825.451832
 20
3468.641463
 30
0.0
 40
30.0
 50
270.0
 51
0.0
  0
ARC
  8
JISSEN
 10
6815.451832
 20
3478.641463
 30
0.0
 40
20.0
 50
270.0
 51
0.0
  0
ARC
  8
JISSEN
 10
6815.451832
 20
3818.641463
 30
0.0
 40
20.0
 50
0.0
 51
90.0
  0
LINE
  8
JISSEN
 10
6815.451832
 20
3838.641463
 30
0.0
 11
6767.530278
 21
3838.641463
 31
0.0
  0
LINE
  8
JISSEN
 10
6835.451832
 20
3478.641463
 30
0.0
 11
6835.451832
 21
3818.641463
 31
0.0
  0
LINE
  8
JISSEN
 10
6825.451832
 20
3438.641463
 30
0.0
 11
6777.456865
 21
3438.641463
 31
0.0
  0
LINE
  8
JISSEN
 10
6855.451832
 20
3828.641463
 30
0.0
 11
6855.451832
 21
3468.641463
 31
0.0
  0
LINE
  8
JISSEN
 10
6777.456865
 20
3858.641463
 30
0.0
 11
6825.451832
 21
3858.641463
 31
0.0
  0
LINE
  8
JISSEN
 10
6749.917554
 20
3838.641463
 30
0.0
 11
6749.917554
 21
3838.641463
 31
0.0
  0
LINE
  8
JISSEN
 10
6767.530278
 20
3458.641463
 30
0.0
 11
6815.451832
 21
3458.641463
 31
0.0
  0
LINE
  8
JISSEN
 10
6756.04537
 20
3438.641463
 30
0.0
 11
6755.45184
 21
3438.641463
 31
0.0
  0
LINE
  8
SUNPOU
 10
6600.45184
 20
5704.413702
 30
0.0
 11
6600.45184
 21
6004.413702
 31
0.0
  0
LINE
  8
SUNPOU
 10
6725.45184
 20
5681.413702
 30
0.0
 11
6725.45184
 21
6004.413702
 31
0.0
  0
LINE
  8
SUNPOU
 10
6600.45184
 20
5974.413702
 30
0.0
 11
6725.45184
 21
5974.413702
 31
0.0
  0
INSERT
  8
SUNPOU
  2
ARROWANG
 10
6600.45184
 20
5974.413702
 30
0.0
 41
30.0
 42
30.0
 50
180.0
 43
30.0
  0
INSERT
  8
SUNPOU
  2
ARROWANG
 10
6725.45184
 20
5974.413702
 30
0.0
 41
30.0
 42
30.0
 43
30.0
  0
TEXT
  8
SUNPOU
 10
6595.451854
 20
6019.413702
 30
0.0
 40
45.0
  1
125
  7
K
 72
     1
 11
6662.951854
 21
6019.413702
 31
0.0
  0
LINE
  8
SUNPOU
 10
6690.45184
 20
5704.413702
 30
0.0
 11
6690.45184
 21
5904.413702
 31
0.0
  0
LINE
  8
SUNPOU
 10
7660.45184
 20
5704.413702
 30
0.0
 11
7660.45184
 21
5904.413702
 31
0.0
  0
LINE
  8
SUNPOU
 10
6690.45184
 20
5874.413702
 30
0.0
 11
7660.45184
 21
5874.413702
 31
0.0
  0
INSERT
  8
SUNPOU
  2
ARROWANG
 10
6690.45184
 20
5874.413702
 30
0.0
 41
30.0
 42
30.0
 50
180.0
 43
30.0
  0
INSERT
  8
SUNPOU
  2
ARROWANG
 10
7660.45184
 20
5874.413702
 30
0.0
 41
30.0
 42
30.0
 43
30.0
  0
TEXT
  8
SUNPOU
 10
7111.16614
 20
5919.413702
 30
0.0
 40
45.0
  1
970
  7
K
 72
     1
 11
7175.451854
 21
5919.413702
 31
0.0
  0
LINE
  8
SUNPOU
 10
6697.45184
 20
5681.413702
 30
0.0
 11
6697.45184
 21
5804.413702
 31
0.0
  0
LINE
  8
SUNPOU
 10
7653.45184
 20
5681.413702
 30
0.0
 11
7653.45184
 21
5804.413702
 31
0.0
  0
LINE
  8
SUNPOU
 10
6697.45184
 20
5774.413702
 30
0.0
 11
7653.45184
 21
5774.413702
 31
0.0
  0
INSERT
  8
SUNPOU
  2
ARROWANG
 10
6697.45184
 20
5774.413702
 30
0.0
 41
30.0
 42
30.0
 50
180.0
 43
30.0
  0
INSERT
  8
SUNPOU
  2
ARROWANG
 10
7653.45184
 20
5774.413702
 30
0.0
 41
30.0
 42
30.0
 43
30.0
  0
TEXT
  8
SUNPOU
 10
7111.16614
 20
5819.413702
 30
0.0
 40
45.0
  1
956
  7
K
 72
     1
 11
7175.451854
 21
5819.413702
 31
0.0
  0
LINE
  8
SUNPOU
 10
7625.45184
 20
5681.413702
 30
0.0
 11
7625.45184
 21
6004.413702
 31
0.0
  0
LINE
  8
SUNPOU
 10
7835.45184
 20
5704.413702
 30
0.0
 11
7835.45184
 21
6004.413702
 31
0.0
  0
LINE
  8
SUNPOU
 10
7625.45184
 20
5974.413702
 30
0.0
 11
7835.45184
 21
5974.413702
 31
0.0
  0
INSERT
  8
SUNPOU
  2
ARROWANG
 10
7625.45184
 20
5974.413702
 30
0.0
 41
30.0
 42
30.0
 50
180.0
 43
30.0
  0
INSERT
  8
SUNPOU
  2
ARROWANG
 10
7835.45184
 20
5974.413702
 30
0.0
 41
30.0
 42
30.0
 43
30.0
  0
TEXT
  8
SUNPOU
 10
7666.16614
 20
6019.413702
 30
0.0
 40
45.0
  1
210
  7
K
 72
     1
 11
7730.451854
 21
6019.413702
 31
0.0
  0
LINE
  8
SUNPOU
 10
6570.45184
 20
5074.413702
 30
0.0
 11
6370.45184
 21
5074.413702
 31
0.0
  0
LINE
  8
SUNPOU
 10
6570.45184
 20
5674.413702
 30
0.0
 11
6370.45184
 21
5674.413702
 31
0.0
  0
LINE
  8
SUNPOU
 10
6400.45184
 20
5074.413702
 30
0.0
 11
6400.45184
 21
5674.413702
 31
0.0
  0
INSERT
  8
SUNPOU
  2
ARROWANG
 10
6400.45184
 20
5074.413702
 30
0.0
 41
30.0
 42
30.0
 50
270.0
 43
30.0
  0
INSERT
  8
SUNPOU
  2
ARROWANG
 10
6400.45184
 20
5674.413702
 30
0.0
 41
30.0
 42
30.0
 50
90.0
 43
30.0
  0
TEXT
  8
SUNPOU
 10
6355.45184
 20
5309.056559
 30
0.0
 40
45.0
  1
600
 50
90.0
  7
K
 72
     1
 11
6355.45184
 21
5374.413702
 31
0.0
  0
LINE
  8
SUNPOU
 10
6667.45184
 20
5651.413702
 30
0.0
 11
6470.45184
 21
5651.413702
 31
0.0
  0
LINE
  8
SUNPOU
 10
6530.45184
 20
5674.413702
 30
0.0
 11
6530.45184
 21
5674.413702
 31
0.0
  0
LINE
  8
SUNPOU
 10
6500.45184
 20
5651.413702
 30
0.0
 11
6500.45184
 21
5674.413702
 31
0.0
  0
INSERT
  8
SUNPOU
  2
ARROWANG
 10
6500.45184
 20
5651.413702
 30
0.0
 41
30.0
 42
30.0
 50
90.0
 43
30.0
  0
INSERT
  8
SUNPOU
  2
ARROWANG
 10
6500.45184
 20
5674.413702
 30
0.0
 41
30.0
 42
30.0
 50
270.0
 43
30.0
  0
LINE
  8
SUNPOU
 10
6500.45184
 20
5674.413702
 30
0.0
 11
6500.45184
 21
5773.413702
 31
0.0
  0
LINE
  8
SUNPOU
 10
6500.45184
 20
5651.413702
 30
0.0
 11
6500.451841
 21
5591.413702
 31
0.0
  0
TEXT
  8
SUNPOU
 10
6455.45184
 20
5681.056559
 30
0.0
 40
45.0
  1
23
 50
90.0
  7
K
 72
     1
 11
6455.45184
 21
5723.913702
 31
0.0
  0
LINE
  8
SUNPOU
 10
6667.45184
 20
5059.413702
 30
0.0
 11
6470.45184
 21
5059.413702
 31
0.0
  0
LINE
  8
SUNPOU
 10
6530.45184
 20
5074.413702
 30
0.0
 11
6530.45184
 21
5074.413702
 31
0.0
  0
LINE
  8
SUNPOU
 10
6500.45184
 20
5059.413702
 30
0.0
 11
6500.45184
 21
5074.413702
 31
0.0
  0
INSERT
  8
SUNPOU
  2
ARROWANG
 10
6500.45184
 20
5059.413702
 30
0.0
 41
30.0
 42
30.0
 50
90.0
 43
30.0
  0
INSERT
  8
SUNPOU
  2
ARROWANG
 10
6500.45184
 20
5074.413702
 30
0.0
 41
30.0
 42
30.0
 50
270.0
 43
30.0
  0
LINE
  8
SUNPOU
 10
6500.45184
 20
5059.413702
 30
0.0
 11
6500.45184
 21
4960.413702
 31
0.0
  0
LINE
  8
SUNPOU
 10
6500.45184
 20
5074.413702
 30
0.0
 11
6500.45184
 21
5134.413702
 31
0.0
  0
TEXT
  8
SUNPOU
 10
6455.45184
 20
4963.842273
 30
0.0
 40
45.0
  1
15
 50
90.0
  7
K
 72
     1
 11
6455.45184
 21
5009.913702
 31
0.0
  0
LINE
  8
SUNPOU
 10
7145.45184
 20
5059.413702
 30
0.0
 11
7100.45184
 21
5059.413702
 31
0.0
  0
LINE
  8
SUNPOU
 10
7145.45184
 20
5651.413702
 30
0.0
 11
7100.45184
 21
5651.413702
 31
0.0
  0
LINE
  8
SUNPOU
 10
7130.45184
 20
5059.413702
 30
0.0
 11
7130.45184
 21
5651.413702
 31
0.0
  0
INSERT
  8
SUNPOU
  2
ARROWANG
 10
7130.45184
 20
5059.413702
 30
0.0
 41
30.0
 42
30.0
 50
270.0
 43
30.0
  0
INSERT
  8
SUNPOU
  2
ARROWANG
 10
7130.45184
 20
5651.413702
 30
0.0
 41
30.0
 42
30.0
 50
90.0
 43
30.0
  0
TEXT
  8
SUNPOU
 10
7085.45184
 20
5291.127987
 30
0.0
 40
45.0
  1
592
 50
90.0
  7
K
 72
     1
 11
7085.45184
 21
5355.413702
 31
0.0
  0
LINE
  8
SUNPOU
 10
6600.45184
 20
5044.413702
 30
0.0
 11
6600.45184
 21
4729.413702
 31
0.0
  0
LINE
  8
SUNPOU
 10
6725.45184
 20
5029.413702
 30
0.0
 11
6725.45184
 21
4729.413702
 31
0.0
  0
LINE
  8
SUNPOU
 10
6600.45184
 20
4759.413702
 30
0.0
 11
6725.45184
 21
4759.413702
 31
0.0
  0
INSERT
  8
SUNPOU
  2
ARROWANG
 10
6725.45184
 20
4759.413702
 30
0.0
 41
30.0
 42
30.0
 43
30.0
  0
INSERT
  8
SUNPOU
  2
ARROWANG
 10
6600.45184
 20
4759.413702
 30
0.0
 41
30.0
 42
30.0
 50
180.0
 43
30.0
  0
TEXT
  8
SUNPOU
 10
6595.45184
 20
4804.413702
 30
0.0
 40
45.0
  1
125
  7
K
 72
     1
 11
6662.95184
 21
4804.413702
 31
0.0
  0
LINE
  8
SUNPOU
 10
6725.45184
 20
4729.413702
 30
0.0
 11
6725.45184
 21
4729.413702
 31
0.0
  0
LINE
  8
SUNPOU
 10
8225.45184
 20
5029.413702
 30
0.0
 11
8225.45184
 21
4729.413702
 31
0.0
  0
LINE
  8
SUNPOU
 10
6725.45184
 20
4759.413702
 30
0.0
 11
8225.45184
 21
4759.413702
 31
0.0
  0
INSERT
  8
SUNPOU
  2
ARROWANG
 10
6725.45184
 20
4759.413702
 30
0.0
 41
30.0
 42
30.0
 50
180.0
 43
30.0
  0
INSERT
  8
SUNPOU
  2
ARROWANG
 10
8225.45184
 20
4759.413702
 30
0.0
 41
30.0
 42
30.0
 43
30.0
  0
TEXT
  8
SUNPOU
 10
7386.523283
 20
4804.413702
 30
0.0
 40
45.0
  1
1500
  7
K
 72
     1
 11
7475.451854
 21
4804.413702
 31
0.0
  0
LINE
  8
SUNPOU
 10
8225.45184
 20
4729.413702
 30
0.0
 11
8225.45184
 21
4729.413702
 31
0.0
  0
LINE
  8
SUNPOU
 10
8350.45184
 20
5044.413702
 30
0.0
 11
8350.45184
 21
4729.413702
 31
0.0
  0
LINE
  8
SUNPOU
 10
8225.45184
 20
4759.413702
 30
0.0
 11
8350.45184
 21
4759.413702
 31
0.0
  0
INSERT
  8
SUNPOU
  2
ARROWANG
 10
8225.45184
 20
4759.413702
 30
0.0
 41
30.0
 42
30.0
 50
180.0
 43
30.0
  0
INSERT
  8
SUNPOU
  2
ARROWANG
 10
8350.45184
 20
4759.413702
 30
0.0
 41
30.0
 42
30.0
 43
30.0
  0
TEXT
  8
SUNPOU
 10
8220.451854
 20
4804.413702
 30
0.0
 40
45.0
  1
125
  7
K
 72
     1
 11
8287.951854
 21
4804.413702
 31
0.0
  0
LINE
  8
JISSEN
 10
6600.45184
 20
5074.413702
 30
0.0
 11
6686.45184
 21
5074.413702
 31
0.0
  0
LINE
  8
JISSEN
 10
6686.45184
 20
5074.413702
 30
0.0
 11
6697.45184
 21
5059.413702
 31
0.0
  0
LINE
  8
SUNPOU
 10
6686.45184
 20
5044.413702
 30
0.0
 11
6686.45184
 21
4829.413702
 31
0.0
  0
LINE
  8
SUNPOU
 10
8264.45184
 20
5044.413702
 30
0.0
 11
8264.45184
 21
4829.413702
 31
0.0
  0
LINE
  8
SUNPOU
 10
6686.45184
 20
4859.413702
 30
0.0
 11
8264.45184
 21
4859.413702
 31
0.0
  0
INSERT
  8
SUNPOU
  2
ARROWANG
 10
8264.45184
 20
4859.413702
 30
0.0
 41
30.0
 42
30.0
 43
30.0
  0
INSERT
  8
SUNPOU
  2
ARROWANG
 10
6686.45184
 20
4859.413702
 30
0.0
 41
30.0
 42
30.0
 50
180.0
 43
30.0
  0
TEXT
  8
SUNPOU
 10
7386.523268
 20
4904.413702
 30
0.0
 40
45.0
  1
1578
  7
K
 72
     1
 11
7475.45184
 21
4904.413702
 31
0.0
  0
LINE
  8
SUNPOU
 10
6697.45184
 20
5029.413702
 30
0.0
 11
6697.45184
 21
4929.413702
 31
0.0
  0
LINE
  8
SUNPOU
 10
8253.45184
 20
5029.413702
 30
0.0
 11
8253.45184
 21
4929.413702
 31
0.0
  0
LINE
  8
SUNPOU
 10
6697.45184
 20
4959.413702
 30
0.0
 11
8253.45184
 21
4959.413702
 31
0.0
  0
INSERT
  8
SUNPOU
  2
ARROWANG
 10
6697.45184
 20
4959.413702
 30
0.0
 41
30.0
 42
30.0
 50
180.0
 43
30.0
  0
INSERT
  8
SUNPOU
  2
ARROWANG
 10
8253.45184
 20
4959.413702
 30
0.0
 41
30.0
 42
30.0
 43
30.0
  0
TEXT
  8
SUNPOU
 10
7386.523283
 20
5004.413702
 30
0.0
 40
45.0
  1
1556
  7
K
 72
     1
 11
7475.451854
 21
5004.413702
 31
0.0
  0
LINE
  8
SUNPOU
 10
6725.45184
 20
5944.413702
 30
0.0
 11
6725.45184
 21
5944.413702
 31
0.0
  0
LINE
  8
SUNPOU
 10
7625.45184
 20
5944.413702
 30
0.0
 11
7625.45184
 21
5944.413702
 31
0.0
  0
LINE
  8
SUNPOU
 10
6725.45184
 20
5974.413702
 30
0.0
 11
7625.45184
 21
5974.413702
 31
0.0
  0
INSERT
  8
SUNPOU
  2
ARROWANG
 10
6725.45184
 20
5974.413702
 30
0.0
 41
30.0
 42
30.0
 50
180.0
 43
30.0
  0
INSERT
  8
SUNPOU
  2
ARROWANG
 10
7625.45184
 20
5974.413702
 30
0.0
 41
30.0
 42
30.0
 43
30.0
  0
TEXT
  8
SUNPOU
 10
7111.16614
 20
6019.413702
 30
0.0
 40
45.0
  1
900
  7
K
 72
     1
 11
7175.451854
 21
6019.413702
 31
0.0
  0
CIRCLE
  8
JISSEN
 10
8094.170273
 20
5114.413702
 30
0.0
 40
10.0
  0
LINE
  8
ITTEN
 10
8094.170273
 20
5144.413702
 30
0.0
 11
8094.170273
 21
5084.413702
 31
0.0
  0
LINE
  8
ITTEN
 10
8124.170273
 20
5114.413702
 30
0.0
 11
8064.170273
 21
5114.413702
 31
0.0
  0
LINE
  8
ITTEN
 10
6886.733406
 20
5114.413702
 30
0.0
 11
6826.733406
 21
5114.413702
 31
0.0
  0
LINE
  8
ITTEN
 10
6856.733406
 20
5144.413702
 30
0.0
 11
6856.733406
 21
5084.413702
 31
0.0
  0
CIRCLE
  8
TENSEN
 10
6856.733406
 20
5114.413702
 30
0.0
 40
10.0
  0
LINE
  8
SUNPOU
 10
8380.45184
 20
5074.413702
 30
0.0
 11
8480.45184
 21
5074.413702
 31
0.0
  0
LINE
  8
SUNPOU
 10
8380.45184
 20
5114.413702
 30
0.0
 11
8480.45184
 21
5114.413702
 31
0.0
  0
LINE
  8
SUNPOU
 10
8450.45184
 20
5074.413702
 30
0.0
 11
8450.45184
 21
5114.413702
 31
0.0
  0
INSERT
  8
SUNPOU
  2
ARROWANG
 10
8450.45184
 20
5074.413702
 30
0.0
 41
30.0
 42
30.0
 50
90.0
 43
30.0
  0
INSERT
  8
SUNPOU
  2
ARROWANG
 10
8450.45184
 20
5114.413702
 30
0.0
 41
30.0
 42
30.0
 50
270.0
 43
30.0
  0
LINE
  8
SUNPOU
 10
8450.45184
 20
5074.413702
 30
0.0
 11
8450.45184
 21
4975.413702
 31
0.0
  0
LINE
  8
SUNPOU
 10
8450.45184
 20
5114.413702
 30
0.0
 11
8450.45184
 21
5174.413702
 31
0.0
  0
TEXT
  8
SUNPOU
 10
8405.45184
 20
4982.056559
 30
0.0
 40
45.0
  1
40
 50
90.0
  7
K
 72
     1
 11
8405.45184
 21
5024.913702
 31
0.0
  0
TEXT
  8
SUNPOU
 10
5405.45184
 20
5132.056559
 30
0.0
 40
45.0
  1
40
 50
90.0
  7
K
 72
     1
 11
5405.45184
 21
5174.913702
 31
0.0
  0
LINE
  8
SUNPOU
 10
5450.45184
 20
5264.413702
 30
0.0
 11
5450.45184
 21
5324.413702
 31
0.0
  0
LINE
  8
SUNPOU
 10
5450.45184
 20
5224.413702
 30
0.0
 11
5450.45184
 21
5125.413702
 31
0.0
  0
INSERT
  8
SUNPOU
  2
ARROWANG
 10
5450.45184
 20
5264.413702
 30
0.0
 41
30.0
 42
30.0
 50
270.0
 43
30.0
  0
INSERT
  8
SUNPOU
  2
ARROWANG
 10
5450.45184
 20
5224.413702
 30
0.0
 41
30.0
 42
30.0
 50
90.0
 43
30.0
  0
LINE
  8
SUNPOU
 10
5450.45184
 20
5224.413702
 30
0.0
 11
5450.45184
 21
5264.413702
 31
0.0
  0
LINE
  8
SUNPOU
 10
5380.45184
 20
5264.413702
 30
0.0
 11
5480.45184
 21
5264.413702
 31
0.0
  0
LINE
  8
SUNPOU
 10
5380.45184
 20
5224.413702
 30
0.0
 11
5480.45184
 21
5224.413702
 31
0.0
  0
CIRCLE
  8
TENSEN
 10
3856.733406
 20
5264.413702
 30
0.0
 40
10.0
  0
LINE
  8
ITTEN
 10
3856.733406
 20
5294.413702
 30
0.0
 11
3856.733406
 21
5234.413702
 31
0.0
  0
LINE
  8
ITTEN
 10
3886.733406
 20
5264.413702
 30
0.0
 11
3826.733406
 21
5264.413702
 31
0.0
  0
LINE
  8
ITTEN
 10
5124.170273
 20
5264.413702
 30
0.0
 11
5064.170273
 21
5264.413702
 31
0.0
  0
LINE
  8
ITTEN
 10
5094.170273
 20
5294.413702
 30
0.0
 11
5094.170273
 21
5234.413702
 31
0.0
  0
CIRCLE
  8
JISSEN
 10
5094.170273
 20
5264.413702
 30
0.0
 40
10.0
  0
TEXT
  8
SUNPOU
 10
4111.16614
 20
6019.413702
 30
0.0
 40
45.0
  1
900
  7
K
 72
     1
 11
4175.451854
 21
6019.413702
 31
0.0
  0
INSERT
  8
SUNPOU
  2
ARROWANG
 10
4625.45184
 20
5974.413702
 30
0.0
 41
30.0
 42
30.0
 43
30.0
  0
INSERT
  8
SUNPOU
  2
ARROWANG
 10
3725.45184
 20
5974.413702
 30
0.0
 41
30.0
 42
30.0
 50
180.0
 43
30.0
  0
LINE
  8
SUNPOU
 10
3725.45184
 20
5974.413702
 30
0.0
 11
4625.45184
 21
5974.413702
 31
0.0
  0
LINE
  8
SUNPOU
 10
4625.45184
 20
5944.413702
 30
0.0
 11
4625.45184
 21
5944.413702
 31
0.0
  0
LINE
  8
SUNPOU
 10
3725.45184
 20
5944.413702
 30
0.0
 11
3725.45184
 21
5944.413702
 31
0.0
  0
TEXT
  8
SUNPOU
 10
4386.523283
 20
5154.413702
 30
0.0
 40
45.0
  1
1556
  7
K
 72
     1
 11
4475.451854
 21
5154.413702
 31
0.0
  0
INSERT
  8
SUNPOU
  2
ARROWANG
 10
5253.45184
 20
5109.413702
 30
0.0
 41
30.0
 42
30.0
 43
30.0
  0
INSERT
  8
SUNPOU
  2
ARROWANG
 10
3697.45184
 20
5109.413702
 30
0.0
 41
30.0
 42
30.0
 50
180.0
 43
30.0
  0
LINE
  8
SUNPOU
 10
3697.45184
 20
5109.413702
 30
0.0
 11
5253.45184
 21
5109.413702
 31
0.0
  0
LINE
  8
SUNPOU
 10
5253.45184
 20
5179.413702
 30
0.0
 11
5253.45184
 21
5079.413702
 31
0.0
  0
LINE
  8
SUNPOU
 10
3697.45184
 20
5179.413702
 30
0.0
 11
3697.45184
 21
5079.413702
 31
0.0
  0
TEXT
  8
SUNPOU
 10
4386.523268
 20
5054.413702
 30
0.0
 40
45.0
  1
1578
  7
K
 72
     1
 11
4475.45184
 21
5054.413702
 31
0.0
  0
INSERT
  8
SUNPOU
  2
ARROWANG
 10
3686.45184
 20
5009.413702
 30
0.0
 41
30.0
 42
30.0
 50
180.0
 43
30.0
  0
INSERT
  8
SUNPOU
  2
ARROWANG
 10
5264.45184
 20
5009.413702
 30
0.0
 41
30.0
 42
30.0
 43
30.0
  0
LINE
  8
SUNPOU
 10
3686.45184
 20
5009.413702
 30
0.0
 11
5264.45184
 21
5009.413702
 31
0.0
  0
LINE
  8
SUNPOU
 10
5264.45184
 20
5194.413702
 30
0.0
 11
5264.45184
 21
4979.413702
 31
0.0
  0
LINE
  8
SUNPOU
 10
3686.45184
 20
5194.413702
 30
0.0
 11
3686.45184
 21
4979.413702
 31
0.0
  0
LINE
  8
JISSEN
 10
3686.45184
 20
5224.413702
 30
0.0
 11
3697.45184
 21
5209.413702
 31
0.0
  0
LINE
  8
JISSEN
 10
3600.45184
 20
5224.413702
 30
0.0
 11
3686.45184
 21
5224.413702
 31
0.0
  0
TEXT
  8
SUNPOU
 10
5220.451854
 20
4954.413702
 30
0.0
 40
45.0
  1
125
  7
K
 72
     1
 11
5287.951854
 21
4954.413702
 31
0.0
  0
INSERT
  8
SUNPOU
  2
ARROWANG
 10
5350.45184
 20
4909.413702
 30
0.0
 41
30.0
 42
30.0
 43
30.0
  0
INSERT
  8
SUNPOU
  2
ARROWANG
 10
5225.45184
 20
4909.413702
 30
0.0
 41
30.0
 42
30.0
 50
180.0
 43
30.0
  0
LINE
  8
SUNPOU
 10
5225.45184
 20
4909.413702
 30
0.0
 11
5350.45184
 21
4909.413702
 31
0.0
  0
LINE
  8
SUNPOU
 10
5350.45184
 20
5194.413702
 30
0.0
 11
5350.45184
 21
4879.413702
 31
0.0
  0
LINE
  8
SUNPOU
 10
5225.45184
 20
4879.413702
 30
0.0
 11
5225.45184
 21
4879.413702
 31
0.0
  0
TEXT
  8
SUNPOU
 10
4386.523283
 20
4954.413702
 30
0.0
 40
45.0
  1
1500
  7
K
 72
     1
 11
4475.451854
 21
4954.413702
 31
0.0
  0
INSERT
  8
SUNPOU
  2
ARROWANG
 10
5225.45184
 20
4909.413702
 30
0.0
 41
30.0
 42
30.0
 43
30.0
  0
INSERT
  8
SUNPOU
  2
ARROWANG
 10
3725.45184
 20
4909.413702
 30
0.0
 41
30.0
 42
30.0
 50
180.0
 43
30.0
  0
LINE
  8
SUNPOU
 10
3725.45184
 20
4909.413702
 30
0.0
 11
5225.45184
 21
4909.413702
 31
0.0
  0
LINE
  8
SUNPOU
 10
5225.45184
 20
5179.413702
 30
0.0
 11
5225.45184
 21
4879.413702
 31
0.0
  0
LINE
  8
SUNPOU
 10
3725.45184
 20
4879.413702
 30
0.0
 11
3725.45184
 21
4879.413702
 31
0.0
  0
TEXT
  8
SUNPOU
 10
3595.45184
 20
4954.413702
 30
0.0
 40
45.0
  1
125
  7
K
 72
     1
 11
3662.95184
 21
4954.413702
 31
0.0
  0
INSERT
  8
SUNPOU
  2
ARROWANG
 10
3600.45184
 20
4909.413702
 30
0.0
 41
30.0
 42
30.0
 50
180.0
 43
30.0
  0
INSERT
  8
SUNPOU
  2
ARROWANG
 10
3725.45184
 20
4909.413702
 30
0.0
 41
30.0
 42
30.0
 43
30.0
  0
LINE
  8
SUNPOU
 10
3600.45184
 20
4909.413702
 30
0.0
 11
3725.45184
 21
4909.413702
 31
0.0
  0
LINE
  8
SUNPOU
 10
3725.45184
 20
5179.413702
 30
0.0
 11
3725.45184
 21
4879.413702
 31
0.0
  0
LINE
  8
SUNPOU
 10
3600.45184
 20
5194.413702
 30
0.0
 11
3600.45184
 21
4879.413702
 31
0.0
  0
LINE
  8
SUNPOU
 10
4145.45184
 20
5651.413702
 30
0.0
 11
4100.45184
 21
5651.413702
 31
0.0
  0
LINE
  8
SUNPOU
 10
4145.45184
 20
5209.413702
 30
0.0
 11
4100.45184
 21
5209.413702
 31
0.0
  0
TEXT
  8
SUNPOU
 10
3455.45184
 20
5113.842273
 30
0.0
 40
45.0
  1
15
 50
90.0
  7
K
 72
     1
 11
3455.45184
 21
5159.913702
 31
0.0
  0
LINE
  8
SUNPOU
 10
3500.45184
 20
5224.413702
 30
0.0
 11
3500.45184
 21
5284.413702
 31
0.0
  0
LINE
  8
SUNPOU
 10
3500.45184
 20
5209.413702
 30
0.0
 11
3500.45184
 21
5110.413702
 31
0.0
  0
INSERT
  8
SUNPOU
  2
ARROWANG
 10
3500.45184
 20
5224.413702
 30
0.0
 41
30.0
 42
30.0
 50
270.0
 43
30.0
  0
INSERT
  8
SUNPOU
  2
ARROWANG
 10
3500.45184
 20
5209.413702
 30
0.0
 41
30.0
 42
30.0
 50
90.0
 43
30.0
  0
LINE
  8
SUNPOU
 10
3500.45184
 20
5209.413702
 30
0.0
 11
3500.45184
 21
5224.413702
 31
0.0
  0
LINE
  8
SUNPOU
 10
3530.45184
 20
5224.413702
 30
0.0
 11
3530.45184
 21
5224.413702
 31
0.0
  0
LINE
  8
SUNPOU
 10
3667.45184
 20
5209.413702
 30
0.0
 11
3470.45184
 21
5209.413702
 31
0.0
  0
TEXT
  8
SUNPOU
 10
3455.45184
 20
5681.056559
 30
0.0
 40
45.0
  1
23
 50
90.0
  7
K
 72
     1
 11
3455.45184
 21
5723.913702
 31
0.0
  0
LINE
  8
SUNPOU
 10
3500.45184
 20
5651.413702
 30
0.0
 11
3500.451841
 21
5591.413702
 31
0.0
  0
LINE
  8
SUNPOU
 10
3500.45184
 20
5674.413702
 30
0.0
 11
3500.45184
 21
5773.413702
 31
0.0
  0
INSERT
  8
SUNPOU
  2
ARROWANG
 10
3500.45184
 20
5674.413702
 30
0.0
 41
30.0
 42
30.0
 50
270.0
 43
30.0
  0
INSERT
  8
SUNPOU
  2
ARROWANG
 10
3500.45184
 20
5651.413702
 30
0.0
 41
30.0
 42
30.0
 50
90.0
 43
30.0
  0
LINE
  8
SUNPOU
 10
3500.45184
 20
5651.413702
 30
0.0
 11
3500.45184
 21
5674.413702
 31
0.0
  0
LINE
  8
SUNPOU
 10
3530.45184
 20
5674.413702
 30
0.0
 11
3530.45184
 21
5674.413702
 31
0.0
  0
LINE
  8
SUNPOU
 10
3667.45184
 20
5651.413702
 30
0.0
 11
3470.45184
 21
5651.413702
 31
0.0
  0
LINE
  8
SUNPOU
 10
3570.45184
 20
5674.413702
 30
0.0
 11
3370.45184
 21
5674.413702
 31
0.0
  0
LINE
  8
SUNPOU
 10
3570.45184
 20
5224.413702
 30
0.0
 11
3370.45184
 21
5224.413702
 31
0.0
  0
TEXT
  8
SUNPOU
 10
4666.16614
 20
6019.413702
 30
0.0
 40
45.0
  1
210
  7
K
 72
     1
 11
4730.451854
 21
6019.413702
 31
0.0
  0
INSERT
  8
SUNPOU
  2
ARROWANG
 10
4835.45184
 20
5974.413702
 30
0.0
 41
30.0
 42
30.0
 43
30.0
  0
INSERT
  8
SUNPOU
  2
ARROWANG
 10
4625.45184
 20
5974.413702
 30
0.0
 41
30.0
 42
30.0
 50
180.0
 43
30.0
  0
LINE
  8
SUNPOU
 10
4625.45184
 20
5974.413702
 30
0.0
 11
4835.45184
 21
5974.413702
 31
0.0
  0
LINE
  8
SUNPOU
 10
4835.45184
 20
5704.413702
 30
0.0
 11
4835.45184
 21
6004.413702
 31
0.0
  0
LINE
  8
SUNPOU
 10
4625.45184
 20
5681.413702
 30
0.0
 11
4625.45184
 21
6004.413702
 31
0.0
  0
TEXT
  8
SUNPOU
 10
4111.16614
 20
5819.413702
 30
0.0
 40
45.0
  1
956
  7
K
 72
     1
 11
4175.451854
 21
5819.413702
 31
0.0
  0
INSERT
  8
SUNPOU
  2
ARROWANG
 10
4653.45184
 20
5774.413702
 30
0.0
 41
30.0
 42
30.0
 43
30.0
  0
INSERT
  8
SUNPOU
  2
ARROWANG
 10
3697.45184
 20
5774.413702
 30
0.0
 41
30.0
 42
30.0
 50
180.0
 43
30.0
  0
LINE
  8
SUNPOU
 10
3697.45184
 20
5774.413702
 30
0.0
 11
4653.45184
 21
5774.413702
 31
0.0
  0
LINE
  8
SUNPOU
 10
4653.45184
 20
5681.413702
 30
0.0
 11
4653.45184
 21
5804.413702
 31
0.0
  0
LINE
  8
SUNPOU
 10
3697.45184
 20
5681.413702
 30
0.0
 11
3697.45184
 21
5804.413702
 31
0.0
  0
TEXT
  8
SUNPOU
 10
4111.16614
 20
5919.413702
 30
0.0
 40
45.0
  1
970
  7
K
 72
     1
 11
4175.451854
 21
5919.413702
 31
0.0
  0
INSERT
  8
SUNPOU
  2
ARROWANG
 10
4660.45184
 20
5874.413702
 30
0.0
 41
30.0
 42
30.0
 43
30.0
  0
INSERT
  8
SUNPOU
  2
ARROWANG
 10
3690.45184
 20
5874.413702
 30
0.0
 41
30.0
 42
30.0
 50
180.0
 43
30.0
  0
LINE
  8
SUNPOU
 10
3690.45184
 20
5874.413702
 30
0.0
 11
4660.45184
 21
5874.413702
 31
0.0
  0
LINE
  8
SUNPOU
 10
4660.45184
 20
5704.413702
 30
0.0
 11
4660.45184
 21
5904.413702
 31
0.0
  0
LINE
  8
SUNPOU
 10
3690.45184
 20
5704.413702
 30
0.0
 11
3690.45184
 21
5904.413702
 31
0.0
  0
TEXT
  8
SUNPOU
 10
3595.451854
 20
6019.413702
 30
0.0
 40
45.0
  1
125
  7
K
 72
     1
 11
3662.951854
 21
6019.413702
 31
0.0
  0
INSERT
  8
SUNPOU
  2
ARROWANG
 10
3725.45184
 20
5974.413702
 30
0.0
 41
30.0
 42
30.0
 43
30.0
  0
INSERT
  8
SUNPOU
  2
ARROWANG
 10
3600.45184
 20
5974.413702
 30
0.0
 41
30.0
 42
30.0
 50
180.0
 43
30.0
  0
LINE
  8
SUNPOU
 10
3600.45184
 20
5974.413702
 30
0.0
 11
3725.45184
 21
5974.413702
 31
0.0
  0
LINE
  8
SUNPOU
 10
3725.45184
 20
5681.413702
 30
0.0
 11
3725.45184
 21
6004.413702
 31
0.0
  0
LINE
  8
SUNPOU
 10
3600.45184
 20
5704.413702
 30
0.0
 11
3600.45184
 21
6004.413702
 31
0.0
  0
LINE
  8
JISSEN
 10
3756.04537
 20
3438.641463
 30
0.0
 11
3755.45184
 21
3438.641463
 31
0.0
  0
LINE
  8
JISSEN
 10
3767.530278
 20
3458.641463
 30
0.0
 11
3815.451832
 21
3458.641463
 31
0.0
  0
LINE
  8
JISSEN
 10
3749.917554
 20
3838.641463
 30
0.0
 11
3749.917554
 21
3838.641463
 31
0.0
  0
LINE
  8
JISSEN
 10
3777.456865
 20
3858.641463
 30
0.0
 11
3825.451832
 21
3858.641463
 31
0.0
  0
LINE
  8
JISSEN
 10
3855.451832
 20
3828.641463
 30
0.0
 11
3855.451832
 21
3468.641463
 31
0.0
  0
LINE
  8
JISSEN
 10
3825.451832
 20
3438.641463
 30
0.0
 11
3777.456865
 21
3438.641463
 31
0.0
  0
LINE
  8
JISSEN
 10
3835.451832
 20
3478.641463
 30
0.0
 11
3835.451832
 21
3818.641463
 31
0.0
  0
LINE
  8
JISSEN
 10
3815.451832
 20
3838.641463
 30
0.0
 11
3767.530278
 21
3838.641463
 31
0.0
  0
ARC
  8
JISSEN
 10
3815.451832
 20
3818.641463
 30
0.0
 40
20.0
 50
0.0
 51
90.0
  0
ARC
  8
JISSEN
 10
3815.451832
 20
3478.641463
 30
0.0
 40
20.0
 50
270.0
 51
0.0
  0
ARC
  8
JISSEN
 10
3825.451832
 20
3468.641463
 30
0.0
 40
30.0
 50
270.0
 51
0.0
  0
ARC
  8
JISSEN
 10
3825.451832
 20
3828.641463
 30
0.0
 40
30.0
 50
0.0
 51
90.0
  0
LINE
  8
ITTEN
 10
4475.45184
 20
3699.777047
 30
0.0
 11
4475.45184
 21
2673.641463
 31
0.0
  0
LINE
  8
ITTEN
 10
4341.204464
 20
3648.641463
 30
0.0
 11
4104.331578
 21
3648.641463
 31
0.0
  0
LINE
  8
ITTEN
 10
4045.626513
 20
3648.641463
 30
0.0
 11
3500.45184
 21
3648.641463
 31
0.0
  0
LINE
  8
ITTEN
 10
4175.45184
 20
3692.240192
 30
0.0
 11
4175.45184
 21
3098.641463
 31
0.0
  0
LINE
  8
ITTEN
 10
4175.45184
 20
4198.641463
 30
0.0
 11
4175.45184
 21
3774.140689
 31
0.0
  0
LINE
  8
ITTEN
 10
5450.45184
 20
3648.641463
 30
0.0
 11
4425.7726
 21
3648.641463
 31
0.0
  0
LINE
  8
ITTEN
 10
4475.45184
 20
4623.641463
 30
0.0
 11
4475.45184
 21
3787.204572
 31
0.0
  0
LINE
  8
TENSEN
 10
5101.200933
 20
3037.034505
 30
0.0
 11
5051.743665
 21
3086.491774
 31
0.0
  0
LINE
  8
TENSEN
 10
5051.743665
 20
3086.491774
 30
0.0
 11
5037.601529
 21
3072.349638
 31
0.0
  0
LINE
  8
TENSEN
 10
5037.601529
 20
3072.349638
 30
0.0
 11
5087.058798
 21
3022.892369
 31
0.0
  0
LINE
  8
ITTEN
 10
5115.383275
 20
3008.710028
 30
0.0
 11
4973.961919
 21
3150.131384
 31
0.0
  0
LINE
  8
TENSEN
 10
3863.844881
 20
3022.892369
 30
0.0
 11
3913.30215
 21
3072.349638
 31
0.0
  0
LINE
  8
TENSEN
 10
3913.30215
 20
3072.349638
 30
0.0
 11
3899.160014
 21
3086.491774
 31
0.0
  0
LINE
  8
TENSEN
 10
3899.160014
 20
3086.491774
 30
0.0
 11
3849.702746
 21
3037.034505
 31
0.0
  0
LINE
  8
ITTEN
 10
3835.520404
 20
3008.710028
 30
0.0
 11
3976.94176
 21
3150.131384
 31
0.0
  0
LINE
  8
TENSEN
 10
3849.702746
 20
4260.248422
 30
0.0
 11
3899.160014
 21
4210.791153
 31
0.0
  0
LINE
  8
TENSEN
 10
3899.160014
 20
4210.791153
 30
0.0
 11
3913.30215
 21
4224.933288
 31
0.0
  0
LINE
  8
TENSEN
 10
3913.30215
 20
4224.933288
 30
0.0
 11
3863.844881
 21
4274.390557
 31
0.0
  0
LINE
  8
ITTEN
 10
3835.520404
 20
4288.572899
 30
0.0
 11
3976.94176
 21
4147.151543
 31
0.0
  0
LINE
  8
ITTEN
 10
5115.383275
 20
4288.572899
 30
0.0
 11
4973.961919
 21
4147.151543
 31
0.0
  0
LINE
  8
TENSEN
 10
5051.743665
 20
4210.791153
 30
0.0
 11
5101.200933
 21
4260.248422
 31
0.0
  0
LINE
  8
TENSEN
 10
5037.601529
 20
4224.933288
 30
0.0
 11
5051.743665
 21
4210.791153
 31
0.0
  0
LINE
  8
TENSEN
 10
5087.058798
 20
4274.390557
 30
0.0
 11
5037.601529
 21
4224.933288
 31
0.0
  0
CIRCLE
  8
JISSEN
 10
3786.54311
 20
4037.550193
 30
0.0
 40
10.0
  0
LINE
  8
ITTEN
 10
3768.86544
 20
4019.872523
 30
0.0
 11
3804.220779
 21
4055.227862
 31
0.0
  0
LINE
  8
ITTEN
 10
3768.86544
 20
4055.227862
 30
0.0
 11
3804.220779
 21
4019.872523
 31
0.0
  0
LINE
  8
ITTEN
 10
4582.038239
 20
3242.055064
 30
0.0
 11
4546.6829
 21
3277.410403
 31
0.0
  0
LINE
  8
ITTEN
 10
4582.038239
 20
3277.410403
 30
0.0
 11
4546.6829
 21
3242.055064
 31
0.0
  0
CIRCLE
  8
JISSEN
 10
4564.360569
 20
3259.732734
 30
0.0
 40
10.0
  0
CIRCLE
  8
JISSEN
 10
4634.445304
 20
3383.641463
 30
0.0
 40
10.0
  0
LINE
  8
ITTEN
 10
4646.945304
 20
3405.292098
 30
0.0
 11
4621.945304
 21
3361.990828
 31
0.0
  0
LINE
  8
ITTEN
 10
4656.095939
 20
3371.141463
 30
0.0
 11
4612.794668
 21
3396.141463
 31
0.0
  0
CIRCLE
  8
JISSEN
 10
4175.45184
 20
3118.641463
 30
0.0
 40
10.0
  0
LINE
  8
ITTEN
 10
4200.45184
 20
3118.641463
 30
0.0
 11
4150.45184
 21
3118.641463
 31
0.0
  0
LINE
  8
ITTEN
 10
4175.45184
 20
3093.641463
 30
0.0
 11
4175.45184
 21
3143.641463
 31
0.0
  0
POINT
  8
ITTEN
 10
4176.45184
 20
3648.641463
 30
0.0
  0
CIRCLE
  8
JISSEN
 10
3716.458376
 20
3383.641463
 30
0.0
 40
10.0
  0
LINE
  8
ITTEN
 10
3728.958376
 20
3361.990828
 30
0.0
 11
3703.958376
 21
3405.292098
 31
0.0
  0
LINE
  8
ITTEN
 10
3694.80774
 20
3371.141463
 30
0.0
 11
3738.109011
 21
3396.141463
 31
0.0
  0
CIRCLE
  8
JISSEN
 10
3716.458376
 20
3913.641463
 30
0.0
 40
10.0
  0
LINE
  8
ITTEN
 10
3703.958376
 20
3891.990828
 30
0.0
 11
3728.958376
 21
3935.292098
 31
0.0
  0
LINE
  8
ITTEN
 10
3694.80774
 20
3926.141463
 30
0.0
 11
3738.109011
 21
3901.141463
 31
0.0
  0
CIRCLE
  8
JISSEN
 10
4175.45184
 20
4178.641463
 30
0.0
 40
10.0
  0
LINE
  8
ITTEN
 10
4150.45184
 20
4178.641463
 30
0.0
 11
4200.45184
 21
4178.641463
 31
0.0
  0
LINE
  8
ITTEN
 10
4175.45184
 20
4203.641463
 30
0.0
 11
4175.45184
 21
4153.641463
 31
0.0
  0
POINT
  8
ITTEN
 10
4176.45184
 20
3648.641463
 30
0.0
  0
LINE
  8
ITTEN
 10
4656.095939
 20
3926.141463
 30
0.0
 11
4612.794668
 21
3901.141463
 31
0.0
  0
LINE
  8
ITTEN
 10
4621.945304
 20
3935.292098
 30
0.0
 11
4646.945304
 21
3891.990828
 31
0.0
  0
CIRCLE
  8
JISSEN
 10
4634.445304
 20
3913.641463
 30
0.0
 40
10.0
  0
CIRCLE
  8
JISSEN
 10
4175.45184
 20
3648.641463
 30
0.0
 40
450.0
  0
CIRCLE
  8
JISSEN
 10
4217.95184
 20
3648.641463
 30
0.0
 40
617.5
  0
CIRCLE
  8
JISSEN
 10
4175.45184
 20
3648.641463
 30
0.0
 40
478.0
  0
CIRCLE
  8
JISSEN
 10
4175.45184
 20
3648.641463
 30
0.0
 40
485.0
  0
CIRCLE
  8
TENSEN
 10
4475.45184
 20
3648.641463
 30
0.0
 40
750.0
  0
CIRCLE
  8
JISSEN
 10
4475.45184
 20
3648.641463
 30
0.0
 40
875.0
  0
LINE
  8
SUNPOU
 10
3975.45184
 20
5359.413702
 30
0.0
 11
3975.45184
 21
5359.413702
 31
0.0
  0
LINE
  8
SUNPOU
 10
3975.45184
 20
5359.413702
 30
0.0
 11
3975.45184
 21
5359.413702
 31
0.0
  0
LINE
  8
SUNPOU
 10
3975.45184
 20
5359.413702
 30
0.0
 11
3975.45184
 21
5359.413702
 31
0.0
  0
LINE
  8
SUNPOU
 10
3975.45184
 20
5359.413702
 30
0.0
 11
3975.45184
 21
5359.413702
 31
0.0
  0
LINE
  8
SUNPOU
 10
3975.45184
 20
5359.413702
 30
0.0
 11
3975.45184
 21
5359.413702
 31
0.0
  0
ARC
  8
JISSEN
 10
3845.45184
 20
5359.413702
 30
0.0
 40
10.0
 50
270.0
 51
90.0
  0
LINE
  8
JISSEN
 10
3725.45184
 20
5369.413702
 30
0.0
 11
3845.45184
 21
5369.413702
 31
0.0
  0
LINE
  8
JISSEN
 10
3845.45184
 20
5349.413702
 30
0.0
 11
3725.45184
 21
5349.413702
 31
0.0
  0
LINE
  8
ITTEN
 10
3669.335986
 20
5359.413702
 30
0.0
 11
4025.45184
 21
5359.413702
 31
0.0
  0
LINE
  8
ITTEN
 10
3669.335986
 20
5359.413702
 30
0.0
 11
4025.45184
 21
5359.413702
 31
0.0
  0
LINE
  8
ITTEN
 10
3669.335986
 20
5359.413702
 30
0.0
 11
4025.45184
 21
5359.413702
 31
0.0
  0
LINE
  8
ITTEN
 10
3669.335986
 20
5359.413702
 30
0.0
 11
4025.45184
 21
5359.413702
 31
0.0
  0
LINE
  8
ITTEN
 10
3669.335986
 20
5359.413702
 30
0.0
 11
4025.45184
 21
5359.413702
 31
0.0
  0
LINE
  8
SUNPOU
 10
3975.45184
 20
5209.413702
 30
0.0
 11
3975.45184
 21
5209.413702
 31
0.0
  0
LINE
  8
SUNPOU
 10
3975.45184
 20
5359.413702
 30
0.0
 11
3975.45184
 21
5359.413702
 31
0.0
  0
LINE
  8
SUNPOU
 10
4005.45184
 20
5209.413702
 30
0.0
 11
4005.45184
 21
5359.413702
 31
0.0
  0
INSERT
  8
SUNPOU
  2
ARROWANG
 10
4005.45184
 20
5209.413702
 30
0.0
 41
30.0
 42
30.0
 50
270.0
 43
30.0
  0
INSERT
  8
SUNPOU
  2
ARROWANG
 10
4005.45184
 20
5359.413702
 30
0.0
 41
30.0
 42
30.0
 50
90.0
 43
30.0
  0
TEXT
  8
SUNPOU
 10
3960.45184
 20
5216.913702
 30
0.0
 40
45.0
  1
150
 50
90.0
  7
K
 72
     1
 11
3960.45184
 21
5284.413702
 31
0.0
  0
LINE
  8
SUNPOU
 10
4035.45184
 20
5359.413702
 30
0.0
 11
4035.45184
 21
5359.413702
 31
0.0
  0
LINE
  8
SUNPOU
 10
4035.45184
 20
5359.413702
 30
0.0
 11
4035.45184
 21
5359.413702
 31
0.0
  0
LINE
  8
SUNPOU
 10
3975.45184
 20
5359.413702
 30
0.0
 11
3975.45184
 21
5359.413702
 31
0.0
  0
LINE
  8
SUNPOU
 10
3975.45184
 20
5359.413702
 30
0.0
 11
3975.45184
 21
5359.413702
 31
0.0
  0
LINE
  8
SUNPOU
 10
4005.45184
 20
5359.413702
 30
0.0
 11
4005.45184
 21
5359.413702
 31
0.0
  0
LINE
  8
SUNPOU
 10
4035.45184
 20
5359.413702
 30
0.0
 11
4035.45184
 21
5359.413702
 31
0.0
  0
LINE
  8
SUNPOU
 10
4035.45184
 20
5359.413702
 30
0.0
 11
4035.45184
 21
5359.413702
 31
0.0
  0
LINE
  8
SUNPOU
 10
4005.45184
 20
5359.413702
 30
0.0
 11
4005.45184
 21
5359.413702
 31
0.0
  0
LINE
  8
SUNPOU
 10
3975.45184
 20
5359.413702
 30
0.0
 11
3975.45184
 21
5359.413702
 31
0.0
  0
LINE
  8
SUNPOU
 10
3975.45184
 20
5359.413702
 30
0.0
 11
3975.45184
 21
5359.413702
 31
0.0
  0
LINE
  8
SUNPOU
 10
3975.45184
 20
5359.413702
 30
0.0
 11
3975.45184
 21
5359.413702
 31
0.0
  0
LINE
  8
SUNPOU
 10
3975.45184
 20
5359.413702
 30
0.0
 11
3975.45184
 21
5359.413702
 31
0.0
  0
LINE
  8
SUNPOU
 10
4005.45184
 20
5359.413702
 30
0.0
 11
4005.45184
 21
5359.413702
 31
0.0
  0
LINE
  8
SUNPOU
 10
3975.45184
 20
5359.413702
 30
0.0
 11
3975.45184
 21
5359.413702
 31
0.0
  0
LINE
  8
SUNPOU
 10
3975.45184
 20
5359.413702
 30
0.0
 11
3975.45184
 21
5359.413702
 31
0.0
  0
LINE
  8
SUNPOU
 10
4005.45184
 20
5359.413702
 30
0.0
 11
4005.45184
 21
5359.413702
 31
0.0
  0
INSERT
  8
SUNPOU
  2
ARROWANG
 10
4005.45184
 20
5359.413702
 30
0.0
 41
30.0
 42
30.0
 50
90.0
 43
30.0
  0
LINE
  8
SUNPOU
 10
3975.45184
 20
5359.413702
 30
0.0
 11
3975.45184
 21
5359.413702
 31
0.0
  0
LINE
  8
ITTEN
 10
3669.335986
 20
5359.413702
 30
0.0
 11
4025.45184
 21
5359.413702
 31
0.0
  0
LINE
  8
SUNPOU
 10
3975.45184
 20
5359.413702
 30
0.0
 11
3975.45184
 21
5359.413702
 31
0.0
  0
LINE
  8
SUNPOU
 10
3975.45184
 20
5359.413702
 30
0.0
 11
3975.45184
 21
5359.413702
 31
0.0
  0
LINE
  8
SUNPOU
 10
3975.45184
 20
5359.413702
 30
0.0
 11
3975.45184
 21
5359.413702
 31
0.0
  0
LINE
  8
SUNPOU
 10
3975.45184
 20
5359.413702
 30
0.0
 11
3975.45184
 21
5359.413702
 31
0.0
  0
LINE
  8
SUNPOU
 10
4005.45184
 20
5359.413702
 30
0.0
 11
4005.45184
 21
5359.413702
 31
0.0
  0
LINE
  8
JISSEN
 10
3725.45184
 20
5599.413702
 30
0.0
 11
3845.45184
 21
5599.413702
 31
0.0
  0
LINE
  8
JISSEN
 10
3845.45184
 20
5579.413702
 30
0.0
 11
3725.45184
 21
5579.413702
 31
0.0
  0
LINE
  8
ITTEN
 10
3669.335986
 20
5589.413702
 30
0.0
 11
4025.45184
 21
5589.413702
 31
0.0
  0
ARC
  8
JISSEN
 10
3845.45184
 20
5589.413702
 30
0.0
 40
10.0
 50
270.0
 51
90.0
  0
LINE
  8
SUNPOU
 10
3975.45184
 20
5359.413702
 30
0.0
 11
3975.45184
 21
5359.413702
 31
0.0
  0
LINE
  8
SUNPOU
 10
4035.45184
 20
5359.413702
 30
0.0
 11
4035.45184
 21
5359.413702
 31
0.0
  0
LINE
  8
SUNPOU
 10
4035.45184
 20
5359.413702
 30
0.0
 11
4035.45184
 21
5359.413702
 31
0.0
  0
LINE
  8
SUNPOU
 10
4005.45184
 20
5359.413702
 30
0.0
 11
4005.45184
 21
5359.413702
 31
0.0
  0
INSERT
  8
SUNPOU
  2
ARROWANG
 10
4005.45184
 20
5359.413702
 30
0.0
 41
30.0
 42
30.0
 50
90.0
 43
30.0
  0
LINE
  8
JISSEN
 10
4468.134766
 20
5224.413702
 30
0.0
 11
5264.45184
 21
5224.413702
 31
0.0
  0
LINE
  8
JISSEN
 10
4419.354279
 20
5324.413702
 30
0.0
 11
5350.45184
 21
5324.413702
 31
0.0
  0
LINE
  8
TENSEN
 10
4186.671352
 20
5651.413702
 30
0.0
 11
4625.45184
 21
5651.413702
 31
0.0
  0
LINE
  8
JISSEN
 10
3725.45184
 20
5651.413702
 30
0.0
 11
4186.671352
 21
5651.413702
 31
0.0
  0
LINE
  8
ITTEN
 10
4135.714469
 20
5755.875311
 30
0.0
 11
4515.492021
 21
5127.331328
 31
0.0
  0
LINE
  8
JISSEN
 10
3690.45184
 20
5674.413702
 30
0.0
 11
4660.45184
 21
5674.413702
 31
0.0
  0
LINE
  8
JISSEN
 10
3725.45184
 20
5209.413702
 30
0.0
 11
5225.45184
 21
5209.413702
 31
0.0
  0
LINE
  8
TENSEN
 10
4625.45184
 20
5591.413702
 30
0.0
 11
5225.45184
 21
5209.413702
 31
0.0
  0
LINE
  8
TENSEN
 10
4625.45184
 20
5651.413702
 30
0.0
 11
4625.45184
 21
5591.413702
 31
0.0
  0
LINE
  8
JISSEN
 10
4835.45184
 20
5674.413702
 30
0.0
 11
5350.45184
 21
5324.413702
 31
0.0
  0
LINE
  8
JISSEN
 10
4660.45184
 20
5674.413702
 30
0.0
 11
4835.45184
 21
5674.413702
 31
0.0
  0
LINE
  8
TENSEN
 10
4653.45184
 20
5651.413702
 30
0.0
 11
4660.45184
 21
5674.413702
 31
0.0
  0
LINE
  8
TENSEN
 10
4625.45184
 20
5651.413702
 30
0.0
 11
4653.45184
 21
5651.413702
 31
0.0
  0
LINE
  8
JISSEN
 10
5350.45184
 20
5224.413702
 30
0.0
 11
5350.45184
 21
5324.413702
 31
0.0
  0
LINE
  8
JISSEN
 10
5264.45184
 20
5224.413702
 30
0.0
 11
5350.45184
 21
5224.413702
 31
0.0
  0
LINE
  8
JISSEN
 10
5253.45184
 20
5209.413702
 30
0.0
 11
5264.45184
 21
5224.413702
 31
0.0
  0
LINE
  8
JISSEN
 10
5225.45184
 20
5209.413702
 30
0.0
 11
5253.45184
 21
5209.413702
 31
0.0
  0
LINE
  8
JISSEN
 10
3725.45184
 20
5651.413702
 30
0.0
 11
3725.45184
 21
5209.413702
 31
0.0
  0
LINE
  8
JISSEN
 10
3697.45184
 20
5209.413702
 30
0.0
 11
3725.45184
 21
5209.413702
 31
0.0
  0
LINE
  8
JISSEN
 10
3600.45184
 20
5674.413702
 30
0.0
 11
3600.45184
 21
5224.413702
 31
0.0
  0
LINE
  8
JISSEN
 10
3697.45184
 20
5651.413702
 30
0.0
 11
3725.45184
 21
5651.413702
 31
0.0
  0
LINE
  8
JISSEN
 10
3690.45184
 20
5674.413702
 30
0.0
 11
3697.45184
 21
5651.413702
 31
0.0
  0
LINE
  8
JISSEN
 10
3600.45184
 20
5674.413702
 30
0.0
 11
3690.45184
 21
5674.413702
 31
0.0
  0
LINE
  8
SUNPOU
 10
3975.45184
 20
5359.413702
 30
0.0
 11
3975.45184
 21
5359.413702
 31
0.0
  0
LINE
  8
SUNPOU
 10
3975.45184
 20
5589.413702
 30
0.0
 11
3975.45184
 21
5589.413702
 31
0.0
  0
LINE
  8
SUNPOU
 10
4005.45184
 20
5359.413702
 30
0.0
 11
4005.45184
 21
5589.413702
 31
0.0
  0
INSERT
  8
SUNPOU
  2
ARROWANG
 10
4005.45184
 20
5359.413702
 30
0.0
 41
30.0
 42
30.0
 50
270.0
 43
30.0
  0
INSERT
  8
SUNPOU
  2
ARROWANG
 10
4005.45184
 20
5589.413702
 30
0.0
 41
30.0
 42
30.0
 50
90.0
 43
30.0
  0
TEXT
  8
SUNPOU
 10
3960.45184
 20
5410.127987
 30
0.0
 40
45.0
  1
230
 50
90.0
  7
K
 72
     1
 11
3960.45184
 21
5474.413702
 31
0.0
  0
LINE
  8
SUNPOU
 10
4092.95184
 20
5209.413702
 30
0.0
 11
4092.95184
 21
5209.413702
 31
0.0
  0
LINE
  8
SUNPOU
 10
4092.95184
 20
5651.413702
 30
0.0
 11
4092.95184
 21
5651.413702
 31
0.0
  0
LINE
  8
SUNPOU
 10
4122.95184
 20
5209.413702
 30
0.0
 11
4122.95184
 21
5651.413702
 31
0.0
  0
INSERT
  8
SUNPOU
  2
ARROWANG
 10
4122.95184
 20
5209.413702
 30
0.0
 41
30.0
 42
30.0
 50
270.0
 43
30.0
  0
INSERT
  8
SUNPOU
  2
ARROWANG
 10
4122.95184
 20
5651.413702
 30
0.0
 41
30.0
 42
30.0
 50
90.0
 43
30.0
  0
TEXT
  8
SUNPOU
 10
4077.95184
 20
5366.127987
 30
0.0
 40
45.0
  1
442
 50
90.0
  7
K
 72
     1
 11
4077.95184
 21
5430.413702
 31
0.0
  0
LINE
  8
SUNPOU
 10
3370.45184
 20
5224.413702
 30
0.0
 11
3370.45184
 21
5224.413702
 31
0.0
  0
LINE
  8
SUNPOU
 10
3370.45184
 20
5674.413702
 30
0.0
 11
3370.45184
 21
5674.413702
 31
0.0
  0
LINE
  8
SUNPOU
 10
3400.45184
 20
5224.413702
 30
0.0
 11
3400.45184
 21
5674.413702
 31
0.0
  0
INSERT
  8
SUNPOU
  2
ARROWANG
 10
3400.45184
 20
5224.413702
 30
0.0
 41
30.0
 42
30.0
 50
270.0
 43
30.0
  0
INSERT
  8
SUNPOU
  2
ARROWANG
 10
3400.45184
 20
5674.413702
 30
0.0
 41
30.0
 42
30.0
 50
90.0
 43
30.0
  0
TEXT
  8
SUNPOU
 10
3355.45184
 20
5385.127987
 30
0.0
 40
45.0
  1
450
 50
90.0
  7
K
 72
     1
 11
3355.45184
 21
5449.413702
 31
0.0
  0
LINE
  8
SUNPOU
 10
1092.95184
 20
5651.413702
 30
0.0
 11
1092.95184
 21
5651.413702
 31
0.0
  0
LINE
  8
SUNPOU
 10
1092.95184
 20
5359.413702
 30
0.0
 11
1092.95184
 21
5359.413702
 31
0.0
  0
LINE
  8
SUNPOU
 10
975.45184
 20
5509.413702
 30
0.0
 11
975.45184
 21
5509.413702
 31
0.0
  0
LINE
  8
JISSEN
 10
600.45184
 20
5674.413702
 30
0.0
 11
690.45184
 21
5674.413702
 31
0.0
  0
LINE
  8
JISSEN
 10
690.45184
 20
5674.413702
 30
0.0
 11
697.45184
 21
5651.413702
 31
0.0
  0
LINE
  8
JISSEN
 10
697.45184
 20
5651.413702
 30
0.0
 11
725.45184
 21
5651.413702
 31
0.0
  0
LINE
  8
JISSEN
 10
600.45184
 20
5674.413702
 30
0.0
 11
600.45184
 21
5374.413702
 31
0.0
  0
LINE
  8
JISSEN
 10
697.45184
 20
5359.413702
 30
0.0
 11
725.45184
 21
5359.413702
 31
0.0
  0
LINE
  8
JISSEN
 10
725.45184
 20
5651.413702
 30
0.0
 11
725.45184
 21
5359.413702
 31
0.0
  0
LINE
  8
JISSEN
 10
2225.45184
 20
5359.413702
 30
0.0
 11
2253.45184
 21
5359.413702
 31
0.0
  0
LINE
  8
JISSEN
 10
2253.45184
 20
5359.413702
 30
0.0
 11
2264.45184
 21
5374.413702
 31
0.0
  0
LINE
  8
JISSEN
 10
2264.45184
 20
5374.413702
 30
0.0
 11
2350.45184
 21
5374.413702
 31
0.0
  0
LINE
  8
JISSEN
 10
2350.45184
 20
5374.413702
 30
0.0
 11
2350.45184
 21
5474.413702
 31
0.0
  0
LINE
  8
TENSEN
 10
1625.45184
 20
5651.413702
 30
0.0
 11
1653.45184
 21
5651.413702
 31
0.0
  0
LINE
  8
TENSEN
 10
1653.45184
 20
5651.413702
 30
0.0
 11
1660.45184
 21
5674.413702
 31
0.0
  0
LINE
  8
JISSEN
 10
1660.45184
 20
5674.413702
 30
0.0
 11
1835.45184
 21
5674.413702
 31
0.0
  0
LINE
  8
JISSEN
 10
1835.45184
 20
5674.413702
 30
0.0
 11
2350.45184
 21
5474.413702
 31
0.0
  0
LINE
  8
TENSEN
 10
1625.45184
 20
5651.413702
 30
0.0
 11
1625.45184
 21
5591.413702
 31
0.0
  0
LINE
  8
TENSEN
 10
1625.45184
 20
5591.413702
 30
0.0
 11
2225.45184
 21
5359.413702
 31
0.0
  0
LINE
  8
JISSEN
 10
725.45184
 20
5359.413702
 30
0.0
 11
2225.45184
 21
5359.413702
 31
0.0
  0
LINE
  8
JISSEN
 10
690.45184
 20
5674.413702
 30
0.0
 11
1660.45184
 21
5674.413702
 31
0.0
  0
LINE
  8
ITTEN
 10
1135.714469
 20
5755.875311
 30
0.0
 11
1515.492021
 21
5277.331328
 31
0.0
  0
LINE
  8
JISSEN
 10
725.45184
 20
5651.413702
 30
0.0
 11
1186.671352
 21
5651.413702
 31
0.0
  0
LINE
  8
TENSEN
 10
1186.671352
 20
5651.413702
 30
0.0
 11
1625.45184
 21
5651.413702
 31
0.0
  0
LINE
  8
JISSEN
 10
1419.354279
 20
5474.413702
 30
0.0
 11
2350.45184
 21
5474.413702
 31
0.0
  0
LINE
  8
JISSEN
 10
1468.134766
 20
5374.413702
 30
0.0
 11
2264.45184
 21
5374.413702
 31
0.0
  0
INSERT
  8
SUNPOU
  2
ARROWANG
 10
1005.45184
 20
5509.413702
 30
0.0
 41
30.0
 42
30.0
 50
90.0
 43
30.0
  0
LINE
  8
SUNPOU
 10
1005.45184
 20
5509.413702
 30
0.0
 11
1005.45184
 21
5509.413702
 31
0.0
  0
LINE
  8
SUNPOU
 10
1035.45184
 20
5509.413702
 30
0.0
 11
1035.45184
 21
5509.413702
 31
0.0
  0
LINE
  8
SUNPOU
 10
1035.45184
 20
5509.413702
 30
0.0
 11
1035.45184
 21
5509.413702
 31
0.0
  0
LINE
  8
SUNPOU
 10
975.45184
 20
5509.413702
 30
0.0
 11
975.45184
 21
5509.413702
 31
0.0
  0
LINE
  8
SUNPOU
 10
1005.45184
 20
5509.413702
 30
0.0
 11
1005.45184
 21
5509.413702
 31
0.0
  0
LINE
  8
SUNPOU
 10
975.45184
 20
5509.413702
 30
0.0
 11
975.45184
 21
5509.413702
 31
0.0
  0
LINE
  8
SUNPOU
 10
975.45184
 20
5509.413702
 30
0.0
 11
975.45184
 21
5509.413702
 31
0.0
  0
LINE
  8
SUNPOU
 10
975.45184
 20
5509.413702
 30
0.0
 11
975.45184
 21
5509.413702
 31
0.0
  0
LINE
  8
SUNPOU
 10
975.45184
 20
5509.413702
 30
0.0
 11
975.45184
 21
5509.413702
 31
0.0
  0
LINE
  8
ITTEN
 10
669.335986
 20
5509.413702
 30
0.0
 11
1025.45184
 21
5509.413702
 31
0.0
  0
LINE
  8
SUNPOU
 10
975.45184
 20
5509.413702
 30
0.0
 11
975.45184
 21
5509.413702
 31
0.0
  0
INSERT
  8
SUNPOU
  2
ARROWANG
 10
1005.45184
 20
5509.413702
 30
0.0
 41
30.0
 42
30.0
 50
90.0
 43
30.0
  0
LINE
  8
SUNPOU
 10
1005.45184
 20
5509.413702
 30
0.0
 11
1005.45184
 21
5509.413702
 31
0.0
  0
LINE
  8
SUNPOU
 10
975.45184
 20
5509.413702
 30
0.0
 11
975.45184
 21
5509.413702
 31
0.0
  0
LINE
  8
SUNPOU
 10
975.45184
 20
5509.413702
 30
0.0
 11
975.45184
 21
5509.413702
 31
0.0
  0
LINE
  8
SUNPOU
 10
1005.45184
 20
5509.413702
 30
0.0
 11
1005.45184
 21
5509.413702
 31
0.0
  0
LINE
  8
SUNPOU
 10
975.45184
 20
5509.413702
 30
0.0
 11
975.45184
 21
5509.413702
 31
0.0
  0
LINE
  8
SUNPOU
 10
975.45184
 20
5509.413702
 30
0.0
 11
975.45184
 21
5509.413702
 31
0.0
  0
LINE
  8
SUNPOU
 10
975.45184
 20
5509.413702
 30
0.0
 11
975.45184
 21
5509.413702
 31
0.0
  0
LINE
  8
SUNPOU
 10
975.45184
 20
5509.413702
 30
0.0
 11
975.45184
 21
5509.413702
 31
0.0
  0
LINE
  8
SUNPOU
 10
1005.45184
 20
5509.413702
 30
0.0
 11
1005.45184
 21
5509.413702
 31
0.0
  0
LINE
  8
SUNPOU
 10
1035.45184
 20
5509.413702
 30
0.0
 11
1035.45184
 21
5509.413702
 31
0.0
  0
LINE
  8
SUNPOU
 10
1035.45184
 20
5509.413702
 30
0.0
 11
1035.45184
 21
5509.413702
 31
0.0
  0
LINE
  8
SUNPOU
 10
1005.45184
 20
5509.413702
 30
0.0
 11
1005.45184
 21
5509.413702
 31
0.0
  0
LINE
  8
SUNPOU
 10
975.45184
 20
5509.413702
 30
0.0
 11
975.45184
 21
5509.413702
 31
0.0
  0
LINE
  8
SUNPOU
 10
975.45184
 20
5509.413702
 30
0.0
 11
975.45184
 21
5509.413702
 31
0.0
  0
LINE
  8
SUNPOU
 10
1035.45184
 20
5509.413702
 30
0.0
 11
1035.45184
 21
5509.413702
 31
0.0
  0
LINE
  8
SUNPOU
 10
1035.45184
 20
5509.413702
 30
0.0
 11
1035.45184
 21
5509.413702
 31
0.0
  0
TEXT
  8
SUNPOU
 10
960.45184
 20
5366.913702
 30
0.0
 40
45.0
  1
150
 50
90.0
  7
K
 72
     1
 11
960.45184
 21
5434.413702
 31
0.0
  0
INSERT
  8
SUNPOU
  2
ARROWANG
 10
1005.45184
 20
5509.413702
 30
0.0
 41
30.0
 42
30.0
 50
90.0
 43
30.0
  0
INSERT
  8
SUNPOU
  2
ARROWANG
 10
1005.45184
 20
5359.413702
 30
0.0
 41
30.0
 42
30.0
 50
270.0
 43
30.0
  0
LINE
  8
SUNPOU
 10
1005.45184
 20
5359.413702
 30
0.0
 11
1005.45184
 21
5509.413702
 31
0.0
  0
LINE
  8
SUNPOU
 10
975.45184
 20
5509.413702
 30
0.0
 11
975.45184
 21
5509.413702
 31
0.0
  0
LINE
  8
SUNPOU
 10
975.45184
 20
5359.413702
 30
0.0
 11
975.45184
 21
5359.413702
 31
0.0
  0
LINE
  8
ITTEN
 10
669.335986
 20
5509.413702
 30
0.0
 11
1025.45184
 21
5509.413702
 31
0.0
  0
LINE
  8
ITTEN
 10
669.335986
 20
5509.413702
 30
0.0
 11
1025.45184
 21
5509.413702
 31
0.0
  0
LINE
  8
ITTEN
 10
669.335986
 20
5509.413702
 30
0.0
 11
1025.45184
 21
5509.413702
 31
0.0
  0
LINE
  8
ITTEN
 10
669.335986
 20
5509.413702
 30
0.0
 11
1025.45184
 21
5509.413702
 31
0.0
  0
LINE
  8
ITTEN
 10
669.335986
 20
5509.413702
 30
0.0
 11
1025.45184
 21
5509.413702
 31
0.0
  0
LINE
  8
JISSEN
 10
845.45184
 20
5499.413702
 30
0.0
 11
725.45184
 21
5499.413702
 31
0.0
  0
LINE
  8
JISSEN
 10
725.45184
 20
5519.413702
 30
0.0
 11
845.45184
 21
5519.413702
 31
0.0
  0
ARC
  8
JISSEN
 10
845.45184
 20
5509.413702
 30
0.0
 40
10.0
 50
270.0
 51
90.0
  0
LINE
  8
SUNPOU
 10
975.45184
 20
5509.413702
 30
0.0
 11
975.45184
 21
5509.413702
 31
0.0
  0
LINE
  8
SUNPOU
 10
975.45184
 20
5509.413702
 30
0.0
 11
975.45184
 21
5509.413702
 31
0.0
  0
LINE
  8
SUNPOU
 10
975.45184
 20
5509.413702
 30
0.0
 11
975.45184
 21
5509.413702
 31
0.0
  0
LINE
  8
SUNPOU
 10
975.45184
 20
5509.413702
 30
0.0
 11
975.45184
 21
5509.413702
 31
0.0
  0
LINE
  8
SUNPOU
 10
975.45184
 20
5509.413702
 30
0.0
 11
975.45184
 21
5509.413702
 31
0.0
  0
CIRCLE
  8
JISSEN
 10
1475.45184
 20
3648.641463
 30
0.0
 40
875.0
  0
CIRCLE
  8
TENSEN
 10
1475.45184
 20
3648.641463
 30
0.0
 40
750.0
  0
CIRCLE
  8
JISSEN
 10
1175.45184
 20
3648.641463
 30
0.0
 40
485.0
  0
CIRCLE
  8
JISSEN
 10
1175.45184
 20
3648.641463
 30
0.0
 40
478.0
  0
CIRCLE
  8
JISSEN
 10
1217.95184
 20
3648.641463
 30
0.0
 40
617.5
  0
CIRCLE
  8
JISSEN
 10
1175.45184
 20
3648.641463
 30
0.0
 40
450.0
  0
POINT
  8
ITTEN
 10
1176.45184
 20
3648.641463
 30
0.0
  0
LINE
  8
ITTEN
 10
1175.45184
 20
4203.641463
 30
0.0
 11
1175.45184
 21
4153.641463
 31
0.0
  0
LINE
  8
ITTEN
 10
1150.45184
 20
4178.641463
 30
0.0
 11
1200.45184
 21
4178.641463
 31
0.0
  0
CIRCLE
  8
JISSEN
 10
1175.45184
 20
4178.641463
 30
0.0
 40
10.0
  0
LINE
  8
ITTEN
 10
694.80774
 20
3371.141463
 30
0.0
 11
738.109011
 21
3396.141463
 31
0.0
  0
LINE
  8
ITTEN
 10
728.958376
 20
3361.990828
 30
0.0
 11
703.958376
 21
3405.292098
 31
0.0
  0
CIRCLE
  8
JISSEN
 10
716.458376
 20
3383.641463
 30
0.0
 40
10.0
  0
POINT
  8
ITTEN
 10
1176.45184
 20
3648.641463
 30
0.0
  0
LINE
  8
ITTEN
 10
1656.095939
 20
3371.141463
 30
0.0
 11
1612.794668
 21
3396.141463
 31
0.0
  0
LINE
  8
ITTEN
 10
1646.945304
 20
3405.292098
 30
0.0
 11
1621.945304
 21
3361.990828
 31
0.0
  0
CIRCLE
  8
JISSEN
 10
1634.445304
 20
3383.641463
 30
0.0
 40
10.0
  0
CIRCLE
  8
JISSEN
 10
1564.360569
 20
3259.732734
 30
0.0
 40
10.0
  0
LINE
  8
ITTEN
 10
1582.038239
 20
3277.410403
 30
0.0
 11
1546.6829
 21
3242.055064
 31
0.0
  0
LINE
  8
ITTEN
 10
1582.038239
 20
3242.055064
 30
0.0
 11
1546.6829
 21
3277.410403
 31
0.0
  0
LINE
  8
ITTEN
 10
768.86544
 20
4055.227862
 30
0.0
 11
804.220779
 21
4019.872523
 31
0.0
  0
LINE
  8
ITTEN
 10
768.86544
 20
4019.872523
 30
0.0
 11
804.220779
 21
4055.227862
 31
0.0
  0
CIRCLE
  8
JISSEN
 10
786.54311
 20
4037.550193
 30
0.0
 40
10.0
  0
LINE
  8
TENSEN
 10
2087.058798
 20
4274.390557
 30
0.0
 11
2037.601529
 21
4224.933288
 31
0.0
  0
LINE
  8
TENSEN
 10
2037.601529
 20
4224.933288
 30
0.0
 11
2051.743665
 21
4210.791153
 31
0.0
  0
LINE
  8
TENSEN
 10
2051.743665
 20
4210.791153
 30
0.0
 11
2101.200933
 21
4260.248422
 31
0.0
  0
LINE
  8
ITTEN
 10
2115.383275
 20
4288.572899
 30
0.0
 11
1973.961919
 21
4147.151543
 31
0.0
  0
LINE
  8
ITTEN
 10
835.520404
 20
4288.572899
 30
0.0
 11
976.94176
 21
4147.151543
 31
0.0
  0
LINE
  8
TENSEN
 10
913.30215
 20
4224.933288
 30
0.0
 11
863.844881
 21
4274.390557
 31
0.0
  0
LINE
  8
TENSEN
 10
899.160014
 20
4210.791153
 30
0.0
 11
913.30215
 21
4224.933288
 31
0.0
  0
LINE
  8
TENSEN
 10
849.702746
 20
4260.248422
 30
0.0
 11
899.160014
 21
4210.791153
 31
0.0
  0
LINE
  8
ITTEN
 10
835.520404
 20
3008.710028
 30
0.0
 11
976.94176
 21
3150.131384
 31
0.0
  0
LINE
  8
TENSEN
 10
899.160014
 20
3086.491774
 30
0.0
 11
849.702746
 21
3037.034505
 31
0.0
  0
LINE
  8
TENSEN
 10
913.30215
 20
3072.349638
 30
0.0
 11
899.160014
 21
3086.491774
 31
0.0
  0
LINE
  8
TENSEN
 10
863.844881
 20
3022.892369
 30
0.0
 11
913.30215
 21
3072.349638
 31
0.0
  0
LINE
  8
ITTEN
 10
2115.383275
 20
3008.710028
 30
0.0
 11
1973.961919
 21
3150.131384
 31
0.0
  0
LINE
  8
TENSEN
 10
2037.601529
 20
3072.349638
 30
0.0
 11
2087.058798
 21
3022.892369
 31
0.0
  0
LINE
  8
TENSEN
 10
2051.743665
 20
3086.491774
 30
0.0
 11
2037.601529
 21
3072.349638
 31
0.0
  0
LINE
  8
TENSEN
 10
2101.200933
 20
3037.034505
 30
0.0
 11
2051.743665
 21
3086.491774
 31
0.0
  0
LINE
  8
ITTEN
 10
1475.45184
 20
4623.641463
 30
0.0
 11
1475.45184
 21
3787.204572
 31
0.0
  0
LINE
  8
ITTEN
 10
2450.45184
 20
3648.641463
 30
0.0
 11
1425.7726
 21
3648.641463
 31
0.0
  0
LINE
  8
ITTEN
 10
1175.45184
 20
4198.641463
 30
0.0
 11
1175.45184
 21
3774.140689
 31
0.0
  0
LINE
  8
ITTEN
 10
1175.45184
 20
3692.240192
 30
0.0
 11
1175.45184
 21
3098.641463
 31
0.0
  0
LINE
  8
ITTEN
 10
1045.626513
 20
3648.641463
 30
0.0
 11
500.45184
 21
3648.641463
 31
0.0
  0
LINE
  8
ITTEN
 10
1341.204464
 20
3648.641463
 30
0.0
 11
1104.331578
 21
3648.641463
 31
0.0
  0
LINE
  8
ITTEN
 10
1475.45184
 20
3699.777047
 30
0.0
 11
1475.45184
 21
2673.641463
 31
0.0
  0
ARC
  8
JISSEN
 10
825.451832
 20
3828.641463
 30
0.0
 40
30.0
 50
0.0
 51
90.0
  0
ARC
  8
JISSEN
 10
825.451832
 20
3468.641463
 30
0.0
 40
30.0
 50
270.0
 51
0.0
  0
ARC
  8
JISSEN
 10
815.451832
 20
3478.641463
 30
0.0
 40
20.0
 50
270.0
 51
0.0
  0
ARC
  8
JISSEN
 10
815.451832
 20
3818.641463
 30
0.0
 40
20.0
 50
0.0
 51
90.0
  0
LINE
  8
JISSEN
 10
815.451832
 20
3838.641463
 30
0.0
 11
767.530278
 21
3838.641463
 31
0.0
  0
LINE
  8
JISSEN
 10
835.451832
 20
3478.641463
 30
0.0
 11
835.451832
 21
3818.641463
 31
0.0
  0
LINE
  8
JISSEN
 10
825.451832
 20
3438.641463
 30
0.0
 11
777.456865
 21
3438.641463
 31
0.0
  0
LINE
  8
JISSEN
 10
855.451832
 20
3828.641463
 30
0.0
 11
855.451832
 21
3468.641463
 31
0.0
  0
LINE
  8
JISSEN
 10
777.456865
 20
3858.641463
 30
0.0
 11
825.451832
 21
3858.641463
 31
0.0
  0
LINE
  8
JISSEN
 10
749.917554
 20
3838.641463
 30
0.0
 11
749.917554
 21
3838.641463
 31
0.0
  0
LINE
  8
JISSEN
 10
767.530278
 20
3458.641463
 30
0.0
 11
815.451832
 21
3458.641463
 31
0.0
  0
LINE
  8
JISSEN
 10
756.04537
 20
3438.641463
 30
0.0
 11
755.45184
 21
3438.641463
 31
0.0
  0
LINE
  8
SUNPOU
 10
600.45184
 20
5704.413702
 30
0.0
 11
600.45184
 21
6004.413702
 31
0.0
  0
LINE
  8
SUNPOU
 10
725.45184
 20
5681.413702
 30
0.0
 11
725.45184
 21
6004.413702
 31
0.0
  0
LINE
  8
SUNPOU
 10
600.45184
 20
5974.413702
 30
0.0
 11
725.45184
 21
5974.413702
 31
0.0
  0
INSERT
  8
SUNPOU
  2
ARROWANG
 10
600.45184
 20
5974.413702
 30
0.0
 41
30.0
 42
30.0
 50
180.0
 43
30.0
  0
INSERT
  8
SUNPOU
  2
ARROWANG
 10
725.45184
 20
5974.413702
 30
0.0
 41
30.0
 42
30.0
 43
30.0
  0
TEXT
  8
SUNPOU
 10
595.451854
 20
6019.413702
 30
0.0
 40
45.0
  1
125
  7
K
 72
     1
 11
662.951854
 21
6019.413702
 31
0.0
  0
LINE
  8
SUNPOU
 10
690.45184
 20
5704.413702
 30
0.0
 11
690.45184
 21
5904.413702
 31
0.0
  0
LINE
  8
SUNPOU
 10
1660.45184
 20
5704.413702
 30
0.0
 11
1660.45184
 21
5904.413702
 31
0.0
  0
LINE
  8
SUNPOU
 10
690.45184
 20
5874.413702
 30
0.0
 11
1660.45184
 21
5874.413702
 31
0.0
  0
INSERT
  8
SUNPOU
  2
ARROWANG
 10
690.45184
 20
5874.413702
 30
0.0
 41
30.0
 42
30.0
 50
180.0
 43
30.0
  0
INSERT
  8
SUNPOU
  2
ARROWANG
 10
1660.45184
 20
5874.413702
 30
0.0
 41
30.0
 42
30.0
 43
30.0
  0
TEXT
  8
SUNPOU
 10
1111.16614
 20
5919.413702
 30
0.0
 40
45.0
  1
970
  7
K
 72
     1
 11
1175.451854
 21
5919.413702
 31
0.0
  0
LINE
  8
SUNPOU
 10
697.45184
 20
5681.413702
 30
0.0
 11
697.45184
 21
5804.413702
 31
0.0
  0
LINE
  8
SUNPOU
 10
1653.45184
 20
5681.413702
 30
0.0
 11
1653.45184
 21
5804.413702
 31
0.0
  0
LINE
  8
SUNPOU
 10
697.45184
 20
5774.413702
 30
0.0
 11
1653.45184
 21
5774.413702
 31
0.0
  0
INSERT
  8
SUNPOU
  2
ARROWANG
 10
697.45184
 20
5774.413702
 30
0.0
 41
30.0
 42
30.0
 50
180.0
 43
30.0
  0
INSERT
  8
SUNPOU
  2
ARROWANG
 10
1653.45184
 20
5774.413702
 30
0.0
 41
30.0
 42
30.0
 43
30.0
  0
TEXT
  8
SUNPOU
 10
1111.16614
 20
5819.413702
 30
0.0
 40
45.0
  1
956
  7
K
 72
     1
 11
1175.451854
 21
5819.413702
 31
0.0
  0
LINE
  8
SUNPOU
 10
1625.45184
 20
5681.413702
 30
0.0
 11
1625.45184
 21
6004.413702
 31
0.0
  0
LINE
  8
SUNPOU
 10
1835.45184
 20
5704.413702
 30
0.0
 11
1835.45184
 21
6004.413702
 31
0.0
  0
LINE
  8
SUNPOU
 10
1625.45184
 20
5974.413702
 30
0.0
 11
1835.45184
 21
5974.413702
 31
0.0
  0
INSERT
  8
SUNPOU
  2
ARROWANG
 10
1625.45184
 20
5974.413702
 30
0.0
 41
30.0
 42
30.0
 50
180.0
 43
30.0
  0
INSERT
  8
SUNPOU
  2
ARROWANG
 10
1835.45184
 20
5974.413702
 30
0.0
 41
30.0
 42
30.0
 43
30.0
  0
TEXT
  8
SUNPOU
 10
1666.16614
 20
6019.413702
 30
0.0
 40
45.0
  1
210
  7
K
 72
     1
 11
1730.451854
 21
6019.413702
 31
0.0
  0
LINE
  8
SUNPOU
 10
570.45184
 20
5374.413702
 30
0.0
 11
370.45184
 21
5374.413702
 31
0.0
  0
LINE
  8
SUNPOU
 10
570.45184
 20
5674.413702
 30
0.0
 11
370.45184
 21
5674.413702
 31
0.0
  0
LINE
  8
SUNPOU
 10
667.45184
 20
5651.413702
 30
0.0
 11
470.45184
 21
5651.413702
 31
0.0
  0
LINE
  8
SUNPOU
 10
530.45184
 20
5674.413702
 30
0.0
 11
530.45184
 21
5674.413702
 31
0.0
  0
LINE
  8
SUNPOU
 10
500.45184
 20
5651.413702
 30
0.0
 11
500.45184
 21
5674.413702
 31
0.0
  0
INSERT
  8
SUNPOU
  2
ARROWANG
 10
500.45184
 20
5651.413702
 30
0.0
 41
30.0
 42
30.0
 50
90.0
 43
30.0
  0
INSERT
  8
SUNPOU
  2
ARROWANG
 10
500.45184
 20
5674.413702
 30
0.0
 41
30.0
 42
30.0
 50
270.0
 43
30.0
  0
LINE
  8
SUNPOU
 10
500.45184
 20
5674.413702
 30
0.0
 11
500.45184
 21
5773.413702
 31
0.0
  0
LINE
  8
SUNPOU
 10
500.45184
 20
5651.413702
 30
0.0
 11
500.451841
 21
5591.413702
 31
0.0
  0
TEXT
  8
SUNPOU
 10
455.45184
 20
5681.056559
 30
0.0
 40
45.0
  1
23
 50
90.0
  7
K
 72
     1
 11
455.45184
 21
5723.913702
 31
0.0
  0
LINE
  8
SUNPOU
 10
667.45184
 20
5359.413702
 30
0.0
 11
470.45184
 21
5359.413702
 31
0.0
  0
LINE
  8
SUNPOU
 10
530.45184
 20
5374.413702
 30
0.0
 11
530.45184
 21
5374.413702
 31
0.0
  0
LINE
  8
SUNPOU
 10
500.45184
 20
5359.413702
 30
0.0
 11
500.45184
 21
5374.413702
 31
0.0
  0
INSERT
  8
SUNPOU
  2
ARROWANG
 10
500.45184
 20
5359.413702
 30
0.0
 41
30.0
 42
30.0
 50
90.0
 43
30.0
  0
INSERT
  8
SUNPOU
  2
ARROWANG
 10
500.45184
 20
5374.413702
 30
0.0
 41
30.0
 42
30.0
 50
270.0
 43
30.0
  0
LINE
  8
SUNPOU
 10
500.45184
 20
5359.413702
 30
0.0
 11
500.45184
 21
5260.413702
 31
0.0
  0
LINE
  8
SUNPOU
 10
500.45184
 20
5374.413702
 30
0.0
 11
500.45184
 21
5434.413702
 31
0.0
  0
TEXT
  8
SUNPOU
 10
455.45184
 20
5263.842273
 30
0.0
 40
45.0
  1
15
 50
90.0
  7
K
 72
     1
 11
455.45184
 21
5309.913702
 31
0.0
  0
LINE
  8
SUNPOU
 10
1145.45184
 20
5359.413702
 30
0.0
 11
1100.45184
 21
5359.413702
 31
0.0
  0
LINE
  8
SUNPOU
 10
1145.45184
 20
5651.413702
 30
0.0
 11
1100.45184
 21
5651.413702
 31
0.0
  0
LINE
  8
SUNPOU
 10
600.45184
 20
5344.413702
 30
0.0
 11
600.45184
 21
5029.413702
 31
0.0
  0
LINE
  8
SUNPOU
 10
725.45184
 20
5329.413702
 30
0.0
 11
725.45184
 21
5029.413702
 31
0.0
  0
LINE
  8
SUNPOU
 10
600.45184
 20
5059.413702
 30
0.0
 11
725.45184
 21
5059.413702
 31
0.0
  0
INSERT
  8
SUNPOU
  2
ARROWANG
 10
725.45184
 20
5059.413702
 30
0.0
 41
30.0
 42
30.0
 43
30.0
  0
INSERT
  8
SUNPOU
  2
ARROWANG
 10
600.45184
 20
5059.413702
 30
0.0
 41
30.0
 42
30.0
 50
180.0
 43
30.0
  0
TEXT
  8
SUNPOU
 10
595.45184
 20
5104.413702
 30
0.0
 40
45.0
  1
125
  7
K
 72
     1
 11
662.95184
 21
5104.413702
 31
0.0
  0
LINE
  8
SUNPOU
 10
725.45184
 20
5029.413702
 30
0.0
 11
725.45184
 21
5029.413702
 31
0.0
  0
LINE
  8
SUNPOU
 10
2225.45184
 20
5329.413702
 30
0.0
 11
2225.45184
 21
5029.413702
 31
0.0
  0
LINE
  8
SUNPOU
 10
725.45184
 20
5059.413702
 30
0.0
 11
2225.45184
 21
5059.413702
 31
0.0
  0
INSERT
  8
SUNPOU
  2
ARROWANG
 10
725.45184
 20
5059.413702
 30
0.0
 41
30.0
 42
30.0
 50
180.0
 43
30.0
  0
INSERT
  8
SUNPOU
  2
ARROWANG
 10
2225.45184
 20
5059.413702
 30
0.0
 41
30.0
 42
30.0
 43
30.0
  0
TEXT
  8
SUNPOU
 10
1386.523283
 20
5104.413702
 30
0.0
 40
45.0
  1
1500
  7
K
 72
     1
 11
1475.451854
 21
5104.413702
 31
0.0
  0
LINE
  8
SUNPOU
 10
2225.45184
 20
5029.413702
 30
0.0
 11
2225.45184
 21
5029.413702
 31
0.0
  0
LINE
  8
SUNPOU
 10
2350.45184
 20
5344.413702
 30
0.0
 11
2350.45184
 21
5029.413702
 31
0.0
  0
LINE
  8
SUNPOU
 10
2225.45184
 20
5059.413702
 30
0.0
 11
2350.45184
 21
5059.413702
 31
0.0
  0
INSERT
  8
SUNPOU
  2
ARROWANG
 10
2225.45184
 20
5059.413702
 30
0.0
 41
30.0
 42
30.0
 50
180.0
 43
30.0
  0
INSERT
  8
SUNPOU
  2
ARROWANG
 10
2350.45184
 20
5059.413702
 30
0.0
 41
30.0
 42
30.0
 43
30.0
  0
TEXT
  8
SUNPOU
 10
2220.451854
 20
5104.413702
 30
0.0
 40
45.0
  1
125
  7
K
 72
     1
 11
2287.951854
 21
5104.413702
 31
0.0
  0
LINE
  8
JISSEN
 10
600.45184
 20
5374.413702
 30
0.0
 11
686.45184
 21
5374.413702
 31
0.0
  0
LINE
  8
JISSEN
 10
686.45184
 20
5374.413702
 30
0.0
 11
697.45184
 21
5359.413702
 31
0.0
  0
LINE
  8
SUNPOU
 10
686.45184
 20
5344.413702
 30
0.0
 11
686.45184
 21
5129.413702
 31
0.0
  0
LINE
  8
SUNPOU
 10
2264.45184
 20
5344.413702
 30
0.0
 11
2264.45184
 21
5129.413702
 31
0.0
  0
LINE
  8
SUNPOU
 10
686.45184
 20
5159.413702
 30
0.0
 11
2264.45184
 21
5159.413702
 31
0.0
  0
INSERT
  8
SUNPOU
  2
ARROWANG
 10
2264.45184
 20
5159.413702
 30
0.0
 41
30.0
 42
30.0
 43
30.0
  0
INSERT
  8
SUNPOU
  2
ARROWANG
 10
686.45184
 20
5159.413702
 30
0.0
 41
30.0
 42
30.0
 50
180.0
 43
30.0
  0
TEXT
  8
SUNPOU
 10
1386.523268
 20
5204.413702
 30
0.0
 40
45.0
  1
1578
  7
K
 72
     1
 11
1475.45184
 21
5204.413702
 31
0.0
  0
LINE
  8
SUNPOU
 10
697.45184
 20
5329.413702
 30
0.0
 11
697.45184
 21
5229.413702
 31
0.0
  0
LINE
  8
SUNPOU
 10
2253.45184
 20
5329.413702
 30
0.0
 11
2253.45184
 21
5229.413702
 31
0.0
  0
LINE
  8
SUNPOU
 10
697.45184
 20
5259.413702
 30
0.0
 11
2253.45184
 21
5259.413702
 31
0.0
  0
INSERT
  8
SUNPOU
  2
ARROWANG
 10
697.45184
 20
5259.413702
 30
0.0
 41
30.0
 42
30.0
 50
180.0
 43
30.0
  0
INSERT
  8
SUNPOU
  2
ARROWANG
 10
2253.45184
 20
5259.413702
 30
0.0
 41
30.0
 42
30.0
 43
30.0
  0
TEXT
  8
SUNPOU
 10
1386.523283
 20
5304.413702
 30
0.0
 40
45.0
  1
1556
  7
K
 72
     1
 11
1475.451854
 21
5304.413702
 31
0.0
  0
LINE
  8
SUNPOU
 10
725.45184
 20
5944.413702
 30
0.0
 11
725.45184
 21
5944.413702
 31
0.0
  0
LINE
  8
SUNPOU
 10
1625.45184
 20
5944.413702
 30
0.0
 11
1625.45184
 21
5944.413702
 31
0.0
  0
LINE
  8
SUNPOU
 10
725.45184
 20
5974.413702
 30
0.0
 11
1625.45184
 21
5974.413702
 31
0.0
  0
INSERT
  8
SUNPOU
  2
ARROWANG
 10
725.45184
 20
5974.413702
 30
0.0
 41
30.0
 42
30.0
 50
180.0
 43
30.0
  0
INSERT
  8
SUNPOU
  2
ARROWANG
 10
1625.45184
 20
5974.413702
 30
0.0
 41
30.0
 42
30.0
 43
30.0
  0
TEXT
  8
SUNPOU
 10
1111.16614
 20
6019.413702
 30
0.0
 40
45.0
  1
900
  7
K
 72
     1
 11
1175.451854
 21
6019.413702
 31
0.0
  0
CIRCLE
  8
JISSEN
 10
2094.170273
 20
5414.413702
 30
0.0
 40
10.0
  0
LINE
  8
ITTEN
 10
2094.170273
 20
5444.413702
 30
0.0
 11
2094.170273
 21
5384.413702
 31
0.0
  0
LINE
  8
ITTEN
 10
2124.170273
 20
5414.413702
 30
0.0
 11
2064.170273
 21
5414.413702
 31
0.0
  0
LINE
  8
ITTEN
 10
886.733406
 20
5414.413702
 30
0.0
 11
826.733406
 21
5414.413702
 31
0.0
  0
LINE
  8
ITTEN
 10
856.733406
 20
5444.413702
 30
0.0
 11
856.733406
 21
5384.413702
 31
0.0
  0
CIRCLE
  8
TENSEN
 10
856.733406
 20
5414.413702
 30
0.0
 40
10.0
  0
LINE
  8
SUNPOU
 10
2380.45184
 20
5374.413702
 30
0.0
 11
2480.45184
 21
5374.413702
 31
0.0
  0
LINE
  8
SUNPOU
 10
2380.45184
 20
5414.413702
 30
0.0
 11
2480.45184
 21
5414.413702
 31
0.0
  0
LINE
  8
SUNPOU
 10
2450.45184
 20
5374.413702
 30
0.0
 11
2450.45184
 21
5414.413702
 31
0.0
  0
INSERT
  8
SUNPOU
  2
ARROWANG
 10
2450.45184
 20
5374.413702
 30
0.0
 41
30.0
 42
30.0
 50
90.0
 43
30.0
  0
INSERT
  8
SUNPOU
  2
ARROWANG
 10
2450.45184
 20
5414.413702
 30
0.0
 41
30.0
 42
30.0
 50
270.0
 43
30.0
  0
LINE
  8
SUNPOU
 10
2450.45184
 20
5374.413702
 30
0.0
 11
2450.45184
 21
5275.413702
 31
0.0
  0
LINE
  8
SUNPOU
 10
2450.45184
 20
5414.413702
 30
0.0
 11
2450.45184
 21
5474.413702
 31
0.0
  0
TEXT
  8
SUNPOU
 10
2405.45184
 20
5282.056559
 30
0.0
 40
45.0
  1
40
 50
90.0
  7
K
 72
     1
 11
2405.45184
 21
5324.913702
 31
0.0
  0
LINE
  8
SUNPOU
 10
429.830232
 20
5374.413702
 30
0.0
 11
429.830232
 21
5374.413702
 31
0.0
  0
LINE
  8
SUNPOU
 10
429.830232
 20
5674.413702
 30
0.0
 11
429.830232
 21
5674.413702
 31
0.0
  0
LINE
  8
SUNPOU
 10
399.830232
 20
5374.413702
 30
0.0
 11
399.830232
 21
5674.413702
 31
0.0
  0
INSERT
  8
SUNPOU
  2
ARROWANG
 10
399.830232
 20
5374.413702
 30
0.0
 41
30.0
 42
30.0
 50
270.0
 43
30.0
  0
INSERT
  8
SUNPOU
  2
ARROWANG
 10
399.830232
 20
5674.413702
 30
0.0
 41
30.0
 42
30.0
 50
90.0
 43
30.0
  0
LINE
  8
SUNPOU
 10
1092.95184
 20
5359.413702
 30
0.0
 11
1092.95184
 21
5359.413702
 31
0.0
  0
LINE
  8
SUNPOU
 10
1092.95184
 20
5651.413702
 30
0.0
 11
1092.95184
 21
5651.413702
 31
0.0
  0
LINE
  8
SUNPOU
 10
1122.95184
 20
5359.413702
 30
0.0
 11
1122.95184
 21
5651.413702
 31
0.0
  0
INSERT
  8
SUNPOU
  2
ARROWANG
 10
1122.95184
 20
5359.413702
 30
0.0
 41
30.0
 42
30.0
 50
270.0
 43
30.0
  0
INSERT
  8
SUNPOU
  2
ARROWANG
 10
1122.95184
 20
5651.413702
 30
0.0
 41
30.0
 42
30.0
 50
90.0
 43
30.0
  0
TEXT
  8
SUNPOU
 10
1077.95184
 20
5441.127987
 30
0.0
 40
45.0
  1
292
 50
90.0
  7
K
 72
     1
 11
1077.95184
 21
5505.413702
 31
0.0
  0
LINE
  8
SUNPOU
 10
2233.593994
 20
4085.500105
 30
0.0
 11
717.309685
 21
3211.782821
 31
0.0
  0
INSERT
  8
SUNPOU
  2
ARROWANG
 10
2233.593994
 20
4085.500105
 30
0.0
 41
30.0
 42
30.0
 50
29.951518
 43
30.0
  0
INSERT
  8
SUNPOU
  2
ARROWANG
 10
717.309685
 20
3211.782821
 30
0.0
 41
30.0
 42
30.0
 50
209.951518
 43
30.0
  0
TEXT
  8
SUNPOU
 10
1363.86444
 20
3636.278452
 30
0.0
 40
45.0
  1
%%C1750
 50
29.951518
  7
K
 72
     1
 11
1452.984824
 21
3687.631631
 31
0.0
  0
LINE
  8
SUNPOU
 10
1572.510663
 20
3860.406169
 30
0.0
 11
778.393016
 21
3436.876757
 31
0.0
  0
INSERT
  8
SUNPOU
  2
ARROWANG
 10
1572.510663
 20
3860.406169
 30
0.0
 41
30.0
 42
30.0
 50
28.072487
 43
30.0
  0
INSERT
  8
SUNPOU
  2
ARROWANG
 10
778.393016
 20
3436.876757
 30
0.0
 41
30.0
 42
30.0
 50
208.072487
 43
30.0
  0
TEXT
  8
SUNPOU
 10
1082.426629
 20
3650.028018
 30
0.0
 40
45.0
  1
%%C900
 50
28.072487
  7
K
 72
     1
 11
1154.275369
 21
3688.347346
 31
0.0
  0
LINE
  8
SUNPOU
 10
5233.730974
 20
4085.262299
 30
0.0
 11
3717.172705
 21
3212.020628
 31
0.0
  0
INSERT
  8
SUNPOU
  2
ARROWANG
 10
5233.730974
 20
4085.262299
 30
0.0
 41
30.0
 42
30.0
 50
29.933548
 43
30.0
  0
INSERT
  8
SUNPOU
  2
ARROWANG
 10
3717.172705
 20
3212.020628
 30
0.0
 41
30.0
 42
30.0
 50
209.933548
 43
30.0
  0
TEXT
  8
SUNPOU
 10
4363.860568
 20
3636.313451
 30
0.0
 40
45.0
  1
%%C1750
 50
29.933548
  7
K
 72
     1
 11
4452.997054
 21
3687.638676
 31
0.0
  0
LINE
  8
SUNPOU
 10
4571.039878
 20
3863.141123
 30
0.0
 11
3779.863801
 21
3434.141803
 31
0.0
  0
INSERT
  8
SUNPOU
  2
ARROWANG
 10
4571.039878
 20
3863.141123
 30
0.0
 41
30.0
 42
30.0
 50
28.467873
 43
30.0
  0
INSERT
  8
SUNPOU
  2
ARROWANG
 10
3779.863801
 20
3434.141803
 30
0.0
 41
30.0
 42
30.0
 50
208.467873
 43
30.0
  0
TEXT
  8
SUNPOU
 10
4082.419276
 20
3649.386043
 30
0.0
 40
45.0
  1
%%C900
 50
28.467873
  7
K
 72
     1
 11
4154.001874
 21
3688.200267
 31
0.0
  0
LINE
  8
SUNPOU
 10
8244.717472
 20
4065.601157
 30
0.0
 11
6706.186207
 21
3231.68177
 31
0.0
  0
INSERT
  8
SUNPOU
  2
ARROWANG
 10
8244.717472
 20
4065.601157
 30
0.0
 41
30.0
 42
30.0
 50
28.458713
 43
30.0
  0
INSERT
  8
SUNPOU
  2
ARROWANG
 10
6706.186207
 20
3231.68177
 30
0.0
 41
30.0
 42
30.0
 50
208.458713
 43
30.0
  0
TEXT
  8
SUNPOU
 10
7363.580238
 20
3639.189658
 30
0.0
 40
45.0
  1
%%C1750
 50
28.458713
  7
K
 72
     1
 11
7454.008198
 21
3688.203696
 31
0.0
  0
LINE
  8
SUNPOU
 10
7577.947506
 20
3849.88072
 30
0.0
 11
6772.956173
 21
3447.402206
 31
0.0
  0
INSERT
  8
SUNPOU
  2
ARROWANG
 10
7577.947506
 20
3849.88072
 30
0.0
 41
30.0
 42
30.0
 50
26.564074
 43
30.0
  0
INSERT
  8
SUNPOU
  2
ARROWANG
 10
6772.956173
 20
3447.402206
 30
0.0
 41
30.0
 42
30.0
 50
206.564074
 43
30.0
  0
TEXT
  8
SUNPOU
 10
7082.495365
 20
3652.476307
 30
0.0
 40
45.0
  1
%%C900
 50
26.564074
  7
K
 72
     1
 11
7155.327914
 21
3688.89103
 31
0.0
  0
LINE
  8
JISSEN
 10
9760.45184
 20
5659.413702
 30
0.0
 11
9734.45184
 21
5659.413702
 31
0.0
  0
LINE
  8
JISSEN
 10
9734.45184
 20
5659.413702
 30
0.0
 11
9728.45184
 21
5674.413702
 31
0.0
  0
LINE
  8
JISSEN
 10
9728.45184
 20
5674.413702
 30
0.0
 11
9600.45184
 21
5674.413702
 31
0.0
  0
LINE
  8
JISSEN
 10
9600.45184
 20
5674.413702
 30
0.0
 11
9600.45184
 21
5479.413702
 31
0.0
  0
LINE
  8
JISSEN
 10
9600.45184
 20
5479.413702
 30
0.0
 11
9686.45184
 21
5479.413702
 31
0.0
  0
LINE
  8
JISSEN
 10
9686.45184
 20
5479.413702
 30
0.0
 11
9697.45184
 21
5464.413702
 31
0.0
  0
LINE
  8
JISSEN
 10
9697.45184
 20
5464.413702
 30
0.0
 11
9725.45184
 21
5464.413702
 31
0.0
  0
LINE
  8
JISSEN
 10
9759.986934
 20
5658.867809
 30
0.0
 11
9725.45184
 21
5464.413702
 31
0.0
  0
LINE
  8
JISSEN
 10
10360.45184
 20
5659.413702
 30
0.0
 11
10386.45184
 21
5659.413702
 31
0.0
  0
LINE
  8
JISSEN
 10
10386.45184
 20
5659.413702
 30
0.0
 11
10392.45184
 21
5674.413702
 31
0.0
  0
LINE
  8
JISSEN
 10
11350.45184
 20
5479.413702
 30
0.0
 11
11264.45184
 21
5479.413702
 31
0.0
  0
LINE
  8
JISSEN
 10
11264.45184
 20
5479.413702
 30
0.0
 11
11253.45184
 21
5464.413702
 31
0.0
  0
LINE
  8
JISSEN
 10
10395.45184
 20
5464.413702
 30
0.0
 11
11253.45184
 21
5464.413702
 31
0.0
  0
LINE
  8
JISSEN
 10
11350.45184
 20
5479.413702
 30
0.0
 11
11350.45184
 21
5674.413702
 31
0.0
  0
LINE
  8
JISSEN
 10
11350.45184
 20
5674.413702
 30
0.0
 11
10395.45184
 21
5674.413702
 31
0.0
  0
LINE
  8
JISSEN
 10
9728.45184
 20
5674.413702
 30
0.0
 11
10392.45184
 21
5674.413702
 31
0.0
  0
LINE
  8
JISSEN
 10
10395.45184
 20
5464.413702
 30
0.0
 11
9725.45184
 21
5464.413702
 31
0.0
  0
LINE
  8
JISSEN
 10
10360.45184
 20
5659.413702
 30
0.0
 11
10395.45184
 21
5464.413702
 31
0.0
  0
LINE
  8
JISSEN
 10
9760.45184
 20
5659.413702
 30
0.0
 11
10360.45184
 21
5659.413702
 31
0.0
  0
LINE
  8
ITTEN
 10
10475.45184
 20
5771.683604
 30
0.0
 11
10475.45184
 21
5313.353461
 31
0.0
  0
LINE
  8
ITTEN
 10
10060.45184
 20
5726.385309
 30
0.0
 11
10060.45184
 21
5385.311294
 31
0.0
  0
LINE
  8
SUNPOU
 10
9600.45184
 20
5704.413702
 30
0.0
 11
9600.45184
 21
5904.863532
 31
0.0
  0
LINE
  8
SUNPOU
 10
11350.45184
 20
5704.413702
 30
0.0
 11
11350.45184
 21
5904.863532
 31
0.0
  0
LINE
  8
SUNPOU
 10
9600.45184
 20
5874.863532
 30
0.0
 11
11350.45184
 21
5874.863532
 31
0.0
  0
INSERT
  8
SUNPOU
  2
ARROWANG
 10
9600.45184
 20
5874.863532
 30
0.0
 41
30.0
 42
30.0
 50
180.0
 43
30.0
  0
INSERT
  8
SUNPOU
  2
ARROWANG
 10
11350.45184
 20
5874.863532
 30
0.0
 41
30.0
 42
30.0
 43
30.0
  0
TEXT
  8
SUNPOU
 10
10386.523283
 20
5919.863532
 30
0.0
 40
45.0
  1
1750
  7
K
 72
     1
 11
10475.451854
 21
5919.863532
 31
0.0
  0
LINE
  8
SUNPOU
 10
9600.45184
 20
5744.413702
 30
0.0
 11
9600.45184
 21
5744.290447
 31
0.0
  0
LINE
  8
SUNPOU
 10
9600.45184
 20
5804.413702
 30
0.0
 11
9600.45184
 21
5805.019127
 31
0.0
  0
LINE
  8
SUNPOU
 10
9759.968581
 20
5804.413702
 30
0.0
 11
9759.968581
 21
5805.019127
 31
0.0
  0
LINE
  8
SUNPOU
 10
9600.45184
 20
5775.019127
 30
0.0
 11
9759.968581
 21
5775.019127
 31
0.0
  0
INSERT
  8
SUNPOU
  2
ARROWANG
 10
9600.45184
 20
5775.019127
 30
0.0
 41
30.0
 42
30.0
 50
180.0
 43
30.0
  0
INSERT
  8
SUNPOU
  2
ARROWANG
 10
9759.968581
 20
5775.019127
 30
0.0
 41
30.0
 42
30.0
 43
30.0
  0
TEXT
  8
SUNPOU
 10
9612.710225
 20
5820.019127
 30
0.0
 40
45.0
  1
160
  7
K
 72
     1
 11
9680.210225
 21
5820.019127
 31
0.0
  0
LINE
  8
SUNPOU
 10
9759.968581
 20
5689.92517
 30
0.0
 11
9759.968581
 21
5804.413702
 31
0.0
  0
LINE
  8
SUNPOU
 10
10360.45184
 20
5689.413702
 30
0.0
 11
10360.45184
 21
5804.413702
 31
0.0
  0
LINE
  8
SUNPOU
 10
9759.968581
 20
5774.413702
 30
0.0
 11
10360.45184
 21
5774.413702
 31
0.0
  0
INSERT
  8
SUNPOU
  2
ARROWANG
 10
10360.45184
 20
5774.413702
 30
0.0
 41
30.0
 42
30.0
 43
30.0
  0
INSERT
  8
SUNPOU
  2
ARROWANG
 10
9759.968581
 20
5774.413702
 30
0.0
 41
30.0
 42
30.0
 50
180.0
 43
30.0
  0
TEXT
  8
SUNPOU
 10
9994.853067
 20
5819.413702
 30
0.0
 40
45.0
  1
600
  7
K
 72
     1
 11
10060.21021
 21
5819.413702
 31
0.0
  0
LINE
  8
SUNPOU
 10
10360.45184
 20
5804.413702
 30
0.0
 11
10360.45184
 21
5805.019127
 31
0.0
  0
LINE
  8
SUNPOU
 10
11350.45184
 20
5804.413702
 30
0.0
 11
11350.45184
 21
5805.019127
 31
0.0
  0
LINE
  8
SUNPOU
 10
10360.45184
 20
5775.019127
 30
0.0
 11
11350.45184
 21
5775.019127
 31
0.0
  0
INSERT
  8
SUNPOU
  2
ARROWANG
 10
10360.45184
 20
5775.019127
 30
0.0
 41
30.0
 42
30.0
 50
180.0
 43
30.0
  0
INSERT
  8
SUNPOU
  2
ARROWANG
 10
11350.45184
 20
5775.019127
 30
0.0
 41
30.0
 42
30.0
 43
30.0
  0
TEXT
  8
SUNPOU
 10
10791.16614
 20
5820.019127
 30
0.0
 40
45.0
  1
990
  7
K
 72
     1
 11
10855.451854
 21
5820.019127
 31
0.0
  0
LINE
  8
SUNPOU
 10
9600.45184
 20
5449.413702
 30
0.0
 11
9600.45184
 21
5234.413702
 31
0.0
  0
LINE
  8
SUNPOU
 10
9725.45184
 20
5434.413702
 30
0.0
 11
9725.45184
 21
5234.413702
 31
0.0
  0
LINE
  8
SUNPOU
 10
9600.45184
 20
5264.413702
 30
0.0
 11
9725.45184
 21
5264.413702
 31
0.0
  0
INSERT
  8
SUNPOU
  2
ARROWANG
 10
9725.45184
 20
5264.413702
 30
0.0
 41
30.0
 42
30.0
 43
30.0
  0
INSERT
  8
SUNPOU
  2
ARROWANG
 10
9600.45184
 20
5264.413702
 30
0.0
 41
30.0
 42
30.0
 50
180.0
 43
30.0
  0
TEXT
  8
SUNPOU
 10
9595.45184
 20
5309.413702
 30
0.0
 40
45.0
  1
125
  7
K
 72
     1
 11
9662.95184
 21
5309.413702
 31
0.0
  0
LINE
  8
SUNPOU
 10
9725.45184
 20
5234.413702
 30
0.0
 11
9725.45184
 21
5232.758836
 31
0.0
  0
LINE
  8
SUNPOU
 10
10395.45184
 20
5434.413702
 30
0.0
 11
10395.45184
 21
5232.758836
 31
0.0
  0
LINE
  8
SUNPOU
 10
9725.45184
 20
5262.758836
 30
0.0
 11
10395.45184
 21
5262.758836
 31
0.0
  0
INSERT
  8
SUNPOU
  2
ARROWANG
 10
10395.45184
 20
5262.758836
 30
0.0
 41
30.0
 42
30.0
 43
30.0
  0
INSERT
  8
SUNPOU
  2
ARROWANG
 10
9725.45184
 20
5262.758836
 30
0.0
 41
30.0
 42
30.0
 50
180.0
 43
30.0
  0
TEXT
  8
SUNPOU
 10
9995.094697
 20
5307.758836
 30
0.0
 40
45.0
  1
670
  7
K
 72
     1
 11
10060.45184
 21
5307.758836
 31
0.0
  0
LINE
  8
SUNPOU
 10
10395.45184
 20
5234.413702
 30
0.0
 11
10395.45184
 21
5232.758836
 31
0.0
  0
LINE
  8
SUNPOU
 10
11350.45184
 20
5449.413702
 30
0.0
 11
11350.45184
 21
5232.758836
 31
0.0
  0
LINE
  8
SUNPOU
 10
10395.45184
 20
5262.758836
 30
0.0
 11
11350.45184
 21
5262.758836
 31
0.0
  0
INSERT
  8
SUNPOU
  2
ARROWANG
 10
10395.45184
 20
5262.758836
 30
0.0
 41
30.0
 42
30.0
 50
180.0
 43
30.0
  0
INSERT
  8
SUNPOU
  2
ARROWANG
 10
11350.45184
 20
5262.758836
 30
0.0
 41
30.0
 42
30.0
 43
30.0
  0
TEXT
  8
SUNPOU
 10
10808.66614
 20
5307.758836
 30
0.0
 40
45.0
  1
955
  7
K
 72
     1
 11
10872.951854
 21
5307.758836
 31
0.0
  0
LINE
  8
SUNPOU
 10
9570.45184
 20
5479.413702
 30
0.0
 11
9369.749145
 21
5479.413702
 31
0.0
  0
LINE
  8
SUNPOU
 10
9570.45184
 20
5674.413702
 30
0.0
 11
9369.749145
 21
5674.413702
 31
0.0
  0
LINE
  8
SUNPOU
 10
9399.749145
 20
5479.413702
 30
0.0
 11
9399.749145
 21
5674.413702
 31
0.0
  0
INSERT
  8
SUNPOU
  2
ARROWANG
 10
9399.749145
 20
5479.413702
 30
0.0
 41
30.0
 42
30.0
 50
270.0
 43
30.0
  0
INSERT
  8
SUNPOU
  2
ARROWANG
 10
9399.749145
 20
5674.413702
 30
0.0
 41
30.0
 42
30.0
 50
90.0
 43
30.0
  0
TEXT
  8
SUNPOU
 10
9354.749145
 20
5509.413702
 30
0.0
 40
45.0
  1
195
 50
90.0
  7
K
 72
     1
 11
9354.749145
 21
5576.913702
 31
0.0
  0
LINE
  8
SUNPOU
 10
9667.45184
 20
5464.413702
 30
0.0
 11
9370.45184
 21
5464.413702
 31
0.0
  0
LINE
  8
SUNPOU
 10
9429.749145
 20
5479.413702
 30
0.0
 11
9430.45184
 21
5479.413702
 31
0.0
  0
LINE
  8
SUNPOU
 10
9400.45184
 20
5464.413702
 30
0.0
 11
9400.45184
 21
5479.413702
 31
0.0
  0
INSERT
  8
SUNPOU
  2
ARROWANG
 10
9400.45184
 20
5464.413702
 30
0.0
 41
30.0
 42
30.0
 50
90.0
 43
30.0
  0
INSERT
  8
SUNPOU
  2
ARROWANG
 10
9400.45184
 20
5479.413702
 30
0.0
 41
30.0
 42
30.0
 50
270.0
 43
30.0
  0
LINE
  8
SUNPOU
 10
9400.45184
 20
5464.413702
 30
0.0
 11
9400.45184
 21
5365.413702
 31
0.0
  0
LINE
  8
SUNPOU
 10
9400.45184
 20
5479.413702
 30
0.0
 11
9400.45184
 21
5539.413702
 31
0.0
  0
TEXT
  8
SUNPOU
 10
9355.45184
 20
5368.842273
 30
0.0
 40
45.0
  1
15
 50
90.0
  7
K
 72
     1
 11
9355.45184
 21
5414.913702
 31
0.0
  0
LINE
  8
SUNPOU
 10
9704.45184
 20
5659.413702
 30
0.0
 11
9470.45184
 21
5659.413702
 31
0.0
  0
LINE
  8
SUNPOU
 10
9530.45184
 20
5674.413702
 30
0.0
 11
9530.45184
 21
5674.413702
 31
0.0
  0
LINE
  8
SUNPOU
 10
9500.45184
 20
5659.413702
 30
0.0
 11
9500.45184
 21
5674.413702
 31
0.0
  0
INSERT
  8
SUNPOU
  2
ARROWANG
 10
9500.45184
 20
5659.413702
 30
0.0
 41
30.0
 42
30.0
 50
90.0
 43
30.0
  0
INSERT
  8
SUNPOU
  2
ARROWANG
 10
9500.45184
 20
5674.413702
 30
0.0
 41
30.0
 42
30.0
 50
270.0
 43
30.0
  0
LINE
  8
SUNPOU
 10
9500.45184
 20
5674.413702
 30
0.0
 11
9500.45184
 21
5773.413702
 31
0.0
  0
LINE
  8
SUNPOU
 10
9500.45184
 20
5659.413702
 30
0.0
 11
9500.451841
 21
5599.413702
 31
0.0
  0
TEXT
  8
SUNPOU
 10
9455.45184
 20
5677.842273
 30
0.0
 40
45.0
  1
15
 50
90.0
  7
K
 72
     1
 11
9455.45184
 21
5723.913702
 31
0.0
  0
LINE
  8
JISSEN
 10
10475.45184
 20
5479.413702
 30
0.0
 11
11264.45184
 21
5479.413702
 31
0.0
  0
CIRCLE
  8
JISSEN
 10
10060.45184
 20
3648.641463
 30
0.0
 40
332.0
  0
CIRCLE
  8
JISSEN
 10
10060.45184
 20
3648.641463
 30
0.0
 40
326.0
  0
CIRCLE
  8
JISSEN
 10
10060.181303
 20
3648.641463
 30
0.0
 40
300.270537
  0
CIRCLE
  8
JISSEN
 10
10475.45184
 20
3648.641463
 30
0.0
 40
875.0
  0
ARC
  8
ITTEN
 10
10060.45184
 20
3648.641463
 30
0.0
 40
380.0
 50
129.601475
 51
140.040176
  0
CIRCLE
  8
JISSEN
 10
9791.751263
 20
3917.34204
 30
0.0
 40
10.0
  0
LINE
  8
ITTEN
 10
9772.518619
 20
3936.574683
 30
0.0
 11
9810.949792
 21
3898.143511
 31
0.0
  0
LINE
  8
SUNPOU
 10
9812.964466
 20
3938.555244
 30
0.0
 11
9813.069009
 21
3938.659787
 31
0.0
  0
LINE
  8
SUNPOU
 10
10081.665043
 20
3669.854667
 30
0.0
 11
10081.769586
 21
3669.95921
 31
0.0
  0
LINE
  8
SUNPOU
 10
9791.855806
 20
3917.446583
 30
0.0
 11
10060.556383
 21
3648.746006
 31
0.0
  0
INSERT
  8
SUNPOU
  2
ARROWANG
 10
9791.855806
 20
3917.446583
 30
0.0
 41
30.0
 42
30.0
 50
135.0
 43
30.0
  0
INSERT
  8
SUNPOU
  2
ARROWANG
 10
10060.556383
 20
3648.746006
 30
0.0
 41
30.0
 42
30.0
 50
315.0
 43
30.0
  0
TEXT
  8
SUNPOU
 10
9912.569045
 20
3860.372954
 30
0.0
 40
45.0
  1
380
 50
315.0
  7
K
 72
     1
 11
9958.02591
 21
3814.916089
 31
0.0
  0
LINE
  8
SUNPOU
 10
10060.45184
 20
3678.641463
 30
0.0
 11
10060.45184
 21
3678.789309
 31
0.0
  0
LINE
  8
SUNPOU
 10
10404.398684
 20
3812.831522
 30
0.0
 11
10404.472608
 21
3812.703483
 31
0.0
  0
LINE
  8
ITTEN
 10
10412.953766
 20
3852.411816
 30
0.0
 11
10365.885384
 21
3825.236874
 31
0.0
  0
CIRCLE
  8
JISSEN
 10
10389.398684
 20
3838.812284
 30
0.0
 40
10.0
  0
ARC
  8
ITTEN
 10
10060.309031
 20
3648.812284
 30
0.0
 40
380.0
 50
24.601475
 51
35.040176
  0
ARC
  8
ITTEN
 10
10060.737457
 20
3648.92708
 30
0.0
 40
380.0
 50
264.601475
 51
275.040176
  0
CIRCLE
  8
JISSEN
 10
10060.737457
 20
3268.92708
 30
0.0
 40
10.0
  0
LINE
  8
ITTEN
 10
10060.737457
 20
3241.728015
 30
0.0
 11
10060.737457
 21
3296.077901
 31
0.0
  0
LINE
  8
SUNPOU
 10
10030.737457
 20
3268.92708
 30
0.0
 11
10030.58961
 21
3268.92708
 31
0.0
  0
LINE
  8
ITTEN
 10
10060.45184
 20
4000.641463
 30
0.0
 11
10060.45184
 21
3296.641463
 31
0.0
  0
LINE
  8
TENSEN
 10
9847.865731
 20
4260.232055
 30
0.0
 11
9900.843353
 21
4207.254432
 31
0.0
  0
LINE
  8
TENSEN
 10
9900.843353
 20
4207.254432
 30
0.0
 11
9914.985489
 21
4221.396568
 31
0.0
  0
LINE
  8
TENSEN
 10
9914.985489
 20
4221.396568
 30
0.0
 11
9861.977909
 21
4274.404148
 31
0.0
  0
LINE
  8
ITTEN
 10
9824.736964
 20
4297.502957
 30
0.0
 11
9941.533147
 21
4180.706775
 31
0.0
  0
LINE
  8
ITTEN
 10
9824.736964
 20
2999.779969
 30
0.0
 11
9941.533147
 21
3116.576152
 31
0.0
  0
LINE
  8
TENSEN
 10
9900.843353
 20
3090.028494
 30
0.0
 11
9847.835774
 21
3037.020915
 31
0.0
  0
LINE
  8
TENSEN
 10
9914.985489
 20
3075.886358
 30
0.0
 11
9900.843353
 21
3090.028494
 31
0.0
  0
LINE
  8
TENSEN
 10
9862.007867
 20
3022.908736
 30
0.0
 11
9914.985489
 21
3075.886358
 31
0.0
  0
LINE
  8
ITTEN
 10
11122.459952
 20
2999.779969
 30
0.0
 11
11005.66377
 21
3116.576152
 31
0.0
  0
LINE
  8
TENSEN
 10
11032.211427
 20
3075.886358
 30
0.0
 11
11085.219007
 21
3022.878779
 31
0.0
  0
LINE
  8
TENSEN
 10
11046.353563
 20
3090.028494
 30
0.0
 11
11032.211427
 21
3075.886358
 31
0.0
  0
LINE
  8
TENSEN
 10
11099.331185
 20
3037.050872
 30
0.0
 11
11046.353563
 21
3090.028494
 31
0.0
  0
LINE
  8
ITTEN
 10
11122.459952
 20
4297.502957
 30
0.0
 11
11005.66377
 21
4180.706775
 31
0.0
  0
LINE
  8
TENSEN
 10
11046.353563
 20
4207.254432
 30
0.0
 11
11099.361142
 21
4260.262012
 31
0.0
  0
LINE
  8
TENSEN
 10
11032.211427
 20
4221.396568
 30
0.0
 11
11046.353563
 21
4207.254432
 31
0.0
  0
LINE
  8
TENSEN
 10
11085.18905
 20
4274.37419
 30
0.0
 11
11032.211427
 21
4221.396568
 31
0.0
  0
LINE
  8
ITTEN
 10
10475.45184
 20
4623.641463
 30
0.0
 11
10475.45184
 21
2673.641463
 31
0.0
  0
LINE
  8
ITTEN
 10
11450.45184
 20
3648.641463
 30
0.0
 11
9500.45184
 21
3648.641463
 31
0.0
  0
CIRCLE
  8
JISSEN
 10
11093.242888
 20
5519.413702
 30
0.0
 40
10.0
  0
LINE
  8
ITTEN
 10
11093.242888
 20
5549.413702
 30
0.0
 11
11093.242888
 21
5489.413702
 31
0.0
  0
LINE
  8
ITTEN
 10
11123.242888
 20
5519.413702
 30
0.0
 11
11063.242888
 21
5519.413702
 31
0.0
  0
LINE
  8
ITTEN
 10
9818.039534
 20
5519.413702
 30
0.0
 11
9878.039534
 21
5519.413702
 31
0.0
  0
LINE
  8
ITTEN
 10
9848.039534
 20
5549.413702
 30
0.0
 11
9848.039534
 21
5489.413702
 31
0.0
  0
CIRCLE
  8
TENSEN
 10
9848.039534
 20
5519.413702
 30
0.0
 40
10.0
  0
LINE
  8
SUNPOU
 10
11380.45184
 20
5479.413702
 30
0.0
 11
11580.45184
 21
5479.413702
 31
0.0
  0
LINE
  8
SUNPOU
 10
11153.724691
 20
5519.413702
 30
0.0
 11
11580.45184
 21
5519.413702
 31
0.0
  0
LINE
  8
SUNPOU
 10
11550.45184
 20
5479.413702
 30
0.0
 11
11550.45184
 21
5519.413702
 31
0.0
  0
INSERT
  8
SUNPOU
  2
ARROWANG
 10
11550.45184
 20
5479.413702
 30
0.0
 41
30.0
 42
30.0
 50
90.0
 43
30.0
  0
INSERT
  8
SUNPOU
  2
ARROWANG
 10
11550.45184
 20
5519.413702
 30
0.0
 41
30.0
 42
30.0
 50
270.0
 43
30.0
  0
LINE
  8
SUNPOU
 10
11550.45184
 20
5479.413702
 30
0.0
 11
11550.45184
 21
5380.413702
 31
0.0
  0
LINE
  8
SUNPOU
 10
11550.45184
 20
5519.413702
 30
0.0
 11
11550.45184
 21
5579.413702
 31
0.0
  0
TEXT
  8
SUNPOU
 10
11505.45184
 20
5387.056559
 30
0.0
 40
45.0
  1
40
 50
90.0
  7
K
 72
     1
 11
11505.45184
 21
5429.913702
 31
0.0
  0
TEXT
  8
TEXT
 10
2807.716809
 20
7633.196179
 30
0.0
 40
300.0
  1
組立マンホール構造図 (内径1500mm)
  7
K
  0
TEXT
  8
TEXT
 10
4200.638291
 20
6305.422738
 30
0.0
 40
150.0
  1
斜壁
  7
K
  0
TEXT
  8
TEXT
 10
10137.408586
 20
6305.422738
 30
0.0
 40
150.0
  1
床版斜壁
  7
K
  0
TEXT
  8
TEXT
 10
1255.744637
 20
6107.60808
 30
0.0
 40
90.0
  1
M3T39
  7
K
  0
TEXT
  8
TEXT
 10
4251.379917
 20
6107.60808
 30
0.0
 40
90.0
  1
M3T49
  7
K
  0
TEXT
  8
TEXT
 10
7248.894517
 20
6107.60808
 30
0.0
 40
90.0
  1
M3T69
  7
K
  0
TEXT
  8
TEXT
 10
10300.909383
 20
6107.60808
 30
0.0
 40
90.0
  1
M3TP
  7
K
  0
POLYLINE
  8
WAKU
 66
     1
 10
0.0
 20
0.0
 30
0.0
 70
     1
  0
VERTEX
  8
WAKU
 10
0.0
 20
0.0
 30
0.0
  0
VERTEX
  8
WAKU
 10
11850.0
 20
0.0
 30
0.0
  0
VERTEX
  8
WAKU
 10
11850.0
 20
8190.0
 30
0.0
  0
VERTEX
  8
WAKU
 10
0.0
 20
8190.0
 30
0.0
  0
SEQEND
  8
WAKU
  0
POLYLINE
  8
WAKU
 66
     1
 10
0.0
 20
0.0
 30
0.0
 70
     1
  0
VERTEX
  8
WAKU
 10
0.0
 20
0.0
 30
0.0
  0
VERTEX
  8
WAKU
 10
11850.0
 20
0.0
 30
0.0
  0
VERTEX
  8
WAKU
 10
11850.0
 20
8190.0
 30
0.0
  0
VERTEX
  8
WAKU
 10
0.0
 20
8190.0
 30
0.0
  0
SEQEND
  8
WAKU
  0
TEXT
  8
TEXT
 10
11243.446115
 20
712.088184
 30
0.0
 40
150.0
  1
1/30
  7
K
  0
TEXT
  8
SUNPOU
 10
368.308938
 20
5462.149778
 30
0.0
 40
45.0
  1
300
 50
90.0
  7
K
 72
     1
 11
368.308938
 21
5526.435492
 31
0.0
  0
ENDSEC
  0
EOF
