  0
SECTION
  2
HEADER
  9
$ACADVER
  1
AC1009
  9
$INSBASE
 10
0.0
 20
0.0
 30
0.0
  9
$EXTMIN
 10
0.0
 20
0.0
 30
0.0
  9
$EXTMAX
 10
20000.0
 20
14000.0
 30
0.0
  9
$LIMMIN
 10
0.0
 20
0.0
  9
$LIMMAX
 10
9875.0
 20
6825.0
  9
$ORTHOMODE
 70
     0
  9
$REGENMODE
 70
     1
  9
$FILLMODE
 70
     1
  9
$QTEXTMODE
 70
     0
  9
$MIRRTEXT
 70
     0
  9
$DRAGMODE
 70
     2
  9
$LTSCALE
 40
125.0
  9
$OSMODE
 70
    33
  9
$ATTMODE
 70
     1
  9
$TEXTSIZE
 40
60.0
  9
$TRACEWID
 40
0.05
  9
$TEXTSTYLE
  7
K
  9
$CLAYER
  8
SUNPOU
  9
$CELTYPE
  6
BYLAYER
  9
$CECOLOR
 62
   256
  9
$DIMSCALE
 40
25.0
  9
$DIMASZ
 40
1.5
  9
$DIMEXO
 40
1.0
  9
$DIMDLI
 40
6.0
  9
$DIMRND
 40
0.0
  9
$DIMDLE
 40
0.0
  9
$DIMEXE
 40
1.0
  9
$DIMTP
 40
495.0
  9
$DIMTM
 40
0.0
  9
$DIMTXT
 40
3.0
  9
$DIMCEN
 40
0.0
  9
$DIMTSZ
 40
0.0
  9
$DIMTOL
 70
     0
  9
$DIMLIM
 70
     0
  9
$DIMTIH
 70
     0
  9
$DIMTOH
 70
     0
  9
$DIMSE1
 70
     0
  9
$DIMSE2
 70
     0
  9
$DIMTAD
 70
     1
  9
$DIMZIN
 70
     8
  9
$DIMBLK
  1
ARROW
  9
$DIMASO
 70
     0
  9
$DIMSHO
 70
     0
  9
$DIMPOST
  1

  9
$DIMAPOST
  1

  9
$DIMALT
 70
     0
  9
$DIMALTD
 70
     2
  9
$DIMALTF
 40
25.4
  9
$DIMLFAC
 40
1.0
  9
$DIMTOFL
 70
     1
  9
$DIMTVP
 40
0.0
  9
$DIMTIX
 70
     1
  9
$DIMSOXD
 70
     0
  9
$DIMSAH
 70
     0
  9
$DIMBLK1
  1

  9
$DIMBLK2
  1

  9
$DIMSTYLE
  2
*UNNAMED
  9
$DIMCLRD
 70
     0
  9
$DIMCLRE
 70
     0
  9
$DIMCLRT
 70
     0
  9
$DIMTFAC
 40
1.0
  9
$DIMGAP
 40
0.09
  9
$LUNITS
 70
     2
  9
$LUPREC
 70
     2
  9
$AXISMODE
 70
     1
  9
$AXISUNIT
 10
100.0
 20
100.0
  9
$SKETCHINC
 40
0.1
  9
$FILLETRAD
 40
10.0
  9
$AUNITS
 70
     0
  9
$AUPREC
 70
     2
  9
$MENU
  1
d:stdgx5
  9
$ELEVATION
 40
0.0
  9
$PELEVATION
 40
0.0
  9
$THICKNESS
 40
0.0
  9
$LIMCHECK
 70
     0
  9
$BLIPMODE
 70
     1
  9
$CHAMFERA
 40
0.0
  9
$CHAMFERB
 40
0.0
  9
$SKPOLY
 70
     0
  9
$TDCREATE
 40
2450248.668518518
  9
$TDUPDATE
 40
2450248.673067129
  9
$TDINDWG
 40
0.0020254630
  9
$TDUSRTIMER
 40
0.0020254630
  9
$USRTIMER
 70
     1
  9
$ANGBASE
 50
0.0
  9
$ANGDIR
 70
     0
  9
$PDMODE
 70
     0
  9
$PDSIZE
 40
0.0
  9
$PLINEWID
 40
0.0
  9
$COORDS
 70
     2
  9
$SPLFRAME
 70
     0
  9
$SPLINETYPE
 70
     6
  9
$SPLINESEGS
 70
     8
  9
$ATTDIA
 70
     0
  9
$ATTREQ
 70
     1
  9
$HANDLING
 70
     0
  9
$HANDSEED
  5
0
  9
$SURFTAB1
 70
     6
  9
$SURFTAB2
 70
     6
  9
$SURFTYPE
 70
     6
  9
$SURFU
 70
     6
  9
$SURFV
 70
     6
  9
$UCSNAME
  2

  9
$UCSORG
 10
0.0
 20
0.0
 30
0.0
  9
$UCSXDIR
 10
1.0
 20
0.0
 30
0.0
  9
$UCSYDIR
 10
0.0
 20
1.0
 30
0.0
  9
$PUCSNAME
  2

  9
$PUCSORG
 10
0.0
 20
0.0
 30
0.0
  9
$PUCSXDIR
 10
1.0
 20
0.0
 30
0.0
  9
$PUCSYDIR
 10
0.0
 20
1.0
 30
0.0
  9
$USERI1
 70
     3
  9
$USERI2
 70
    33
  9
$USERI3
 70
     0
  9
$USERI4
 70
     1
  9
$USERI5
 70
     0
  9
$USERR1
 40
25.0
  9
$USERR2
 40
3.0
  9
$USERR3
 40
3.0
  9
$USERR4
 40
1.5
  9
$USERR5
 40
10.0
  9
$WORLDVIEW
 70
     1
  9
$SHADEDGE
 70
     3
  9
$SHADEDIF
 70
    70
  9
$TILEMODE
 70
     1
  9
$MAXACTVP
 70
    16
  9
$PINSBASE
 10
0.0
 20
0.0
 30
0.0
  9
$PLIMCHECK
 70
     0
  9
$PEXTMIN
 10
1.000000E+20
 20
1.000000E+20
 30
1.000000E+20
  9
$PEXTMAX
 10
-1.000000E+20
 20
-1.000000E+20
 30
-1.000000E+20
  9
$PLIMMIN
 10
0.0
 20
0.0
  9
$PLIMMAX
 10
12.0
 20
9.0
  9
$UNITMODE
 70
     0
  9
$VISRETAIN
 70
     0
  0
ENDSEC
  0
SECTION
  2
TABLES
  0
TABLE
  2
VPORT
 70
    10
  0
VPORT
  2
*ACTIVE
 70
     0
 10
0.0
 20
0.0
 11
1.0
 21
1.0
 12
5576.263114
 22
3412.5
 13
0.0
 23
0.0
 14
1.0
 24
1.0
 15
10.0
 25
10.0
 16
0.0
 26
0.0
 36
1.0
 17
0.0
 27
0.0
 37
0.0
 40
6825.0
 41
1.63407
 42
50.0
 43
0.0
 44
0.0
 50
0.0
 51
0.0
 71
     0
 72
   500
 73
     1
 74
     0
 75
     0
 76
     0
 77
     0
 78
     0
  0
VPORT
  2
2
 70
     0
 10
0.5
 20
0.0
 11
1.0
 21
1.0
 12
0.924031
 22
1.052651
 13
0.0
 23
0.0
 14
1.0
 24
1.0
 15
10.0
 25
10.0
 16
0.0
 26
0.0
 36
1.0
 17
0.0
 27
0.0
 37
0.0
 40
2.105302
 41
0.877814
 42
50.0
 43
0.0
 44
0.0
 50
0.0
 51
0.0
 71
     0
 72
   500
 73
     1
 74
     1
 75
     0
 76
     0
 77
     0
 78
     0
  0
VPORT
  2
2
 70
     0
 10
0.0
 20
0.0
 11
0.5
 21
1.0
 12
0.924031
 22
1.052651
 13
0.0
 23
0.0
 14
1.0
 24
1.0
 15
10.0
 25
10.0
 16
0.0
 26
0.0
 36
1.0
 17
0.0
 27
0.0
 37
0.0
 40
2.105302
 41
0.877814
 42
50.0
 43
0.0
 44
0.0
 50
0.0
 51
0.0
 71
     0
 72
   500
 73
     1
 74
     1
 75
     0
 76
     0
 77
     0
 78
     0
  0
VPORT
  2
3
 70
     0
 10
0.0
 20
0.5
 11
1.0
 21
1.0
 12
2.83217
 22
1.052651
 13
0.0
 23
0.0
 14
1.0
 24
1.0
 15
10.0
 25
10.0
 16
0.0
 26
0.0
 36
1.0
 17
0.0
 27
0.0
 37
0.0
 40
2.105302
 41
3.571429
 42
50.0
 43
0.0
 44
0.0
 50
0.0
 51
0.0
 71
     0
 72
   500
 73
     1
 74
     1
 75
     0
 76
     0
 77
     0
 78
     0
  0
VPORT
  2
3
 70
     0
 10
0.0
 20
0.0
 11
1.0
 21
0.5
 12
2.856742
 22
1.052651
 13
0.0
 23
0.0
 14
1.0
 24
1.0
 15
10.0
 25
10.0
 16
0.0
 26
0.0
 36
1.0
 17
0.0
 27
0.0
 37
0.0
 40
2.105302
 41
3.594771
 42
50.0
 43
0.0
 44
0.0
 50
0.0
 51
0.0
 71
     0
 72
   500
 73
     1
 74
     1
 75
     0
 76
     0
 77
     0
 78
     0
  0
VPORT
  2
4
 70
     0
 10
0.5
 20
0.0
 11
1.0
 21
0.5
 12
2.886858
 22
1.052651
 13
0.0
 23
0.0
 14
1.0
 24
1.0
 15
10.0
 25
10.0
 16
0.0
 26
0.0
 36
1.0
 17
0.0
 27
0.0
 37
0.0
 40
4.275207
 41
1.784314
 42
50.0
 43
0.0
 44
0.0
 50
0.0
 51
0.0
 71
     0
 72
   500
 73
     1
 74
     1
 75
     0
 76
     0
 77
     0
 78
     0
  0
VPORT
  2
4
 70
     0
 10
0.5
 20
0.5
 11
1.0
 21
1.0
 12
2.86209
 22
1.052651
 13
0.0
 23
0.0
 14
1.0
 24
1.0
 15
10.0
 25
10.0
 16
0.0
 26
0.0
 36
1.0
 17
0.0
 27
0.0
 37
0.0
 40
4.275207
 41
1.772727
 42
50.0
 43
0.0
 44
0.0
 50
0.0
 51
0.0
 71
     0
 72
   500
 73
     1
 74
     1
 75
     0
 76
     0
 77
     0
 78
     0
  0
VPORT
  2
4
 70
     0
 10
0.0
 20
0.5
 11
0.5
 21
1.0
 12
2.86209
 22
1.052651
 13
0.0
 23
0.0
 14
1.0
 24
1.0
 15
10.0
 25
10.0
 16
0.0
 26
0.0
 36
1.0
 17
0.0
 27
0.0
 37
0.0
 40
4.275207
 41
1.772727
 42
50.0
 43
0.0
 44
0.0
 50
0.0
 51
0.0
 71
     0
 72
   500
 73
     1
 74
     1
 75
     0
 76
     0
 77
     0
 78
     0
  0
VPORT
  2
4
 70
     0
 10
0.0
 20
0.0
 11
0.5
 21
0.5
 12
2.886858
 22
1.052651
 13
0.0
 23
0.0
 14
1.0
 24
1.0
 15
10.0
 25
10.0
 16
0.0
 26
0.0
 36
1.0
 17
0.0
 27
0.0
 37
0.0
 40
4.275207
 41
1.784314
 42
50.0
 43
0.0
 44
0.0
 50
0.0
 51
0.0
 71
     0
 72
   500
 73
     1
 74
     1
 75
     0
 76
     0
 77
     0
 78
     0
  0
ENDTAB
  0
TABLE
  2
LTYPE
 70
     5
  0
LTYPE
  2
CONTINUOUS
 70
    64
  3
実線
 72
    65
 73
     0
 40
0.0
  0
LTYPE
  2
DASHED
 70
    64
  3
__ __ __ __ __ __ __ __ __ __ __ __ __ __ __
 72
    65
 73
     2
 40
0.75
 49
0.5
 49
-0.25
  0
LTYPE
  2
CENTER
 70
    64
  3
____ _ ____ _ ____ _ ____ _ ____ _ ____ _ ____
 72
    65
 73
     4
 40
2.0
 49
1.25
 49
-0.25
 49
0.25
 49
-0.25
  0
LTYPE
  2
PHANTOM
 70
    64
  3
_____ _ _ _____ _ _ _____ _ _ _____ _ _ ____
 72
    65
 73
     6
 40
2.5
 49
1.25
 49
-0.25
 49
0.25
 49
-0.25
 49
0.25
 49
-0.25
  0
LTYPE
  2
HIDDEN
 70
    64
  3
_ _ _ _ _ _ _ _ _ _ _ _ _ _ _ _ _ _ _ _ _ _ _
 72
    65
 73
     2
 40
0.375
 49
0.25
 49
-0.125
  0
ENDTAB
  0
TABLE
  2
LAYER
 70
    14
  0
LAYER
  2
0
 70
     0
 62
     7
  6
CONTINUOUS
  0
LAYER
  2
HASEN
 70
    64
 62
     2
  6
DASHED
  0
LAYER
  2
ITTEN
 70
    64
 62
     1
  6
CENTER
  0
LAYER
  2
SUNPOU
 70
    64
 62
     3
  6
CONTINUOUS
  0
LAYER
  2
TEXT
 70
    64
 62
     3
  6
CONTINUOUS
  0
LAYER
  2
JISSEN
 70
    64
 62
     7
  6
CONTINUOUS
  0
LAYER
  2
WAKU
 70
    64
 62
    -5
  6
CONTINUOUS
  0
ENDTAB
  0
TABLE
  2
STYLE
 70
     2
  0
STYLE
  2
STANDARD
 70
     0
 40
0.0
 41
1.0
 50
0.0
 71
     0
 42
0.2
  3
ROMANS
  4
EXTFONT
  0
STYLE
  2
K
 70
    64
 40
0.0
 41
1.0
 50
0.0
 71
     0
 42
60.0
  3
ROMANS
  4
EXTFONT
  0
ENDTAB
  0
TABLE
  2
VIEW
 70
     0
  0
ENDTAB
  0
TABLE
  2
UCS
 70
     0
  0
ENDTAB
  0
TABLE
  2
APPID
 70
     1
  0
APPID
  2
ACAD
 70
    64
  0
ENDTAB
  0
TABLE
  2
DIMSTYLE
 70
     0
  0
ENDTAB
  0
ENDSEC
  0
SECTION
  2
BLOCKS
  0
BLOCK
  8
SUNPOU
  2
ARROWANG
 70
    64
 10
0.0
 20
0.0
 30
0.0
  3
ARROWANG
  0
LINE
  8
SUNPOU
 10
0.0
 20
0.0
 30
0.0
 11
-1.5
 21
0.401924
 31
0.0
  0
LINE
  8
SUNPOU
 10
0.0
 20
0.0
 30
0.0
 11
-1.5
 21
-0.401924
 31
0.0
  0
ENDBLK
  8
SUNPOU
  0
ENDSEC
  0
SECTION
  2
ENTITIES
  0
TEXT
  8
TEXT
 10
4541.438807
 20
6104.078958
 30
0.0
 40
120.0
  1
管取付壁
  7
K
  0
TEXT
  8
JISSEN
 10
2716.159959
 20
6430.418721
 30
0.0
 40
250.0
  1
４号マンホール（内径１８００ｍｍ）
  7
K
  0
LINE
  8
HASEN
 10
1285.090072
 20
787.805098
 30
0.0
 11
1323.358415
 21
880.193051
 31
0.0
  0
LINE
  8
HASEN
 10
1295.642029
 20
891.673554
 30
0.0
 11
1323.358415
 21
880.193051
 31
0.0
  0
LINE
  8
HASEN
 10
1257.373686
 20
799.285601
 30
0.0
 11
1295.642029
 21
891.673554
 31
0.0
  0
LINE
  8
HASEN
 10
1257.373686
 20
2746.429707
 30
0.0
 11
1295.642029
 21
2654.041754
 31
0.0
  0
LINE
  8
HASEN
 10
1295.642029
 20
2654.041754
 30
0.0
 11
1323.358415
 21
2665.522256
 31
0.0
  0
LINE
  8
HASEN
 10
1285.090072
 20
2757.91021
 30
0.0
 11
1323.358415
 21
2665.522256
 31
0.0
  0
LINE
  8
HASEN
 10
2068.662563
 20
2757.91021
 30
0.0
 11
2030.394219
 21
2665.522256
 31
0.0
  0
LINE
  8
HASEN
 10
2058.110605
 20
2654.041754
 30
0.0
 11
2030.394219
 21
2665.522256
 31
0.0
  0
LINE
  8
HASEN
 10
2096.378949
 20
2746.429707
 30
0.0
 11
2058.110605
 21
2654.041754
 31
0.0
  0
LINE
  8
HASEN
 10
937.949731
 20
1012.717864
 30
0.0
 11
1008.660409
 21
1083.428542
 31
0.0
  0
LINE
  8
HASEN
 10
987.447206
 20
1104.641746
 30
0.0
 11
1008.660409
 21
1083.428542
 31
0.0
  0
LINE
  8
HASEN
 10
916.736528
 20
1033.931067
 30
0.0
 11
987.447206
 21
1104.641746
 31
0.0
  0
LINE
  8
HASEN
 10
916.736528
 20
2511.78424
 30
0.0
 11
987.447206
 21
2441.073562
 31
0.0
  0
LINE
  8
HASEN
 10
987.447206
 20
2441.073562
 30
0.0
 11
1008.660409
 21
2462.286765
 31
0.0
  0
LINE
  8
HASEN
 10
937.949731
 20
2532.997444
 30
0.0
 11
1008.660409
 21
2462.286765
 31
0.0
  0
LINE
  8
HASEN
 10
2096.378949
 20
799.285601
 30
0.0
 11
2058.110605
 21
891.673554
 31
0.0
  0
LINE
  8
HASEN
 10
2058.110605
 20
891.673554
 30
0.0
 11
2030.394219
 21
880.193051
 31
0.0
  0
LINE
  8
HASEN
 10
2068.662563
 20
787.805098
 30
0.0
 11
2030.394219
 21
880.193051
 31
0.0
  0
ARC
  8
JISSEN
 10
896.876317
 20
1602.857654
 30
0.0
 40
10.0
 50
270.0
 51
0.0
  0
ARC
  8
JISSEN
 10
896.876317
 20
1942.857654
 30
0.0
 40
10.0
 50
0.0
 51
90.0
  0
ARC
  8
JISSEN
 10
916.876317
 20
1962.857654
 30
0.0
 40
10.0
 50
0.0
 51
90.0
  0
ARC
  8
JISSEN
 10
916.876317
 20
1582.857654
 30
0.0
 40
10.0
 50
270.0
 51
0.0
  0
LINE
  8
JISSEN
 10
896.876317
 20
1952.857654
 30
0.0
 11
795.06001
 21
1952.857654
 31
0.0
  0
LINE
  8
JISSEN
 10
906.876317
 20
1602.857654
 30
0.0
 11
906.876317
 21
1942.857654
 31
0.0
  0
LINE
  8
JISSEN
 10
795.06001
 20
1592.857654
 30
0.0
 11
896.876317
 21
1592.857654
 31
0.0
  0
LINE
  8
JISSEN
 10
916.876317
 20
1972.857654
 30
0.0
 11
799.379879
 21
1972.857654
 31
0.0
  0
LINE
  8
JISSEN
 10
926.876317
 20
1582.857654
 30
0.0
 11
926.876317
 21
1962.857654
 31
0.0
  0
LINE
  8
JISSEN
 10
799.379879
 20
1572.857654
 30
0.0
 11
916.876317
 21
1572.857654
 31
0.0
  0
TEXT
  8
SUNPOU
 10
1936.87078
 20
1677.496726
 30
0.0
 40
60.0
  1
%%C1800
 50
335.322221
  7
K
 72
     1
 11
2061.488403
 21
1620.237567
 31
0.0
  0
INSERT
  8
SUNPOU
  2
ARROWANG
 10
859.073166
 20
2148.620885
 30
0.0
 41
30.0
 42
30.0
 50
155.322221
 43
30.0
  0
INSERT
  8
SUNPOU
  2
ARROWANG
 10
2494.679469
 20
1397.094423
 30
0.0
 41
30.0
 42
30.0
 50
335.322221
 43
30.0
  0
LINE
  8
SUNPOU
 10
2494.679469
 20
1397.094423
 30
0.0
 11
859.073166
 21
2148.620885
 31
0.0
  0
TEXT
  8
SUNPOU
 10
1781.935583
 20
1875.799061
 30
0.0
 40
60.0
  1
%%C2120
 50
29.317299
  7
K
 72
     1
 11
1901.513386
 21
1942.950475
 31
0.0
  0
INSERT
  8
SUNPOU
  2
ARROWANG
 10
752.639551
 20
1253.833185
 30
0.0
 41
30.0
 42
30.0
 50
209.317299
 43
30.0
  0
INSERT
  8
SUNPOU
  2
ARROWANG
 10
2601.113084
 20
2291.882123
 30
0.0
 41
30.0
 42
30.0
 50
29.317299
 43
30.0
  0
LINE
  8
SUNPOU
 10
2601.113084
 20
2291.882123
 30
0.0
 11
752.639551
 21
1253.833185
 31
0.0
  0
CIRCLE
  8
JISSEN
 10
1676.876317
 20
1772.857654
 30
0.0
 40
953.0
  0
CIRCLE
  8
JISSEN
 10
1676.876317
 20
1772.857654
 30
0.0
 40
962.0
  0
LINE
  8
ITTEN
 10
2836.876317
 20
1772.857654
 30
0.0
 11
516.876317
 21
1772.857654
 31
0.0
  0
CIRCLE
  8
JISSEN
 10
1676.876317
 20
1772.857654
 30
0.0
 40
900.0
  0
CIRCLE
  8
JISSEN
 10
1676.876317
 20
1772.857654
 30
0.0
 40
1060.0
  0
TEXT
  8
SUNPOU
 10
3588.970733
 20
2787.861947
 30
0.0
 40
60.0
  1
20
 50
90.0
  7
K
 72
     1
 11
3588.970733
 21
2845.004804
 31
0.0
  0
LINE
  8
SUNPOU
 10
3618.970733
 20
2931.004804
 30
0.0
 11
3618.970733
 21
2991.004804
 31
0.0
  0
LINE
  8
SUNPOU
 10
3618.970733
 20
2911.004804
 30
0.0
 11
3618.970733
 21
2779.004804
 31
0.0
  0
INSERT
  8
SUNPOU
  2
ARROWANG
 10
3618.970733
 20
2931.004804
 30
0.0
 41
30.0
 42
30.0
 50
270.0
 43
30.0
  0
INSERT
  8
SUNPOU
  2
ARROWANG
 10
3618.970733
 20
2911.004804
 30
0.0
 41
30.0
 42
30.0
 50
90.0
 43
30.0
  0
LINE
  8
SUNPOU
 10
3618.970733
 20
2911.004804
 30
0.0
 11
3618.970733
 21
2931.004804
 31
0.0
  0
LINE
  8
SUNPOU
 10
3798.686648
 20
2931.004804
 30
0.0
 11
3598.970733
 21
2931.004804
 31
0.0
  0
LINE
  8
SUNPOU
 10
3910.686648
 20
2911.004804
 30
0.0
 11
3598.970733
 21
2911.004804
 31
0.0
  0
TEXT
  8
SUNPOU
 10
3571.085985
 20
5039.861947
 30
0.0
 40
60.0
  1
32
 50
90.0
  7
K
 72
     1
 11
3571.085985
 21
5097.004804
 31
0.0
  0
LINE
  8
SUNPOU
 10
3601.085985
 20
4999.004804
 30
0.0
 11
3601.085986
 21
4939.004804
 31
0.0
  0
LINE
  8
SUNPOU
 10
3601.085985
 20
5031.004804
 30
0.0
 11
3601.085985
 21
5163.004804
 31
0.0
  0
INSERT
  8
SUNPOU
  2
ARROWANG
 10
3601.085985
 20
5031.004804
 30
0.0
 41
30.0
 42
30.0
 50
270.0
 43
30.0
  0
INSERT
  8
SUNPOU
  2
ARROWANG
 10
3601.085985
 20
4999.004804
 30
0.0
 41
30.0
 42
30.0
 50
90.0
 43
30.0
  0
LINE
  8
SUNPOU
 10
3601.085985
 20
4999.004804
 30
0.0
 11
3601.085985
 21
5031.004804
 31
0.0
  0
LINE
  8
SUNPOU
 10
3798.686648
 20
5031.004804
 30
0.0
 11
3581.085985
 21
5031.004804
 31
0.0
  0
LINE
  8
SUNPOU
 10
3905.686648
 20
4999.004804
 30
0.0
 11
3581.085985
 21
4999.004804
 31
0.0
  0
TEXT
  8
SUNPOU
 10
3388.200009
 20
3866.71909
 30
0.0
 40
60.0
  1
2100
 50
90.0
  7
K
 72
     1
 11
3388.200009
 21
3981.004804
 31
0.0
  0
INSERT
  8
SUNPOU
  2
ARROWANG
 10
3418.200009
 20
5031.004804
 30
0.0
 41
30.0
 42
30.0
 50
90.0
 43
30.0
  0
INSERT
  8
SUNPOU
  2
ARROWANG
 10
3418.200009
 20
2931.004804
 30
0.0
 41
30.0
 42
30.0
 50
270.0
 43
30.0
  0
LINE
  8
SUNPOU
 10
3418.200009
 20
2931.004804
 30
0.0
 11
3418.200009
 21
5031.004804
 31
0.0
  0
LINE
  8
SUNPOU
 10
3798.686648
 20
5031.004804
 30
0.0
 11
3398.200009
 21
5031.004804
 31
0.0
  0
LINE
  8
SUNPOU
 10
3798.686648
 20
2931.004804
 30
0.0
 11
3398.200009
 21
2931.004804
 31
0.0
  0
LINE
  8
SUNPOU
 10
3918.686648
 20
2911.004804
 30
0.0
 11
3918.686648
 21
2543.338995
 31
0.0
  0
LINE
  8
SUNPOU
 10
3918.686648
 20
2563.338995
 30
0.0
 11
5838.686648
 21
2563.338995
 31
0.0
  0
INSERT
  8
SUNPOU
  2
ARROWANG
 10
3918.686648
 20
2563.338995
 30
0.0
 41
30.0
 42
30.0
 50
180.0
 43
30.0
  0
LINE
  8
SUNPOU
 10
3930.686648
 20
2891.004804
 30
0.0
 11
3930.686648
 21
2711.624207
 31
0.0
  0
LINE
  8
SUNPOU
 10
3930.686648
 20
2731.624207
 30
0.0
 11
5826.686648
 21
2731.624207
 31
0.0
  0
INSERT
  8
SUNPOU
  2
ARROWANG
 10
3930.686648
 20
2731.624207
 30
0.0
 41
30.0
 42
30.0
 50
180.0
 43
30.0
  0
LINE
  8
SUNPOU
 10
3818.686648
 20
5051.004804
 30
0.0
 11
3818.686648
 21
5486.494019
 31
0.0
  0
LINE
  8
SUNPOU
 10
3978.686648
 20
5019.004804
 30
0.0
 11
3978.686648
 21
5486.494019
 31
0.0
  0
LINE
  8
SUNPOU
 10
3818.686648
 20
5466.494019
 30
0.0
 11
3978.686648
 21
5466.494019
 31
0.0
  0
INSERT
  8
SUNPOU
  2
ARROWANG
 10
3818.686648
 20
5466.494019
 30
0.0
 41
30.0
 42
30.0
 50
180.0
 43
30.0
  0
INSERT
  8
SUNPOU
  2
ARROWANG
 10
3978.686648
 20
5466.494019
 30
0.0
 41
30.0
 42
30.0
 43
30.0
  0
TEXT
  8
SUNPOU
 10
3808.686658
 20
5496.494019
 30
0.0
 40
60.0
  1
160
  7
K
 72
     1
 11
3898.686658
 21
5496.494019
 31
0.0
  0
LINE
  8
SUNPOU
 10
3978.686648
 20
5466.494019
 30
0.0
 11
5778.686648
 21
5466.494019
 31
0.0
  0
INSERT
  8
SUNPOU
  2
ARROWANG
 10
3978.686648
 20
5466.494019
 30
0.0
 41
30.0
 42
30.0
 50
180.0
 43
30.0
  0
LINE
  8
SUNPOU
 10
3916.686648
 20
5051.004804
 30
0.0
 11
3916.686648
 21
5307.351697
 31
0.0
  0
LINE
  8
SUNPOU
 10
3916.686648
 20
5287.351697
 30
0.0
 11
5840.686648
 21
5287.351697
 31
0.0
  0
INSERT
  8
SUNPOU
  2
ARROWANG
 10
3916.686648
 20
5287.351697
 30
0.0
 41
30.0
 42
30.0
 50
180.0
 43
30.0
  0
LINE
  8
SUNPOU
 10
3925.686648
 20
5019.004804
 30
0.0
 11
3925.686648
 21
5128.209375
 31
0.0
  0
LINE
  8
SUNPOU
 10
3925.686648
 20
5108.209375
 30
0.0
 11
5831.686648
 21
5108.209375
 31
0.0
  0
INSERT
  8
SUNPOU
  2
ARROWANG
 10
3925.686648
 20
5108.209375
 30
0.0
 41
30.0
 42
30.0
 50
180.0
 43
30.0
  0
TEXT
  8
SUNPOU
 10
416.324528
 20
5020.319148
 30
0.0
 40
60.0
  1
32
 50
90.0
  7
K
 72
     1
 11
416.324528
 21
5077.462005
 31
0.0
  0
LINE
  8
SUNPOU
 10
446.324528
 20
4979.462005
 30
0.0
 11
446.324529
 21
4919.462005
 31
0.0
  0
LINE
  8
SUNPOU
 10
446.324528
 20
5011.462005
 30
0.0
 11
446.324528
 21
5137.462005
 31
0.0
  0
INSERT
  8
SUNPOU
  2
ARROWANG
 10
446.324528
 20
5011.462005
 30
0.0
 41
30.0
 42
30.0
 50
270.0
 43
30.0
  0
INSERT
  8
SUNPOU
  2
ARROWANG
 10
446.324528
 20
4979.462005
 30
0.0
 41
30.0
 42
30.0
 50
90.0
 43
30.0
  0
LINE
  8
SUNPOU
 10
446.324528
 20
4979.462005
 30
0.0
 11
446.324528
 21
5011.462005
 31
0.0
  0
LINE
  8
SUNPOU
 10
596.876317
 20
5011.462005
 30
0.0
 11
426.324528
 21
5011.462005
 31
0.0
  0
LINE
  8
SUNPOU
 10
703.876317
 20
4979.462005
 30
0.0
 11
426.324528
 21
4979.462005
 31
0.0
  0
TEXT
  8
SUNPOU
 10
416.324528
 20
3368.319148
 30
0.0
 40
60.0
  1
20
 50
90.0
  7
K
 72
     1
 11
416.324528
 21
3425.462005
 31
0.0
  0
LINE
  8
SUNPOU
 10
446.324528
 20
3511.462005
 30
0.0
 11
446.324528
 21
3571.462005
 31
0.0
  0
LINE
  8
SUNPOU
 10
446.324528
 20
3491.462005
 30
0.0
 11
446.324528
 21
3359.462005
 31
0.0
  0
INSERT
  8
SUNPOU
  2
ARROWANG
 10
446.324528
 20
3511.462005
 30
0.0
 41
30.0
 42
30.0
 50
270.0
 43
30.0
  0
INSERT
  8
SUNPOU
  2
ARROWANG
 10
446.324528
 20
3491.462005
 30
0.0
 41
30.0
 42
30.0
 50
90.0
 43
30.0
  0
LINE
  8
SUNPOU
 10
446.324528
 20
3491.462005
 30
0.0
 11
446.324528
 21
3511.462005
 31
0.0
  0
LINE
  8
SUNPOU
 10
596.876317
 20
3511.462005
 30
0.0
 11
426.324528
 21
3511.462005
 31
0.0
  0
LINE
  8
SUNPOU
 10
708.876317
 20
3491.462005
 30
0.0
 11
426.324528
 21
3491.462005
 31
0.0
  0
TEXT
  8
SUNPOU
 10
269.663313
 20
4142.890577
 30
0.0
 40
60.0
  1
1500
 50
90.0
  7
K
 72
     1
 11
269.663313
 21
4261.462005
 31
0.0
  0
INSERT
  8
SUNPOU
  2
ARROWANG
 10
299.663313
 20
5011.462005
 30
0.0
 41
30.0
 42
30.0
 50
90.0
 43
30.0
  0
INSERT
  8
SUNPOU
  2
ARROWANG
 10
299.663313
 20
3511.462005
 30
0.0
 41
30.0
 42
30.0
 50
270.0
 43
30.0
  0
LINE
  8
SUNPOU
 10
299.663313
 20
3511.462005
 30
0.0
 11
299.663313
 21
5011.462005
 31
0.0
  0
LINE
  8
SUNPOU
 10
596.876317
 20
5011.462005
 30
0.0
 11
279.663313
 21
5011.462005
 31
0.0
  0
LINE
  8
SUNPOU
 10
596.876317
 20
3511.462005
 30
0.0
 11
279.663313
 21
3511.462005
 31
0.0
  0
TEXT
  8
SUNPOU
 10
1558.304899
 20
3342.081408
 30
0.0
 40
60.0
  1
1896
  7
K
 72
     1
 11
1676.876327
 21
3342.081408
 31
0.0
  0
INSERT
  8
SUNPOU
  2
ARROWANG
 10
2624.876317
 20
3312.081408
 30
0.0
 41
30.0
 42
30.0
 43
30.0
  0
INSERT
  8
SUNPOU
  2
ARROWANG
 10
728.876317
 20
3312.081408
 30
0.0
 41
30.0
 42
30.0
 50
180.0
 43
30.0
  0
LINE
  8
SUNPOU
 10
728.876317
 20
3312.081408
 30
0.0
 11
2624.876317
 21
3312.081408
 31
0.0
  0
LINE
  8
SUNPOU
 10
2624.876317
 20
3471.462005
 30
0.0
 11
2624.876317
 21
3292.081408
 31
0.0
  0
LINE
  8
SUNPOU
 10
728.876317
 20
3471.462005
 30
0.0
 11
728.876317
 21
3292.081408
 31
0.0
  0
TEXT
  8
SUNPOU
 10
1558.304899
 20
3173.796197
 30
0.0
 40
60.0
  1
1920
  7
K
 72
     1
 11
1676.876327
 21
3173.796197
 31
0.0
  0
INSERT
  8
SUNPOU
  2
ARROWANG
 10
2636.876317
 20
3143.796197
 30
0.0
 41
30.0
 42
30.0
 43
30.0
  0
INSERT
  8
SUNPOU
  2
ARROWANG
 10
716.876317
 20
3143.796197
 30
0.0
 41
30.0
 42
30.0
 50
180.0
 43
30.0
  0
LINE
  8
SUNPOU
 10
716.876317
 20
3143.796197
 30
0.0
 11
2636.876317
 21
3143.796197
 31
0.0
  0
LINE
  8
SUNPOU
 10
2636.876317
 20
3491.462005
 30
0.0
 11
2636.876317
 21
3123.796197
 31
0.0
  0
LINE
  8
SUNPOU
 10
716.876317
 20
3491.462005
 30
0.0
 11
716.876317
 21
3123.796197
 31
0.0
  0
TEXT
  8
SUNPOU
 10
1558.304899
 20
5118.666576
 30
0.0
 40
60.0
  1
1906
  7
K
 72
     1
 11
1676.876327
 21
5118.666576
 31
0.0
  0
INSERT
  8
SUNPOU
  2
ARROWANG
 10
2629.876317
 20
5088.666576
 30
0.0
 41
30.0
 42
30.0
 43
30.0
  0
INSERT
  8
SUNPOU
  2
ARROWANG
 10
723.876317
 20
5088.666576
 30
0.0
 41
30.0
 42
30.0
 50
180.0
 43
30.0
  0
LINE
  8
SUNPOU
 10
723.876317
 20
5088.666576
 30
0.0
 11
2629.876317
 21
5088.666576
 31
0.0
  0
LINE
  8
SUNPOU
 10
2629.876317
 20
4999.462005
 30
0.0
 11
2629.876317
 21
5108.666576
 31
0.0
  0
LINE
  8
SUNPOU
 10
723.876317
 20
4999.462005
 30
0.0
 11
723.876317
 21
5108.666576
 31
0.0
  0
TEXT
  8
SUNPOU
 10
1556.876327
 20
5297.808898
 30
0.0
 40
60.0
  1
1924
  7
K
 72
     1
 11
1676.876327
 21
5297.808898
 31
0.0
  0
INSERT
  8
SUNPOU
  2
ARROWANG
 10
2638.876317
 20
5267.808898
 30
0.0
 41
30.0
 42
30.0
 43
30.0
  0
INSERT
  8
SUNPOU
  2
ARROWANG
 10
714.876317
 20
5267.808898
 30
0.0
 41
30.0
 42
30.0
 50
180.0
 43
30.0
  0
LINE
  8
SUNPOU
 10
714.876317
 20
5267.808898
 30
0.0
 11
2638.876317
 21
5267.808898
 31
0.0
  0
LINE
  8
SUNPOU
 10
2638.876317
 20
5031.462005
 30
0.0
 11
2638.876317
 21
5287.808898
 31
0.0
  0
LINE
  8
SUNPOU
 10
714.876317
 20
5031.462005
 30
0.0
 11
714.876317
 21
5287.808898
 31
0.0
  0
TEXT
  8
SUNPOU
 10
2566.876317
 20
5476.95122
 30
0.0
 40
60.0
  1
160
  7
K
 72
     1
 11
2656.876317
 21
5476.95122
 31
0.0
  0
INSERT
  8
SUNPOU
  2
ARROWANG
 10
2736.876317
 20
5446.95122
 30
0.0
 41
30.0
 42
30.0
 43
30.0
  0
INSERT
  8
SUNPOU
  2
ARROWANG
 10
2576.876317
 20
5446.95122
 30
0.0
 41
30.0
 42
30.0
 50
180.0
 43
30.0
  0
LINE
  8
SUNPOU
 10
2736.876317
 20
5031.462005
 30
0.0
 11
2736.876317
 21
5466.95122
 31
0.0
  0
LINE
  8
SUNPOU
 10
2576.876317
 20
5446.95122
 30
0.0
 11
2736.876317
 21
5446.95122
 31
0.0
  0
TEXT
  8
SUNPOU
 10
1558.304889
 20
5476.95122
 30
0.0
 40
60.0
  1
1800
  7
K
 72
     1
 11
1676.876317
 21
5476.95122
 31
0.0
  0
INSERT
  8
SUNPOU
  2
ARROWANG
 10
2576.876317
 20
5446.95122
 30
0.0
 41
30.0
 42
30.0
 43
30.0
  0
INSERT
  8
SUNPOU
  2
ARROWANG
 10
776.876317
 20
5446.95122
 30
0.0
 41
30.0
 42
30.0
 50
180.0
 43
30.0
  0
LINE
  8
SUNPOU
 10
2576.876317
 20
4999.462005
 30
0.0
 11
2576.876317
 21
5466.95122
 31
0.0
  0
LINE
  8
SUNPOU
 10
776.876317
 20
5446.95122
 30
0.0
 11
2576.876317
 21
5446.95122
 31
0.0
  0
TEXT
  8
SUNPOU
 10
606.876327
 20
5476.95122
 30
0.0
 40
60.0
  1
160
  7
K
 72
     1
 11
696.876327
 21
5476.95122
 31
0.0
  0
INSERT
  8
SUNPOU
  2
ARROWANG
 10
776.876317
 20
5446.95122
 30
0.0
 41
30.0
 42
30.0
 43
30.0
  0
INSERT
  8
SUNPOU
  2
ARROWANG
 10
616.876317
 20
5446.95122
 30
0.0
 41
30.0
 42
30.0
 50
180.0
 43
30.0
  0
LINE
  8
SUNPOU
 10
616.876317
 20
5446.95122
 30
0.0
 11
776.876317
 21
5446.95122
 31
0.0
  0
LINE
  8
SUNPOU
 10
776.876317
 20
4999.462005
 30
0.0
 11
776.876317
 21
5466.95122
 31
0.0
  0
LINE
  8
SUNPOU
 10
616.876317
 20
5031.462005
 30
0.0
 11
616.876317
 21
5466.95122
 31
0.0
  0
LINE
  8
JISSEN
 10
3818.686648
 20
2931.004804
 30
0.0
 11
3818.686648
 21
5031.004804
 31
0.0
  0
LINE
  8
JISSEN
 10
3818.686648
 20
5031.004804
 30
0.0
 11
5938.686648
 21
5031.004804
 31
0.0
  0
LINE
  8
JISSEN
 10
3818.686648
 20
5031.004804
 30
0.0
 11
3918.686648
 21
5031.004804
 31
0.0
  0
LINE
  8
JISSEN
 10
3918.686648
 20
2931.004804
 30
0.0
 11
3930.686648
 21
2911.004804
 31
0.0
  0
LINE
  8
JISSEN
 10
3930.686648
 20
2911.004804
 30
0.0
 11
4878.686648
 21
2911.004804
 31
0.0
  0
LINE
  8
JISSEN
 10
3916.686648
 20
5031.004804
 30
0.0
 11
3925.686648
 21
4999.004804
 31
0.0
  0
LINE
  8
JISSEN
 10
3925.686648
 20
4999.004804
 30
0.0
 11
3978.686648
 21
4999.004804
 31
0.0
  0
LINE
  8
JISSEN
 10
3978.686648
 20
4999.004804
 30
0.0
 11
4878.686648
 21
4999.004804
 31
0.0
  0
LINE
  8
JISSEN
 10
3818.686648
 20
2931.004804
 30
0.0
 11
3918.686648
 21
2931.004804
 31
0.0
  0
LINE
  8
JISSEN
 10
3978.686648
 20
2911.004804
 30
0.0
 11
3978.686648
 21
4999.004804
 31
0.0
  0
LINE
  8
ITTEN
 10
1676.876317
 20
3391.462005
 30
0.0
 11
1676.876317
 21
5111.462005
 31
0.0
  0
LINE
  8
JISSEN
 10
776.876317
 20
3491.462005
 30
0.0
 11
776.876317
 21
4979.462005
 31
0.0
  0
LINE
  8
JISSEN
 10
2576.876317
 20
4979.462005
 30
0.0
 11
2576.876317
 21
3491.462005
 31
0.0
  0
LINE
  8
JISSEN
 10
2736.876317
 20
3511.462005
 30
0.0
 11
2636.876317
 21
3511.462005
 31
0.0
  0
LINE
  8
JISSEN
 10
2636.876317
 20
3511.462005
 30
0.0
 11
2624.876317
 21
3491.462005
 31
0.0
  0
LINE
  8
JISSEN
 10
616.876317
 20
3511.462005
 30
0.0
 11
716.876317
 21
3511.462005
 31
0.0
  0
LINE
  8
JISSEN
 10
2576.876317
 20
4979.462005
 30
0.0
 11
1676.876317
 21
4979.462005
 31
0.0
  0
LINE
  8
JISSEN
 10
2736.876317
 20
5011.462005
 30
0.0
 11
2636.876317
 21
5011.462005
 31
0.0
  0
LINE
  8
JISSEN
 10
2624.876317
 20
3491.462005
 30
0.0
 11
1676.876317
 21
3491.462005
 31
0.0
  0
LINE
  8
JISSEN
 10
2638.876317
 20
5011.462005
 30
0.0
 11
2629.876317
 21
4979.462005
 31
0.0
  0
LINE
  8
JISSEN
 10
2629.876317
 20
4979.462005
 30
0.0
 11
2576.876317
 21
4979.462005
 31
0.0
  0
LINE
  8
JISSEN
 10
776.876317
 20
4979.462005
 30
0.0
 11
1676.876317
 21
4979.462005
 31
0.0
  0
LINE
  8
JISSEN
 10
723.876317
 20
4979.462005
 30
0.0
 11
776.876317
 21
4979.462005
 31
0.0
  0
LINE
  8
JISSEN
 10
714.876317
 20
5011.462005
 30
0.0
 11
723.876317
 21
4979.462005
 31
0.0
  0
LINE
  8
JISSEN
 10
728.876317
 20
3491.462005
 30
0.0
 11
1676.876317
 21
3491.462005
 31
0.0
  0
LINE
  8
JISSEN
 10
716.876317
 20
3511.462005
 30
0.0
 11
728.876317
 21
3491.462005
 31
0.0
  0
LINE
  8
JISSEN
 10
616.876317
 20
5011.462005
 30
0.0
 11
716.876317
 21
5011.462005
 31
0.0
  0
LINE
  8
JISSEN
 10
2736.876317
 20
5011.462005
 30
0.0
 11
2736.876317
 21
3511.462005
 31
0.0
  0
LINE
  8
JISSEN
 10
616.876317
 20
5011.462005
 30
0.0
 11
2736.876317
 21
5011.462005
 31
0.0
  0
LINE
  8
JISSEN
 10
616.876317
 20
3511.462005
 30
0.0
 11
616.876317
 21
5011.462005
 31
0.0
  0
LINE
  8
ITTEN
 10
1676.876317
 20
2932.857654
 30
0.0
 11
1676.876317
 21
612.857654
 31
0.0
  0
POINT
  8
JISSEN
 10
1676.876317
 20
1773.857654
 30
0.0
  0
ARC
  8
JISSEN
 10
916.876317
 20
4841.462005
 30
0.0
 40
10.0
 50
270.0
 51
90.0
  0
LINE
  8
JISSEN
 10
776.876317
 20
4851.462005
 30
0.0
 11
916.876317
 21
4851.462005
 31
0.0
  0
LINE
  8
JISSEN
 10
776.876317
 20
4831.462005
 30
0.0
 11
916.876317
 21
4831.462005
 31
0.0
  0
LINE
  8
ITTEN
 10
776.876317
 20
4841.462005
 30
0.0
 11
976.876317
 21
4841.462005
 31
0.0
  0
ARC
  8
JISSEN
 10
914.62653
 20
4541.123239
 30
0.0
 40
10.0
 50
270.0
 51
90.0
  0
LINE
  8
JISSEN
 10
776.876317
 20
4551.123239
 30
0.0
 11
914.62653
 21
4551.123239
 31
0.0
  0
LINE
  8
JISSEN
 10
776.876317
 20
4531.123239
 30
0.0
 11
914.62653
 21
4531.123239
 31
0.0
  0
LINE
  8
ITTEN
 10
774.62653
 20
4541.123239
 30
0.0
 11
974.62653
 21
4541.123239
 31
0.0
  0
CIRCLE
  8
JISSEN
 10
1676.876317
 20
4311.462005
 30
0.0
 40
560.0
  0
CIRCLE
  8
JISSEN
 10
4878.686648
 20
3956.004804
 30
0.0
 40
818.0
  0
ARC
  8
JISSEN
 10
4118.686648
 20
4861.004804
 30
0.0
 40
10.0
 50
270.0
 51
90.0
  0
LINE
  8
JISSEN
 10
3978.686648
 20
4871.004804
 30
0.0
 11
4118.686648
 21
4871.004804
 31
0.0
  0
LINE
  8
JISSEN
 10
3978.686648
 20
4851.004804
 30
0.0
 11
4118.686648
 21
4851.004804
 31
0.0
  0
LINE
  8
ITTEN
 10
3978.686648
 20
4861.004804
 30
0.0
 11
4178.686648
 21
4861.004804
 31
0.0
  0
ARC
  8
JISSEN
 10
4116.436861
 20
4560.666038
 30
0.0
 40
10.0
 50
270.0
 51
90.0
  0
LINE
  8
JISSEN
 10
3978.686648
 20
4570.666038
 30
0.0
 11
4116.436861
 21
4570.666038
 31
0.0
  0
LINE
  8
JISSEN
 10
3978.686648
 20
4550.666038
 30
0.0
 11
4116.436861
 21
4550.666038
 31
0.0
  0
LINE
  8
ITTEN
 10
3976.436861
 20
4560.666038
 30
0.0
 11
4176.436861
 21
4560.666038
 31
0.0
  0
ARC
  8
JISSEN
 10
4118.965603
 20
4257.997798
 30
0.0
 40
10.0
 50
270.0
 51
90.0
  0
LINE
  8
JISSEN
 10
3978.965603
 20
4267.997798
 30
0.0
 11
4118.965603
 21
4267.997798
 31
0.0
  0
LINE
  8
JISSEN
 10
3978.965603
 20
4247.997798
 30
0.0
 11
4118.965603
 21
4247.997798
 31
0.0
  0
LINE
  8
ITTEN
 10
3978.965603
 20
4257.997798
 30
0.0
 11
4178.965603
 21
4257.997798
 31
0.0
  0
TEXT
  8
SUNPOU
 10
4252.571196
 20
3185.119264
 30
0.0
 40
60.0
  1
埋込みアンカー
  7
K
  0
CIRCLE
  8
SUNPOU
 10
4129.15346
 20
3081.004804
 30
0.0
 40
15.0
  0
LINE
  8
ITTEN
 10
4129.15346
 20
3106.004804
 30
0.0
 11
4129.15346
 21
3056.004804
 31
0.0
  0
LINE
  8
ITTEN
 10
4154.15346
 20
3081.004804
 30
0.0
 11
4104.15346
 21
3081.004804
 31
0.0
  0
INSERT
  8
SUNPOU
  2
ARROWANG
 10
4129.15346
 20
3081.004804
 30
0.0
 41
30.0
 42
30.0
 50
214.820769
 43
30.0
  0
LINE
  8
SUNPOU
 10
4129.15346
 20
3081.004804
 30
0.0
 11
4258.504648
 21
3170.975777
 31
0.0
  0
LINE
  8
SUNPOU
 10
4258.504648
 20
3170.975777
 30
0.0
 11
4681.869316
 21
3170.975777
 31
0.0
  0
LINE
  8
SUNPOU
 10
4436.242971
 20
4593.377678
 30
0.0
 11
4987.098136
 21
4593.377678
 31
0.0
  0
TEXT
  8
SUNPOU
 10
4514.240313
 20
4614.199407
 30
0.0
 40
60.0
  1
埋込みアンカー
  7
K
  0
LINE
  8
SUNPOU
 10
4473.04221
 20
4881.004804
 30
0.0
 11
4436.242971
 21
4593.377678
 31
0.0
  0
CIRCLE
  8
SUNPOU
 10
4473.04221
 20
4881.004804
 30
0.0
 40
15.0
  0
LINE
  8
ITTEN
 10
4473.04221
 20
4906.004804
 30
0.0
 11
4473.04221
 21
4856.004804
 31
0.0
  0
LINE
  8
ITTEN
 10
4498.04221
 20
4881.004804
 30
0.0
 11
4448.04221
 21
4881.004804
 31
0.0
  0
INSERT
  8
SUNPOU
  2
ARROWANG
 10
4473.04221
 20
4881.004804
 30
0.0
 41
30.0
 42
30.0
 50
82.709142
 43
30.0
  0
LINE
  8
SUNPOU
 10
4129.866988
 20
4881.004804
 30
0.0
 11
4436.242971
 21
4593.377678
 31
0.0
  0
INSERT
  8
SUNPOU
  2
ARROWANG
 10
4129.866988
 20
4881.004804
 30
0.0
 41
30.0
 42
30.0
 50
136.807859
 43
30.0
  0
CIRCLE
  8
SUNPOU
 10
4129.866988
 20
4881.004804
 30
0.0
 40
15.0
  0
LINE
  8
ITTEN
 10
4154.866988
 20
4881.004804
 30
0.0
 11
4104.866988
 21
4881.004804
 31
0.0
  0
LINE
  8
ITTEN
 10
4129.866988
 20
4906.004804
 30
0.0
 11
4129.866988
 21
4856.004804
 31
0.0
  0
TEXT
  8
SUNPOU
 10
1312.429983
 20
4594.656608
 30
0.0
 40
60.0
  1
埋込みアンカー
  7
K
  0
LINE
  8
SUNPOU
 10
1271.231879
 20
4861.462005
 30
0.0
 11
1234.43264
 21
4573.834879
 31
0.0
  0
INSERT
  8
SUNPOU
  2
ARROWANG
 10
1271.231879
 20
4861.462005
 30
0.0
 41
30.0
 42
30.0
 50
82.709142
 43
30.0
  0
LINE
  8
SUNPOU
 10
1234.43264
 20
4573.834879
 30
0.0
 11
1785.287805
 21
4573.834879
 31
0.0
  0
LINE
  8
SUNPOU
 10
928.056657
 20
4861.462005
 30
0.0
 11
1234.43264
 21
4573.834879
 31
0.0
  0
INSERT
  8
SUNPOU
  2
ARROWANG
 10
928.056657
 20
4861.462005
 30
0.0
 41
30.0
 42
30.0
 50
136.807859
 43
30.0
  0
LINE
  8
SUNPOU
 10
1056.694317
 20
3751.432978
 30
0.0
 11
1480.058985
 21
3751.432978
 31
0.0
  0
LINE
  8
SUNPOU
 10
927.343129
 20
3661.462005
 30
0.0
 11
1056.694317
 21
3751.432978
 31
0.0
  0
INSERT
  8
SUNPOU
  2
ARROWANG
 10
927.343129
 20
3661.462005
 30
0.0
 41
30.0
 42
30.0
 50
214.820769
 43
30.0
  0
TEXT
  8
SUNPOU
 10
2867.689162
 20
4846.462005
 30
0.0
 40
60.0
  1
150
 50
90.0
  7
K
 72
     1
 11
2867.689162
 21
4936.462005
 31
0.0
  0
INSERT
  8
SUNPOU
  2
ARROWANG
 10
2897.689162
 20
5011.462005
 30
0.0
 41
30.0
 42
30.0
 50
90.0
 43
30.0
  0
INSERT
  8
SUNPOU
  2
ARROWANG
 10
2897.689162
 20
4861.462005
 30
0.0
 41
30.0
 42
30.0
 50
270.0
 43
30.0
  0
LINE
  8
SUNPOU
 10
2897.689162
 20
4861.462005
 30
0.0
 11
2897.689162
 21
5011.462005
 31
0.0
  0
LINE
  8
SUNPOU
 10
2756.876317
 20
5011.462005
 30
0.0
 11
2917.689162
 21
5011.462005
 31
0.0
  0
LINE
  8
SUNPOU
 10
2445.695978
 20
4861.462005
 30
0.0
 11
2917.689162
 21
4861.462005
 31
0.0
  0
TEXT
  8
SUNPOU
 10
2861.274546
 20
3496.462005
 30
0.0
 40
60.0
  1
150
 50
90.0
  7
K
 72
     1
 11
2861.274546
 21
3586.462005
 31
0.0
  0
INSERT
  8
SUNPOU
  2
ARROWANG
 10
2891.274546
 20
3661.462005
 30
0.0
 41
30.0
 42
30.0
 50
90.0
 43
30.0
  0
INSERT
  8
SUNPOU
  2
ARROWANG
 10
2891.274546
 20
3511.462005
 30
0.0
 41
30.0
 42
30.0
 50
270.0
 43
30.0
  0
LINE
  8
SUNPOU
 10
2891.274546
 20
3511.462005
 30
0.0
 11
2891.274546
 21
3661.462005
 31
0.0
  0
LINE
  8
SUNPOU
 10
2446.409505
 20
3661.462005
 30
0.0
 11
2911.274546
 21
3661.462005
 31
0.0
  0
LINE
  8
SUNPOU
 10
2756.876317
 20
3511.462005
 30
0.0
 11
2911.274546
 21
3511.462005
 31
0.0
  0
CIRCLE
  8
SUNPOU
 10
2426.409505
 20
3661.462005
 30
0.0
 40
15.0
  0
LINE
  8
ITTEN
 10
2426.409505
 20
3686.462005
 30
0.0
 11
2426.409505
 21
3636.462005
 31
0.0
  0
LINE
  8
ITTEN
 10
2401.409505
 20
3661.462005
 30
0.0
 11
2451.409505
 21
3661.462005
 31
0.0
  0
LINE
  8
ITTEN
 10
952.343129
 20
3661.462005
 30
0.0
 11
902.343129
 21
3661.462005
 31
0.0
  0
LINE
  8
ITTEN
 10
927.343129
 20
3686.462005
 30
0.0
 11
927.343129
 21
3636.462005
 31
0.0
  0
CIRCLE
  8
SUNPOU
 10
927.343129
 20
3661.462005
 30
0.0
 40
15.0
  0
LINE
  8
ITTEN
 10
2425.695978
 20
4886.462005
 30
0.0
 11
2425.695978
 21
4836.462005
 31
0.0
  0
LINE
  8
ITTEN
 10
2082.520756
 20
4886.462005
 30
0.0
 11
2082.520756
 21
4836.462005
 31
0.0
  0
CIRCLE
  8
SUNPOU
 10
2082.520756
 20
4861.462005
 30
0.0
 40
15.0
  0
LINE
  8
ITTEN
 10
2057.520756
 20
4861.462005
 30
0.0
 11
2107.520756
 21
4861.462005
 31
0.0
  0
LINE
  8
ITTEN
 10
2400.695978
 20
4861.462005
 30
0.0
 11
2450.695978
 21
4861.462005
 31
0.0
  0
CIRCLE
  8
SUNPOU
 10
2425.695978
 20
4861.462005
 30
0.0
 40
15.0
  0
CIRCLE
  8
SUNPOU
 10
928.056657
 20
4861.462005
 30
0.0
 40
15.0
  0
LINE
  8
ITTEN
 10
928.056657
 20
4886.462005
 30
0.0
 11
928.056657
 21
4836.462005
 31
0.0
  0
LINE
  8
ITTEN
 10
953.056657
 20
4861.462005
 30
0.0
 11
903.056657
 21
4861.462005
 31
0.0
  0
LINE
  8
ITTEN
 10
1296.231879
 20
4861.462005
 30
0.0
 11
1246.231879
 21
4861.462005
 31
0.0
  0
LINE
  8
ITTEN
 10
1271.231879
 20
4886.462005
 30
0.0
 11
1271.231879
 21
4836.462005
 31
0.0
  0
CIRCLE
  8
SUNPOU
 10
1271.231879
 20
4861.462005
 30
0.0
 40
15.0
  0
LINE
  8
HASEN
 10
3819.86655
 20
4361.004804
 30
0.0
 11
3888.686648
 21
4376.004804
 31
0.0
  0
LINE
  8
HASEN
 10
3888.686648
 20
4376.004804
 30
0.0
 11
3948.686648
 21
4376.004804
 31
0.0
  0
LINE
  8
HASEN
 10
3948.686648
 20
4376.004804
 30
0.0
 11
3980.076611
 21
4361.004804
 31
0.0
  0
LINE
  8
HASEN
 10
3819.86655
 20
4461.004804
 30
0.0
 11
3888.686648
 21
4446.004804
 31
0.0
  0
LINE
  8
HASEN
 10
3888.686648
 20
4446.004804
 30
0.0
 11
3948.686648
 21
4446.004804
 31
0.0
  0
LINE
  8
HASEN
 10
3948.686648
 20
4446.004804
 30
0.0
 11
3980.076611
 21
4461.004804
 31
0.0
  0
LINE
  8
ITTEN
 10
3808.686648
 20
4411.004804
 30
0.0
 11
3988.686648
 21
4411.004804
 31
0.0
  0
TEXT
  8
SUNPOU
 10
2954.821032
 20
4614.319148
 30
0.0
 40
60.0
  1
620
 50
90.0
  7
K
 72
     1
 11
2954.821032
 21
4701.462005
 31
0.0
  0
INSERT
  8
SUNPOU
  2
ARROWANG
 10
2984.821032
 20
5011.462005
 30
0.0
 41
30.0
 42
30.0
 50
90.0
 43
30.0
  0
INSERT
  8
SUNPOU
  2
ARROWANG
 10
2984.821032
 20
4391.462005
 30
0.0
 41
30.0
 42
30.0
 50
270.0
 43
30.0
  0
LINE
  8
SUNPOU
 10
2984.821032
 20
4391.462005
 30
0.0
 11
2984.821032
 21
5011.462005
 31
0.0
  0
LINE
  8
SUNPOU
 10
2756.876317
 20
5011.462005
 30
0.0
 11
3004.821032
 21
5011.462005
 31
0.0
  0
LINE
  8
SUNPOU
 10
2756.876317
 20
4391.462005
 30
0.0
 11
3004.821032
 21
4391.462005
 31
0.0
  0
LINE
  8
ITTEN
 10
606.876317
 20
4391.462005
 30
0.0
 11
786.876317
 21
4391.462005
 31
0.0
  0
LINE
  8
ITTEN
 10
2566.876317
 20
4391.462005
 30
0.0
 11
2746.876317
 21
4391.462005
 31
0.0
  0
LINE
  8
HASEN
 10
2735.696415
 20
4341.462005
 30
0.0
 11
2666.876317
 21
4356.462005
 31
0.0
  0
LINE
  8
HASEN
 10
2666.876317
 20
4356.462005
 30
0.0
 11
2606.876317
 21
4356.462005
 31
0.0
  0
LINE
  8
HASEN
 10
2606.876317
 20
4356.462005
 30
0.0
 11
2575.486355
 21
4341.462005
 31
0.0
  0
LINE
  8
HASEN
 10
2606.876317
 20
4426.462005
 30
0.0
 11
2575.486355
 21
4441.462005
 31
0.0
  0
LINE
  8
HASEN
 10
2666.876317
 20
4426.462005
 30
0.0
 11
2606.876317
 21
4426.462005
 31
0.0
  0
LINE
  8
HASEN
 10
2735.696415
 20
4441.462005
 30
0.0
 11
2666.876317
 21
4426.462005
 31
0.0
  0
LINE
  8
HASEN
 10
746.876317
 20
4426.462005
 30
0.0
 11
778.26628
 21
4441.462005
 31
0.0
  0
LINE
  8
HASEN
 10
686.876317
 20
4426.462005
 30
0.0
 11
746.876317
 21
4426.462005
 31
0.0
  0
LINE
  8
HASEN
 10
618.056219
 20
4441.462005
 30
0.0
 11
686.876317
 21
4426.462005
 31
0.0
  0
LINE
  8
HASEN
 10
746.876317
 20
4356.462005
 30
0.0
 11
778.26628
 21
4341.462005
 31
0.0
  0
LINE
  8
HASEN
 10
686.876317
 20
4356.462005
 30
0.0
 11
746.876317
 21
4356.462005
 31
0.0
  0
LINE
  8
HASEN
 10
618.056219
 20
4341.462005
 30
0.0
 11
686.876317
 21
4356.462005
 31
0.0
  0
LINE
  8
SUNPOU
 10
2408.947759
 20
1063.439122
 30
0.0
 11
2702.201777
 21
889.982866
 31
0.0
  0
INSERT
  8
SUNPOU
  2
ARROWANG
 10
2408.947759
 20
1063.439122
 30
0.0
 41
30.0
 42
30.0
 50
149.396191
 43
30.0
  0
LINE
  8
SUNPOU
 10
2702.201777
 20
889.982866
 30
0.0
 11
3399.41615
 21
889.982866
 31
0.0
  0
LINE
  8
SUNPOU
 10
2080.361932
 20
818.870605
 30
0.0
 11
2702.201777
 21
889.982866
 31
0.0
  0
INSERT
  8
SUNPOU
  2
ARROWANG
 10
2080.361932
 20
818.870605
 30
0.0
 41
30.0
 42
30.0
 50
186.523881
 43
30.0
  0
TEXT
  8
SUNPOU
 10
1050.760865
 20
3765.576466
 30
0.0
 40
60.0
  1
埋込みアンカー
  7
K
  0
TEXT
  8
SUNPOU
 10
2757.535099
 20
906.915561
 30
0.0
 40
60.0
  1
埋込みアンカー
  7
K
  0
LINE
  8
HASEN
 10
696.128504
 20
2175.018974
 30
0.0
 11
764.839969
 21
2159.52896
 31
0.0
  0
LINE
  8
HASEN
 10
764.839969
 20
2159.52896
 30
0.0
 11
819.218436
 21
2134.171865
 31
0.0
  0
LINE
  8
HASEN
 10
819.218436
 20
2134.171865
 30
0.0
 11
841.32813
 21
2107.311277
 31
0.0
  0
LINE
  8
HASEN
 10
738.390331
 20
2265.649752
 30
0.0
 11
794.423247
 21
2222.970505
 31
0.0
  0
LINE
  8
HASEN
 10
794.423247
 20
2222.970505
 30
0.0
 11
848.801715
 21
2197.61341
 31
0.0
  0
LINE
  8
HASEN
 10
848.801715
 20
2197.61341
 30
0.0
 11
883.589956
 21
2197.942055
 31
0.0
  0
LINE
  8
HASEN
 10
2657.62413
 20
1370.696334
 30
0.0
 11
2588.912666
 21
1386.186347
 31
0.0
  0
LINE
  8
HASEN
 10
2588.912666
 20
1386.186347
 30
0.0
 11
2534.534199
 21
1411.543443
 31
0.0
  0
LINE
  8
HASEN
 10
2534.534199
 20
1411.543443
 30
0.0
 11
2512.424505
 21
1438.404031
 31
0.0
  0
LINE
  8
HASEN
 10
2504.95092
 20
1348.101898
 30
0.0
 11
2470.162679
 21
1347.773252
 31
0.0
  0
LINE
  8
HASEN
 10
2559.329387
 20
1322.744802
 30
0.0
 11
2504.95092
 21
1348.101898
 31
0.0
  0
LINE
  8
HASEN
 10
2615.362304
 20
1280.065555
 30
0.0
 11
2559.329387
 21
1322.744802
 31
0.0
  0
LINE
  8
SUNPOU
 10
5838.686648
 20
2911.004804
 30
0.0
 11
5838.686648
 21
2543.338995
 31
0.0
  0
INSERT
  8
SUNPOU
  2
ARROWANG
 10
5838.686648
 20
2563.338995
 30
0.0
 41
30.0
 42
30.0
 43
30.0
  0
TEXT
  8
SUNPOU
 10
4760.11523
 20
2593.338995
 30
0.0
 40
60.0
  1
1920
  7
K
 72
     1
 11
4878.686658
 21
2593.338995
 31
0.0
  0
LINE
  8
SUNPOU
 10
5826.686648
 20
2891.004804
 30
0.0
 11
5826.686648
 21
2711.624207
 31
0.0
  0
INSERT
  8
SUNPOU
  2
ARROWANG
 10
5826.686648
 20
2731.624207
 30
0.0
 41
30.0
 42
30.0
 43
30.0
  0
TEXT
  8
SUNPOU
 10
4760.11523
 20
2761.624207
 30
0.0
 40
60.0
  1
1896
  7
K
 72
     1
 11
4878.686658
 21
2761.624207
 31
0.0
  0
LINE
  8
SUNPOU
 10
5778.686648
 20
5019.004804
 30
0.0
 11
5778.686648
 21
5486.494019
 31
0.0
  0
INSERT
  8
SUNPOU
  2
ARROWANG
 10
5778.686648
 20
5466.494019
 30
0.0
 41
30.0
 42
30.0
 43
30.0
  0
LINE
  8
SUNPOU
 10
5778.686648
 20
5466.494019
 30
0.0
 11
5938.686648
 21
5466.494019
 31
0.0
  0
LINE
  8
SUNPOU
 10
5938.686648
 20
5051.004804
 30
0.0
 11
5938.686648
 21
5486.494019
 31
0.0
  0
INSERT
  8
SUNPOU
  2
ARROWANG
 10
5778.686648
 20
5466.494019
 30
0.0
 41
30.0
 42
30.0
 50
180.0
 43
30.0
  0
INSERT
  8
SUNPOU
  2
ARROWANG
 10
5938.686648
 20
5466.494019
 30
0.0
 41
30.0
 42
30.0
 43
30.0
  0
TEXT
  8
SUNPOU
 10
5768.686648
 20
5496.494019
 30
0.0
 40
60.0
  1
160
  7
K
 72
     1
 11
5858.686648
 21
5496.494019
 31
0.0
  0
LINE
  8
SUNPOU
 10
5840.686648
 20
5051.004804
 30
0.0
 11
5840.686648
 21
5307.351697
 31
0.0
  0
INSERT
  8
SUNPOU
  2
ARROWANG
 10
5840.686648
 20
5287.351697
 30
0.0
 41
30.0
 42
30.0
 43
30.0
  0
LINE
  8
SUNPOU
 10
5831.686648
 20
5019.004804
 30
0.0
 11
5831.686648
 21
5128.209375
 31
0.0
  0
INSERT
  8
SUNPOU
  2
ARROWANG
 10
5831.686648
 20
5108.209375
 30
0.0
 41
30.0
 42
30.0
 43
30.0
  0
TEXT
  8
SUNPOU
 10
4760.11522
 20
5496.494019
 30
0.0
 40
60.0
  1
1800
  7
K
 72
     1
 11
4878.686648
 21
5496.494019
 31
0.0
  0
TEXT
  8
SUNPOU
 10
4758.686658
 20
5317.351697
 30
0.0
 40
60.0
  1
1924
  7
K
 72
     1
 11
4878.686658
 21
5317.351697
 31
0.0
  0
TEXT
  8
SUNPOU
 10
4760.11523
 20
5138.209375
 30
0.0
 40
60.0
  1
1906
  7
K
 72
     1
 11
4878.686658
 21
5138.209375
 31
0.0
  0
LINE
  8
JISSEN
 10
5938.686648
 20
5031.004804
 30
0.0
 11
5938.686648
 21
2931.004804
 31
0.0
  0
LINE
  8
JISSEN
 10
5831.686648
 20
4999.004804
 30
0.0
 11
5778.686648
 21
4999.004804
 31
0.0
  0
LINE
  8
JISSEN
 10
5840.686648
 20
5031.004804
 30
0.0
 11
5831.686648
 21
4999.004804
 31
0.0
  0
LINE
  8
JISSEN
 10
5826.686648
 20
2911.004804
 30
0.0
 11
4878.686648
 21
2911.004804
 31
0.0
  0
LINE
  8
JISSEN
 10
5938.686648
 20
5031.004804
 30
0.0
 11
5838.686648
 21
5031.004804
 31
0.0
  0
LINE
  8
JISSEN
 10
5778.686648
 20
4999.004804
 30
0.0
 11
4878.686648
 21
4999.004804
 31
0.0
  0
LINE
  8
JISSEN
 10
5838.686648
 20
2931.004804
 30
0.0
 11
5826.686648
 21
2911.004804
 31
0.0
  0
LINE
  8
JISSEN
 10
5938.686648
 20
2931.004804
 30
0.0
 11
5838.686648
 21
2931.004804
 31
0.0
  0
LINE
  8
JISSEN
 10
5778.686648
 20
4999.004804
 30
0.0
 11
5778.686648
 21
2911.004804
 31
0.0
  0
LINE
  8
ITTEN
 10
4878.686648
 20
2784.425842
 30
0.0
 11
4878.686648
 21
5131.004804
 31
0.0
  0
TEXT
  8
SUNPOU
 10
6062.702574
 20
2916.004804
 30
0.0
 40
60.0
  1
150
 50
90.0
  7
K
 72
     1
 11
6062.702574
 21
3006.004804
 31
0.0
  0
INSERT
  8
SUNPOU
  2
ARROWANG
 10
6092.702574
 20
3081.004804
 30
0.0
 41
30.0
 42
30.0
 50
90.0
 43
30.0
  0
INSERT
  8
SUNPOU
  2
ARROWANG
 10
6092.702574
 20
2931.004804
 30
0.0
 41
30.0
 42
30.0
 50
270.0
 43
30.0
  0
LINE
  8
SUNPOU
 10
6092.702574
 20
2931.004804
 30
0.0
 11
6092.702574
 21
3081.004804
 31
0.0
  0
LINE
  8
SUNPOU
 10
5648.219836
 20
3081.004804
 30
0.0
 11
6112.702574
 21
3081.004804
 31
0.0
  0
LINE
  8
SUNPOU
 10
5958.686648
 20
2931.004804
 30
0.0
 11
6112.702574
 21
2931.004804
 31
0.0
  0
LINE
  8
ITTEN
 10
5603.219836
 20
3081.004804
 30
0.0
 11
5653.219836
 21
3081.004804
 31
0.0
  0
LINE
  8
ITTEN
 10
5628.219836
 20
3106.004804
 30
0.0
 11
5628.219836
 21
3056.004804
 31
0.0
  0
CIRCLE
  8
SUNPOU
 10
5628.219836
 20
3081.004804
 30
0.0
 40
15.0
  0
TEXT
  8
SUNPOU
 10
6033.831079
 20
4866.004804
 30
0.0
 40
60.0
  1
150
 50
90.0
  7
K
 72
     1
 11
6033.831079
 21
4956.004804
 31
0.0
  0
INSERT
  8
SUNPOU
  2
ARROWANG
 10
6063.831079
 20
5031.004804
 30
0.0
 41
30.0
 42
30.0
 50
90.0
 43
30.0
  0
INSERT
  8
SUNPOU
  2
ARROWANG
 10
6063.831079
 20
4881.004804
 30
0.0
 41
30.0
 42
30.0
 50
270.0
 43
30.0
  0
LINE
  8
SUNPOU
 10
6063.831079
 20
4881.004804
 30
0.0
 11
6063.831079
 21
5031.004804
 31
0.0
  0
LINE
  8
SUNPOU
 10
5958.686648
 20
5031.004804
 30
0.0
 11
6083.831079
 21
5031.004804
 31
0.0
  0
LINE
  8
SUNPOU
 10
5647.506308
 20
4881.004804
 30
0.0
 11
6083.831079
 21
4881.004804
 31
0.0
  0
LINE
  8
ITTEN
 10
5627.506308
 20
4906.004804
 30
0.0
 11
5627.506308
 21
4856.004804
 31
0.0
  0
CIRCLE
  8
SUNPOU
 10
5627.506308
 20
4881.004804
 30
0.0
 40
15.0
  0
LINE
  8
ITTEN
 10
5602.506308
 20
4881.004804
 30
0.0
 11
5652.506308
 21
4881.004804
 31
0.0
  0
LINE
  8
ITTEN
 10
5284.331087
 20
4906.004804
 30
0.0
 11
5284.331087
 21
4856.004804
 31
0.0
  0
CIRCLE
  8
SUNPOU
 10
5284.331087
 20
4881.004804
 30
0.0
 40
15.0
  0
LINE
  8
SUNPOU
 10
5958.686648
 20
5031.004804
 30
0.0
 11
6206.631363
 21
5031.004804
 31
0.0
  0
LINE
  8
SUNPOU
 10
6186.631363
 20
4411.004804
 30
0.0
 11
6186.631363
 21
5031.004804
 31
0.0
  0
INSERT
  8
SUNPOU
  2
ARROWANG
 10
6186.631363
 20
5031.004804
 30
0.0
 41
30.0
 42
30.0
 50
90.0
 43
30.0
  0
TEXT
  8
SUNPOU
 10
6156.631363
 20
4633.861947
 30
0.0
 40
60.0
  1
620
 50
90.0
  7
K
 72
     1
 11
6156.631363
 21
4721.004804
 31
0.0
  0
LINE
  8
HASEN
 10
5937.506746
 20
4461.004804
 30
0.0
 11
5868.686648
 21
4446.004804
 31
0.0
  0
LINE
  8
HASEN
 10
5868.686648
 20
4446.004804
 30
0.0
 11
5808.686648
 21
4446.004804
 31
0.0
  0
LINE
  8
HASEN
 10
5808.686648
 20
4446.004804
 30
0.0
 11
5777.296686
 21
4461.004804
 31
0.0
  0
LINE
  8
HASEN
 10
5808.686648
 20
4376.004804
 30
0.0
 11
5777.296686
 21
4361.004804
 31
0.0
  0
LINE
  8
HASEN
 10
5868.686648
 20
4376.004804
 30
0.0
 11
5808.686648
 21
4376.004804
 31
0.0
  0
LINE
  8
HASEN
 10
5937.506746
 20
4361.004804
 30
0.0
 11
5868.686648
 21
4376.004804
 31
0.0
  0
LINE
  8
ITTEN
 10
5768.686648
 20
4411.004804
 30
0.0
 11
5948.686648
 21
4411.004804
 31
0.0
  0
LINE
  8
SUNPOU
 10
5958.686648
 20
4411.004804
 30
0.0
 11
6206.631363
 21
4411.004804
 31
0.0
  0
INSERT
  8
SUNPOU
  2
ARROWANG
 10
6186.631363
 20
4411.004804
 30
0.0
 41
30.0
 42
30.0
 50
270.0
 43
30.0
  0
LINE
  8
HASEN
 10
2437.016107
 20
1033.931067
 30
0.0
 11
2366.305429
 21
1104.641746
 31
0.0
  0
LINE
  8
HASEN
 10
2366.305429
 20
1104.641746
 30
0.0
 11
2345.092226
 21
1083.428542
 31
0.0
  0
LINE
  8
HASEN
 10
2415.802904
 20
1012.717864
 30
0.0
 11
2345.092226
 21
1083.428542
 31
0.0
  0
LINE
  8
HASEN
 10
2415.802904
 20
2532.997444
 30
0.0
 11
2345.092226
 21
2462.286765
 31
0.0
  0
LINE
  8
HASEN
 10
2366.305429
 20
2441.073562
 30
0.0
 11
2345.092226
 21
2462.286765
 31
0.0
  0
LINE
  8
HASEN
 10
2437.016107
 20
2511.78424
 30
0.0
 11
2366.305429
 21
2441.073562
 31
0.0
  0
TEXT
  8
TEXT
 10
1273.136037
 20
4477.677249
 30
0.0
 40
60.0
  1
M20 8ケ所
  7
K
  0
TEXT
  8
TEXT
 10
1058.916258
 20
3668.360984
 30
0.0
 40
60.0
  1
M20 4ケ所
  7
K
  0
TEXT
  8
TEXT
 10
4520.860905
 20
4510.116786
 30
0.0
 40
60.0
  1
M20 8ケ所
  7
K
  0
TEXT
  8
TEXT
 10
4284.235485
 20
3088.46247
 30
0.0
 40
60.0
  1
M20 4ケ所
  7
K
  0
POINT
  8
TEXT
 10
1677.782625
 20
1772.435036
 30
0.0
  0
TEXT
  8
TEXT
 10
7486.045816
 20
2788.46247
 30
0.0
 40
60.0
  1
M20 4ケ所
  7
K
  0
TEXT
  8
TEXT
 10
7722.671236
 20
4510.116786
 30
0.0
 40
60.0
  1
M20 8ケ所
  7
K
  0
INSERT
  8
SUNPOU
  2
ARROWANG
 10
9388.441694
 20
4411.004804
 30
0.0
 41
30.0
 42
30.0
 50
270.0
 43
30.0
  0
LINE
  8
SUNPOU
 10
9160.496979
 20
4411.004804
 30
0.0
 11
9408.441694
 21
4411.004804
 31
0.0
  0
LINE
  8
ITTEN
 10
8970.496979
 20
4411.004804
 30
0.0
 11
9150.496979
 21
4411.004804
 31
0.0
  0
LINE
  8
HASEN
 10
9139.317077
 20
4361.004804
 30
0.0
 11
9070.496979
 21
4376.004804
 31
0.0
  0
LINE
  8
HASEN
 10
9070.496979
 20
4376.004804
 30
0.0
 11
9010.496979
 21
4376.004804
 31
0.0
  0
LINE
  8
HASEN
 10
9010.496979
 20
4376.004804
 30
0.0
 11
8979.107017
 21
4361.004804
 31
0.0
  0
LINE
  8
HASEN
 10
9010.496979
 20
4446.004804
 30
0.0
 11
8979.107017
 21
4461.004804
 31
0.0
  0
LINE
  8
HASEN
 10
9070.496979
 20
4446.004804
 30
0.0
 11
9010.496979
 21
4446.004804
 31
0.0
  0
LINE
  8
HASEN
 10
9139.317077
 20
4461.004804
 30
0.0
 11
9070.496979
 21
4446.004804
 31
0.0
  0
TEXT
  8
SUNPOU
 10
9358.441694
 20
4633.861947
 30
0.0
 40
60.0
  1
620
 50
90.0
  7
K
 72
     1
 11
9358.441694
 21
4721.004804
 31
0.0
  0
INSERT
  8
SUNPOU
  2
ARROWANG
 10
9388.441694
 20
5031.004804
 30
0.0
 41
30.0
 42
30.0
 50
90.0
 43
30.0
  0
LINE
  8
SUNPOU
 10
9388.441694
 20
4411.004804
 30
0.0
 11
9388.441694
 21
5031.004804
 31
0.0
  0
LINE
  8
SUNPOU
 10
9160.496979
 20
5031.004804
 30
0.0
 11
9408.441694
 21
5031.004804
 31
0.0
  0
CIRCLE
  8
SUNPOU
 10
8486.141417
 20
4881.004804
 30
0.0
 40
15.0
  0
LINE
  8
ITTEN
 10
8486.141417
 20
4906.004804
 30
0.0
 11
8486.141417
 21
4856.004804
 31
0.0
  0
LINE
  8
ITTEN
 10
8804.316639
 20
4881.004804
 30
0.0
 11
8854.316639
 21
4881.004804
 31
0.0
  0
CIRCLE
  8
SUNPOU
 10
8829.316639
 20
4881.004804
 30
0.0
 40
15.0
  0
LINE
  8
ITTEN
 10
8829.316639
 20
4906.004804
 30
0.0
 11
8829.316639
 21
4856.004804
 31
0.0
  0
LINE
  8
SUNPOU
 10
8849.316639
 20
4881.004804
 30
0.0
 11
9285.64141
 21
4881.004804
 31
0.0
  0
LINE
  8
SUNPOU
 10
9160.496979
 20
5031.004804
 30
0.0
 11
9285.64141
 21
5031.004804
 31
0.0
  0
LINE
  8
SUNPOU
 10
9265.64141
 20
4881.004804
 30
0.0
 11
9265.64141
 21
5031.004804
 31
0.0
  0
INSERT
  8
SUNPOU
  2
ARROWANG
 10
9265.64141
 20
4881.004804
 30
0.0
 41
30.0
 42
30.0
 50
270.0
 43
30.0
  0
INSERT
  8
SUNPOU
  2
ARROWANG
 10
9265.64141
 20
5031.004804
 30
0.0
 41
30.0
 42
30.0
 50
90.0
 43
30.0
  0
TEXT
  8
SUNPOU
 10
9235.64141
 20
4866.004804
 30
0.0
 40
60.0
  1
150
 50
90.0
  7
K
 72
     1
 11
9235.64141
 21
4956.004804
 31
0.0
  0
CIRCLE
  8
SUNPOU
 10
8830.030167
 20
2781.004804
 30
0.0
 40
15.0
  0
LINE
  8
ITTEN
 10
8830.030167
 20
2806.004804
 30
0.0
 11
8830.030167
 21
2756.004804
 31
0.0
  0
LINE
  8
ITTEN
 10
8805.030167
 20
2781.004804
 30
0.0
 11
8855.030167
 21
2781.004804
 31
0.0
  0
LINE
  8
SUNPOU
 10
9160.496979
 20
2631.004804
 30
0.0
 11
9314.512905
 21
2631.004804
 31
0.0
  0
LINE
  8
SUNPOU
 10
8850.030167
 20
2781.004804
 30
0.0
 11
9314.512905
 21
2781.004804
 31
0.0
  0
LINE
  8
SUNPOU
 10
9294.512905
 20
2631.004804
 30
0.0
 11
9294.512905
 21
2781.004804
 31
0.0
  0
INSERT
  8
SUNPOU
  2
ARROWANG
 10
9294.512905
 20
2631.004804
 30
0.0
 41
30.0
 42
30.0
 50
270.0
 43
30.0
  0
INSERT
  8
SUNPOU
  2
ARROWANG
 10
9294.512905
 20
2781.004804
 30
0.0
 41
30.0
 42
30.0
 50
90.0
 43
30.0
  0
TEXT
  8
SUNPOU
 10
9264.512905
 20
2616.004804
 30
0.0
 40
60.0
  1
150
 50
90.0
  7
K
 72
     1
 11
9264.512905
 21
2706.004804
 31
0.0
  0
LINE
  8
ITTEN
 10
8080.496979
 20
2484.425842
 30
0.0
 11
8080.496979
 21
5131.004804
 31
0.0
  0
LINE
  8
JISSEN
 10
8980.496979
 20
4999.004804
 30
0.0
 11
8980.496979
 21
2611.004804
 31
0.0
  0
LINE
  8
JISSEN
 10
9140.496979
 20
2631.004804
 30
0.0
 11
9040.496979
 21
2631.004804
 31
0.0
  0
LINE
  8
JISSEN
 10
9040.496979
 20
2631.004804
 30
0.0
 11
9028.496979
 21
2611.004804
 31
0.0
  0
LINE
  8
JISSEN
 10
8980.496979
 20
4999.004804
 30
0.0
 11
8080.496979
 21
4999.004804
 31
0.0
  0
LINE
  8
JISSEN
 10
9140.496979
 20
5031.004804
 30
0.0
 11
9040.496979
 21
5031.004804
 31
0.0
  0
LINE
  8
JISSEN
 10
9028.496979
 20
2611.004804
 30
0.0
 11
8080.496979
 21
2611.004804
 31
0.0
  0
LINE
  8
JISSEN
 10
9042.496979
 20
5031.004804
 30
0.0
 11
9033.496979
 21
4999.004804
 31
0.0
  0
LINE
  8
JISSEN
 10
9033.496979
 20
4999.004804
 30
0.0
 11
8980.496979
 21
4999.004804
 31
0.0
  0
LINE
  8
JISSEN
 10
9140.496979
 20
5031.004804
 30
0.0
 11
9140.496979
 21
2631.004804
 31
0.0
  0
TEXT
  8
SUNPOU
 10
7961.92556
 20
5138.209375
 30
0.0
 40
60.0
  1
1906
  7
K
 72
     1
 11
8080.496989
 21
5138.209375
 31
0.0
  0
TEXT
  8
SUNPOU
 10
7960.496989
 20
5317.351697
 30
0.0
 40
60.0
  1
1924
  7
K
 72
     1
 11
8080.496989
 21
5317.351697
 31
0.0
  0
TEXT
  8
SUNPOU
 10
7961.925551
 20
5496.494019
 30
0.0
 40
60.0
  1
1800
  7
K
 72
     1
 11
8080.496979
 21
5496.494019
 31
0.0
  0
INSERT
  8
SUNPOU
  2
ARROWANG
 10
9033.496979
 20
5108.209375
 30
0.0
 41
30.0
 42
30.0
 43
30.0
  0
LINE
  8
SUNPOU
 10
9033.496979
 20
5019.004804
 30
0.0
 11
9033.496979
 21
5128.209375
 31
0.0
  0
INSERT
  8
SUNPOU
  2
ARROWANG
 10
9042.496979
 20
5287.351697
 30
0.0
 41
30.0
 42
30.0
 43
30.0
  0
LINE
  8
SUNPOU
 10
9042.496979
 20
5051.004804
 30
0.0
 11
9042.496979
 21
5307.351697
 31
0.0
  0
TEXT
  8
SUNPOU
 10
8970.496979
 20
5496.494019
 30
0.0
 40
60.0
  1
160
  7
K
 72
     1
 11
9060.496979
 21
5496.494019
 31
0.0
  0
INSERT
  8
SUNPOU
  2
ARROWANG
 10
9140.496979
 20
5466.494019
 30
0.0
 41
30.0
 42
30.0
 43
30.0
  0
INSERT
  8
SUNPOU
  2
ARROWANG
 10
8980.496979
 20
5466.494019
 30
0.0
 41
30.0
 42
30.0
 50
180.0
 43
30.0
  0
LINE
  8
SUNPOU
 10
9140.496979
 20
5051.004804
 30
0.0
 11
9140.496979
 21
5486.494019
 31
0.0
  0
LINE
  8
SUNPOU
 10
8980.496979
 20
5466.494019
 30
0.0
 11
9140.496979
 21
5466.494019
 31
0.0
  0
INSERT
  8
SUNPOU
  2
ARROWANG
 10
8980.496979
 20
5466.494019
 30
0.0
 41
30.0
 42
30.0
 43
30.0
  0
LINE
  8
SUNPOU
 10
8980.496979
 20
5019.004804
 30
0.0
 11
8980.496979
 21
5486.494019
 31
0.0
  0
TEXT
  8
SUNPOU
 10
7961.92556
 20
2461.624207
 30
0.0
 40
60.0
  1
1896
  7
K
 72
     1
 11
8080.496989
 21
2461.624207
 31
0.0
  0
INSERT
  8
SUNPOU
  2
ARROWANG
 10
9028.496979
 20
2431.624207
 30
0.0
 41
30.0
 42
30.0
 43
30.0
  0
LINE
  8
SUNPOU
 10
9028.496979
 20
2591.004804
 30
0.0
 11
9028.496979
 21
2411.624207
 31
0.0
  0
TEXT
  8
SUNPOU
 10
7961.92556
 20
2293.338995
 30
0.0
 40
60.0
  1
1920
  7
K
 72
     1
 11
8080.496989
 21
2293.338995
 31
0.0
  0
INSERT
  8
SUNPOU
  2
ARROWANG
 10
9040.496979
 20
2263.338995
 30
0.0
 41
30.0
 42
30.0
 43
30.0
  0
LINE
  8
SUNPOU
 10
9040.496979
 20
2611.004804
 30
0.0
 11
9040.496979
 21
2243.338995
 31
0.0
  0
LINE
  8
ITTEN
 10
7010.496979
 20
4411.004804
 30
0.0
 11
7190.496979
 21
4411.004804
 31
0.0
  0
LINE
  8
HASEN
 10
7150.496979
 20
4446.004804
 30
0.0
 11
7181.886941
 21
4461.004804
 31
0.0
  0
LINE
  8
HASEN
 10
7090.496979
 20
4446.004804
 30
0.0
 11
7150.496979
 21
4446.004804
 31
0.0
  0
LINE
  8
HASEN
 10
7021.676881
 20
4461.004804
 30
0.0
 11
7090.496979
 21
4446.004804
 31
0.0
  0
LINE
  8
HASEN
 10
7150.496979
 20
4376.004804
 30
0.0
 11
7181.886941
 21
4361.004804
 31
0.0
  0
LINE
  8
HASEN
 10
7090.496979
 20
4376.004804
 30
0.0
 11
7150.496979
 21
4376.004804
 31
0.0
  0
LINE
  8
HASEN
 10
7021.676881
 20
4361.004804
 30
0.0
 11
7090.496979
 21
4376.004804
 31
0.0
  0
LINE
  8
ITTEN
 10
7331.677319
 20
4906.004804
 30
0.0
 11
7331.677319
 21
4856.004804
 31
0.0
  0
LINE
  8
ITTEN
 10
7356.677319
 20
4881.004804
 30
0.0
 11
7306.677319
 21
4881.004804
 31
0.0
  0
CIRCLE
  8
SUNPOU
 10
7331.677319
 20
4881.004804
 30
0.0
 40
15.0
  0
INSERT
  8
SUNPOU
  2
ARROWANG
 10
7331.677319
 20
4881.004804
 30
0.0
 41
30.0
 42
30.0
 50
136.807859
 43
30.0
  0
LINE
  8
SUNPOU
 10
7331.677319
 20
4881.004804
 30
0.0
 11
7638.053302
 21
4593.377678
 31
0.0
  0
INSERT
  8
SUNPOU
  2
ARROWANG
 10
7674.852541
 20
4881.004804
 30
0.0
 41
30.0
 42
30.0
 50
82.709142
 43
30.0
  0
LINE
  8
ITTEN
 10
7699.852541
 20
4881.004804
 30
0.0
 11
7649.852541
 21
4881.004804
 31
0.0
  0
LINE
  8
ITTEN
 10
7674.852541
 20
4906.004804
 30
0.0
 11
7674.852541
 21
4856.004804
 31
0.0
  0
CIRCLE
  8
SUNPOU
 10
7674.852541
 20
4881.004804
 30
0.0
 40
15.0
  0
LINE
  8
SUNPOU
 10
7674.852541
 20
4881.004804
 30
0.0
 11
7638.053302
 21
4593.377678
 31
0.0
  0
TEXT
  8
SUNPOU
 10
7716.050644
 20
4614.199407
 30
0.0
 40
60.0
  1
埋込みアンカー
  7
K
  0
LINE
  8
SUNPOU
 10
7638.053302
 20
4593.377678
 30
0.0
 11
8188.908467
 21
4593.377678
 31
0.0
  0
LINE
  8
SUNPOU
 10
7460.314979
 20
2870.975777
 30
0.0
 11
7883.679647
 21
2870.975777
 31
0.0
  0
LINE
  8
SUNPOU
 10
7330.963791
 20
2781.004804
 30
0.0
 11
7460.314979
 21
2870.975777
 31
0.0
  0
INSERT
  8
SUNPOU
  2
ARROWANG
 10
7330.963791
 20
2781.004804
 30
0.0
 41
30.0
 42
30.0
 50
214.820769
 43
30.0
  0
LINE
  8
ITTEN
 10
7355.963791
 20
2781.004804
 30
0.0
 11
7305.963791
 21
2781.004804
 31
0.0
  0
LINE
  8
ITTEN
 10
7330.963791
 20
2806.004804
 30
0.0
 11
7330.963791
 21
2756.004804
 31
0.0
  0
CIRCLE
  8
SUNPOU
 10
7330.963791
 20
2781.004804
 30
0.0
 40
15.0
  0
TEXT
  8
SUNPOU
 10
7454.381526
 20
2885.119264
 30
0.0
 40
60.0
  1
埋込みアンカー
  7
K
  0
LINE
  8
ITTEN
 10
7180.775934
 20
4257.997798
 30
0.0
 11
7380.775934
 21
4257.997798
 31
0.0
  0
LINE
  8
JISSEN
 10
7180.775934
 20
4247.997798
 30
0.0
 11
7320.775934
 21
4247.997798
 31
0.0
  0
LINE
  8
JISSEN
 10
7180.775934
 20
4267.997798
 30
0.0
 11
7320.775934
 21
4267.997798
 31
0.0
  0
ARC
  8
JISSEN
 10
7320.775934
 20
4257.997798
 30
0.0
 40
10.0
 50
270.0
 51
90.0
  0
LINE
  8
ITTEN
 10
7178.247192
 20
4560.666038
 30
0.0
 11
7378.247192
 21
4560.666038
 31
0.0
  0
LINE
  8
JISSEN
 10
7180.496979
 20
4550.666038
 30
0.0
 11
7318.247192
 21
4550.666038
 31
0.0
  0
LINE
  8
JISSEN
 10
7180.496979
 20
4570.666038
 30
0.0
 11
7318.247192
 21
4570.666038
 31
0.0
  0
ARC
  8
JISSEN
 10
7318.247192
 20
4560.666038
 30
0.0
 40
10.0
 50
270.0
 51
90.0
  0
LINE
  8
ITTEN
 10
7180.496979
 20
4861.004804
 30
0.0
 11
7380.496979
 21
4861.004804
 31
0.0
  0
LINE
  8
JISSEN
 10
7180.496979
 20
4851.004804
 30
0.0
 11
7320.496979
 21
4851.004804
 31
0.0
  0
LINE
  8
JISSEN
 10
7180.496979
 20
4871.004804
 30
0.0
 11
7320.496979
 21
4871.004804
 31
0.0
  0
ARC
  8
JISSEN
 10
7320.496979
 20
4861.004804
 30
0.0
 40
10.0
 50
270.0
 51
90.0
  0
CIRCLE
  8
JISSEN
 10
8080.496979
 20
3656.004804
 30
0.0
 40
818.0
  0
LINE
  8
JISSEN
 10
7180.496979
 20
2611.004804
 30
0.0
 11
7180.496979
 21
4999.004804
 31
0.0
  0
LINE
  8
JISSEN
 10
7020.496979
 20
2631.004804
 30
0.0
 11
7120.496979
 21
2631.004804
 31
0.0
  0
LINE
  8
JISSEN
 10
7180.496979
 20
4999.004804
 30
0.0
 11
8080.496979
 21
4999.004804
 31
0.0
  0
LINE
  8
JISSEN
 10
7127.496979
 20
4999.004804
 30
0.0
 11
7180.496979
 21
4999.004804
 31
0.0
  0
LINE
  8
JISSEN
 10
7118.496979
 20
5031.004804
 30
0.0
 11
7127.496979
 21
4999.004804
 31
0.0
  0
LINE
  8
JISSEN
 10
7132.496979
 20
2611.004804
 30
0.0
 11
8080.496979
 21
2611.004804
 31
0.0
  0
LINE
  8
JISSEN
 10
7120.496979
 20
2631.004804
 30
0.0
 11
7132.496979
 21
2611.004804
 31
0.0
  0
LINE
  8
JISSEN
 10
7020.496979
 20
5031.004804
 30
0.0
 11
7120.496979
 21
5031.004804
 31
0.0
  0
LINE
  8
JISSEN
 10
7020.496979
 20
5031.004804
 30
0.0
 11
9140.496979
 21
5031.004804
 31
0.0
  0
LINE
  8
JISSEN
 10
7020.496979
 20
2631.004804
 30
0.0
 11
7020.496979
 21
5031.004804
 31
0.0
  0
INSERT
  8
SUNPOU
  2
ARROWANG
 10
7127.496979
 20
5108.209375
 30
0.0
 41
30.0
 42
30.0
 50
180.0
 43
30.0
  0
LINE
  8
SUNPOU
 10
7127.496979
 20
5108.209375
 30
0.0
 11
9033.496979
 21
5108.209375
 31
0.0
  0
LINE
  8
SUNPOU
 10
7127.496979
 20
5019.004804
 30
0.0
 11
7127.496979
 21
5128.209375
 31
0.0
  0
INSERT
  8
SUNPOU
  2
ARROWANG
 10
7118.496979
 20
5287.351697
 30
0.0
 41
30.0
 42
30.0
 50
180.0
 43
30.0
  0
LINE
  8
SUNPOU
 10
7118.496979
 20
5287.351697
 30
0.0
 11
9042.496979
 21
5287.351697
 31
0.0
  0
LINE
  8
SUNPOU
 10
7118.496979
 20
5051.004804
 30
0.0
 11
7118.496979
 21
5307.351697
 31
0.0
  0
INSERT
  8
SUNPOU
  2
ARROWANG
 10
7180.496979
 20
5466.494019
 30
0.0
 41
30.0
 42
30.0
 50
180.0
 43
30.0
  0
LINE
  8
SUNPOU
 10
7180.496979
 20
5466.494019
 30
0.0
 11
8980.496979
 21
5466.494019
 31
0.0
  0
TEXT
  8
SUNPOU
 10
7010.496989
 20
5496.494019
 30
0.0
 40
60.0
  1
160
  7
K
 72
     1
 11
7100.496989
 21
5496.494019
 31
0.0
  0
INSERT
  8
SUNPOU
  2
ARROWANG
 10
7180.496979
 20
5466.494019
 30
0.0
 41
30.0
 42
30.0
 43
30.0
  0
INSERT
  8
SUNPOU
  2
ARROWANG
 10
7020.496979
 20
5466.494019
 30
0.0
 41
30.0
 42
30.0
 50
180.0
 43
30.0
  0
LINE
  8
SUNPOU
 10
7020.496979
 20
5466.494019
 30
0.0
 11
7180.496979
 21
5466.494019
 31
0.0
  0
LINE
  8
SUNPOU
 10
7180.496979
 20
5019.004804
 30
0.0
 11
7180.496979
 21
5486.494019
 31
0.0
  0
LINE
  8
SUNPOU
 10
7020.496979
 20
5051.004804
 30
0.0
 11
7020.496979
 21
5486.494019
 31
0.0
  0
INSERT
  8
SUNPOU
  2
ARROWANG
 10
7132.496979
 20
2431.624207
 30
0.0
 41
30.0
 42
30.0
 50
180.0
 43
30.0
  0
LINE
  8
SUNPOU
 10
7132.496979
 20
2431.624207
 30
0.0
 11
9028.496979
 21
2431.624207
 31
0.0
  0
LINE
  8
SUNPOU
 10
7132.496979
 20
2591.004804
 30
0.0
 11
7132.496979
 21
2411.624207
 31
0.0
  0
INSERT
  8
SUNPOU
  2
ARROWANG
 10
7120.496979
 20
2263.338995
 30
0.0
 41
30.0
 42
30.0
 50
180.0
 43
30.0
  0
LINE
  8
SUNPOU
 10
7120.496979
 20
2263.338995
 30
0.0
 11
9040.496979
 21
2263.338995
 31
0.0
  0
LINE
  8
SUNPOU
 10
7120.496979
 20
2611.004804
 30
0.0
 11
7120.496979
 21
2243.338995
 31
0.0
  0
LINE
  8
SUNPOU
 10
7000.496979
 20
2631.004804
 30
0.0
 11
6600.01034
 21
2631.004804
 31
0.0
  0
LINE
  8
SUNPOU
 10
7000.496979
 20
5031.004804
 30
0.0
 11
6600.01034
 21
5031.004804
 31
0.0
  0
LINE
  8
SUNPOU
 10
6620.01034
 20
2631.004804
 30
0.0
 11
6620.01034
 21
5031.004804
 31
0.0
  0
INSERT
  8
SUNPOU
  2
ARROWANG
 10
6620.01034
 20
2631.004804
 30
0.0
 41
30.0
 42
30.0
 50
270.0
 43
30.0
  0
INSERT
  8
SUNPOU
  2
ARROWANG
 10
6620.01034
 20
5031.004804
 30
0.0
 41
30.0
 42
30.0
 50
90.0
 43
30.0
  0
TEXT
  8
SUNPOU
 10
6570.253515
 20
3710.942242
 30
0.0
 40
60.0
  1
2400
 50
90.0
  7
K
 72
     1
 11
6570.253515
 21
3825.227956
 31
0.0
  0
LINE
  8
SUNPOU
 10
7107.496979
 20
4999.004804
 30
0.0
 11
6782.896316
 21
4999.004804
 31
0.0
  0
LINE
  8
SUNPOU
 10
7000.496979
 20
5031.004804
 30
0.0
 11
6782.896316
 21
5031.004804
 31
0.0
  0
LINE
  8
SUNPOU
 10
6802.896316
 20
4999.004804
 30
0.0
 11
6802.896316
 21
5031.004804
 31
0.0
  0
INSERT
  8
SUNPOU
  2
ARROWANG
 10
6802.896316
 20
4999.004804
 30
0.0
 41
30.0
 42
30.0
 50
90.0
 43
30.0
  0
INSERT
  8
SUNPOU
  2
ARROWANG
 10
6802.896316
 20
5031.004804
 30
0.0
 41
30.0
 42
30.0
 50
270.0
 43
30.0
  0
LINE
  8
SUNPOU
 10
6802.896316
 20
5031.004804
 30
0.0
 11
6802.896316
 21
5163.004804
 31
0.0
  0
LINE
  8
SUNPOU
 10
6802.896316
 20
4999.004804
 30
0.0
 11
6802.896317
 21
4939.004804
 31
0.0
  0
TEXT
  8
SUNPOU
 10
6772.896316
 20
5039.861947
 30
0.0
 40
60.0
  1
32
 50
90.0
  7
K
 72
     1
 11
6772.896316
 21
5097.004804
 31
0.0
  0
LINE
  8
SUNPOU
 10
7112.496979
 20
2611.004804
 30
0.0
 11
6800.781064
 21
2611.004804
 31
0.0
  0
LINE
  8
SUNPOU
 10
7000.496979
 20
2631.004804
 30
0.0
 11
6800.781064
 21
2631.004804
 31
0.0
  0
LINE
  8
SUNPOU
 10
6820.781064
 20
2611.004804
 30
0.0
 11
6820.781064
 21
2631.004804
 31
0.0
  0
INSERT
  8
SUNPOU
  2
ARROWANG
 10
6820.781064
 20
2611.004804
 30
0.0
 41
30.0
 42
30.0
 50
90.0
 43
30.0
  0
INSERT
  8
SUNPOU
  2
ARROWANG
 10
6820.781064
 20
2631.004804
 30
0.0
 41
30.0
 42
30.0
 50
270.0
 43
30.0
  0
LINE
  8
SUNPOU
 10
6820.781064
 20
2611.004804
 30
0.0
 11
6820.781064
 21
2479.004804
 31
0.0
  0
LINE
  8
SUNPOU
 10
6820.781064
 20
2631.004804
 30
0.0
 11
6820.781064
 21
2691.004804
 31
0.0
  0
TEXT
  8
SUNPOU
 10
6790.781064
 20
2487.861947
 30
0.0
 40
60.0
  1
20
 50
90.0
  7
K
 72
     1
 11
6790.781064
 21
2545.004804
 31
0.0
  0
ARC
  8
JISSEN
 10
7323.304676
 20
3955.329558
 30
0.0
 40
10.0
 50
270.0
 51
90.0
  0
LINE
  8
JISSEN
 10
7183.304676
 20
3965.329558
 30
0.0
 11
7323.304676
 21
3965.329558
 31
0.0
  0
LINE
  8
JISSEN
 10
7183.304676
 20
3945.329558
 30
0.0
 11
7323.304676
 21
3945.329558
 31
0.0
  0
LINE
  8
ITTEN
 10
7183.304676
 20
3955.329558
 30
0.0
 11
7383.304676
 21
3955.329558
 31
0.0
  0
TEXT
  8
TEXT
 10
1335.893997
 20
5620.888216
 30
0.0
 40
120.0
  1
M4B150
  7
K
  0
TEXT
  8
TEXT
 10
4516.742776
 20
5620.888216
 30
0.0
 40
120.0
  1
M4B210
  7
K
  0
TEXT
  8
TEXT
 10
7708.175569
 20
5631.683362
 30
0.0
 40
120.0
  1
M4B240
  7
K
  0
POLYLINE
  8
WAKU
 66
     1
 10
0.0
 20
0.0
 30
0.0
 70
     1
  0
VERTEX
  8
WAKU
 10
0.0
 20
0.0
 30
0.0
  0
VERTEX
  8
WAKU
 10
9875.0
 20
0.0
 30
0.0
  0
VERTEX
  8
WAKU
 10
9875.0
 20
6825.0
 30
0.0
  0
VERTEX
  8
WAKU
 10
0.0
 20
6825.0
 30
0.0
  0
SEQEND
  8
WAKU
  0
TEXT
  8
TEXT
 10
9265.409556
 20
778.985874
 30
0.0
 40
120.0
  1
1/25
  7
K
  0
ENDSEC
  0
EOF
