  0
SECTION
  2
HEADER
  9
$ACADVER
  1
AC1009
  9
$INSBASE
 10
0.0
 20
0.0
 30
0.0
  9
$EXTMIN
 10
0.0
 20
0.0
 30
0.0
  9
$EXTMAX
 10
19750.0
 20
13650.0
 30
0.0
  9
$LIMMIN
 10
0.0
 20
0.0
  9
$LIMMAX
 10
19750.0
 20
13650.0
  9
$ORTHOMODE
 70
     0
  9
$REGENMODE
 70
     1
  9
$FILLMODE
 70
     1
  9
$QTEXTMODE
 70
     0
  9
$MIRRTEXT
 70
     0
  9
$DRAGMODE
 70
     2
  9
$LTSCALE
 40
250.0
  9
$OSMODE
 70
     0
  9
$ATTMODE
 70
     1
  9
$TEXTSIZE
 40
60.0
  9
$TRACEWID
 40
0.05
  9
$TEXTSTYLE
  7
K
  9
$CLAYER
  8
SUNPOU
  9
$CELTYPE
  6
BYLAYER
  9
$CECOLOR
 62
   256
  9
$DIMSCALE
 40
50.0
  9
$DIMASZ
 40
1.5
  9
$DIMEXO
 40
1.0
  9
$DIMDLI
 40
6.0
  9
$DIMRND
 40
0.0
  9
$DIMDLE
 40
0.0
  9
$DIMEXE
 40
1.0
  9
$DIMTP
 40
495.0
  9
$DIMTM
 40
0.0
  9
$DIMTXT
 40
3.0
  9
$DIMCEN
 40
0.0
  9
$DIMTSZ
 40
0.0
  9
$DIMTOL
 70
     0
  9
$DIMLIM
 70
     0
  9
$DIMTIH
 70
     0
  9
$DIMTOH
 70
     0
  9
$DIMSE1
 70
     0
  9
$DIMSE2
 70
     0
  9
$DIMTAD
 70
     1
  9
$DIMZIN
 70
     8
  9
$DIMBLK
  1
ARROW
  9
$DIMASO
 70
     0
  9
$DIMSHO
 70
     0
  9
$DIMPOST
  1

  9
$DIMAPOST
  1

  9
$DIMALT
 70
     0
  9
$DIMALTD
 70
     2
  9
$DIMALTF
 40
25.4
  9
$DIMLFAC
 40
1.0
  9
$DIMTOFL
 70
     1
  9
$DIMTVP
 40
0.0
  9
$DIMTIX
 70
     1
  9
$DIMSOXD
 70
     0
  9
$DIMSAH
 70
     0
  9
$DIMBLK1
  1

  9
$DIMBLK2
  1

  9
$DIMSTYLE
  2
*UNNAMED
  9
$DIMCLRD
 70
     0
  9
$DIMCLRE
 70
     0
  9
$DIMCLRT
 70
     0
  9
$DIMTFAC
 40
1.0
  9
$DIMGAP
 40
0.09
  9
$LUNITS
 70
     2
  9
$LUPREC
 70
     2
  9
$AXISMODE
 70
     1
  9
$AXISUNIT
 10
100.0
 20
100.0
  9
$SKETCHINC
 40
0.1
  9
$FILLETRAD
 40
10.0
  9
$AUNITS
 70
     0
  9
$AUPREC
 70
     2
  9
$MENU
  1
d:stdgx5
  9
$ELEVATION
 40
0.0
  9
$PELEVATION
 40
0.0
  9
$THICKNESS
 40
0.0
  9
$LIMCHECK
 70
     0
  9
$BLIPMODE
 70
     1
  9
$CHAMFERA
 40
0.0
  9
$CHAMFERB
 40
0.0
  9
$SKPOLY
 70
     0
  9
$TDCREATE
 40
2450248.675486111
  9
$TDUPDATE
 40
2450255.705046296
  9
$TDINDWG
 40
0.0071180556
  9
$TDUSRTIMER
 40
0.0071180556
  9
$USRTIMER
 70
     1
  9
$ANGBASE
 50
0.0
  9
$ANGDIR
 70
     0
  9
$PDMODE
 70
     0
  9
$PDSIZE
 40
0.0
  9
$PLINEWID
 40
0.0
  9
$COORDS
 70
     2
  9
$SPLFRAME
 70
     0
  9
$SPLINETYPE
 70
     6
  9
$SPLINESEGS
 70
     8
  9
$ATTDIA
 70
     0
  9
$ATTREQ
 70
     1
  9
$HANDLING
 70
     0
  9
$HANDSEED
  5
0
  9
$SURFTAB1
 70
     6
  9
$SURFTAB2
 70
     6
  9
$SURFTYPE
 70
     6
  9
$SURFU
 70
     6
  9
$SURFV
 70
     6
  9
$UCSNAME
  2

  9
$UCSORG
 10
0.0
 20
0.0
 30
0.0
  9
$UCSXDIR
 10
1.0
 20
0.0
 30
0.0
  9
$UCSYDIR
 10
0.0
 20
1.0
 30
0.0
  9
$PUCSNAME
  2

  9
$PUCSORG
 10
0.0
 20
0.0
 30
0.0
  9
$PUCSXDIR
 10
1.0
 20
0.0
 30
0.0
  9
$PUCSYDIR
 10
0.0
 20
1.0
 30
0.0
  9
$USERI1
 70
     3
  9
$USERI2
 70
     0
  9
$USERI3
 70
     0
  9
$USERI4
 70
     1
  9
$USERI5
 70
     0
  9
$USERR1
 40
50.0
  9
$USERR2
 40
3.0
  9
$USERR3
 40
3.0
  9
$USERR4
 40
1.5
  9
$USERR5
 40
10.0
  9
$WORLDVIEW
 70
     1
  9
$SHADEDGE
 70
     3
  9
$SHADEDIF
 70
    70
  9
$TILEMODE
 70
     1
  9
$MAXACTVP
 70
    16
  9
$PINSBASE
 10
0.0
 20
0.0
 30
0.0
  9
$PLIMCHECK
 70
     0
  9
$PEXTMIN
 10
1.000000E+20
 20
1.000000E+20
 30
1.000000E+20
  9
$PEXTMAX
 10
-1.000000E+20
 20
-1.000000E+20
 30
-1.000000E+20
  9
$PLIMMIN
 10
0.0
 20
0.0
  9
$PLIMMAX
 10
12.0
 20
9.0
  9
$UNITMODE
 70
     0
  9
$VISRETAIN
 70
     0
  0
ENDSEC
  0
SECTION
  2
TABLES
  0
TABLE
  2
VPORT
 70
    10
  0
VPORT
  2
*ACTIVE
 70
     0
 10
0.0
 20
0.0
 11
1.0
 21
1.0
 12
11152.526228
 22
6825.0
 13
0.0
 23
0.0
 14
1.0
 24
1.0
 15
10.0
 25
10.0
 16
0.0
 26
0.0
 36
1.0
 17
0.0
 27
0.0
 37
0.0
 40
13650.0
 41
1.63407
 42
50.0
 43
0.0
 44
0.0
 50
0.0
 51
0.0
 71
     0
 72
   500
 73
     1
 74
     0
 75
     0
 76
     0
 77
     0
 78
     0
  0
VPORT
  2
2
 70
     0
 10
0.5
 20
0.0
 11
1.0
 21
1.0
 12
0.924031
 22
1.052651
 13
0.0
 23
0.0
 14
1.0
 24
1.0
 15
10.0
 25
10.0
 16
0.0
 26
0.0
 36
1.0
 17
0.0
 27
0.0
 37
0.0
 40
2.105302
 41
0.877814
 42
50.0
 43
0.0
 44
0.0
 50
0.0
 51
0.0
 71
     0
 72
   500
 73
     1
 74
     1
 75
     0
 76
     0
 77
     0
 78
     0
  0
VPORT
  2
2
 70
     0
 10
0.0
 20
0.0
 11
0.5
 21
1.0
 12
0.924031
 22
1.052651
 13
0.0
 23
0.0
 14
1.0
 24
1.0
 15
10.0
 25
10.0
 16
0.0
 26
0.0
 36
1.0
 17
0.0
 27
0.0
 37
0.0
 40
2.105302
 41
0.877814
 42
50.0
 43
0.0
 44
0.0
 50
0.0
 51
0.0
 71
     0
 72
   500
 73
     1
 74
     1
 75
     0
 76
     0
 77
     0
 78
     0
  0
VPORT
  2
3
 70
     0
 10
0.0
 20
0.5
 11
1.0
 21
1.0
 12
2.83217
 22
1.052651
 13
0.0
 23
0.0
 14
1.0
 24
1.0
 15
10.0
 25
10.0
 16
0.0
 26
0.0
 36
1.0
 17
0.0
 27
0.0
 37
0.0
 40
2.105302
 41
3.571429
 42
50.0
 43
0.0
 44
0.0
 50
0.0
 51
0.0
 71
     0
 72
   500
 73
     1
 74
     1
 75
     0
 76
     0
 77
     0
 78
     0
  0
VPORT
  2
3
 70
     0
 10
0.0
 20
0.0
 11
1.0
 21
0.5
 12
2.856742
 22
1.052651
 13
0.0
 23
0.0
 14
1.0
 24
1.0
 15
10.0
 25
10.0
 16
0.0
 26
0.0
 36
1.0
 17
0.0
 27
0.0
 37
0.0
 40
2.105302
 41
3.594771
 42
50.0
 43
0.0
 44
0.0
 50
0.0
 51
0.0
 71
     0
 72
   500
 73
     1
 74
     1
 75
     0
 76
     0
 77
     0
 78
     0
  0
VPORT
  2
4
 70
     0
 10
0.5
 20
0.0
 11
1.0
 21
0.5
 12
2.886858
 22
1.052651
 13
0.0
 23
0.0
 14
1.0
 24
1.0
 15
10.0
 25
10.0
 16
0.0
 26
0.0
 36
1.0
 17
0.0
 27
0.0
 37
0.0
 40
4.275207
 41
1.784314
 42
50.0
 43
0.0
 44
0.0
 50
0.0
 51
0.0
 71
     0
 72
   500
 73
     1
 74
     1
 75
     0
 76
     0
 77
     0
 78
     0
  0
VPORT
  2
4
 70
     0
 10
0.5
 20
0.5
 11
1.0
 21
1.0
 12
2.86209
 22
1.052651
 13
0.0
 23
0.0
 14
1.0
 24
1.0
 15
10.0
 25
10.0
 16
0.0
 26
0.0
 36
1.0
 17
0.0
 27
0.0
 37
0.0
 40
4.275207
 41
1.772727
 42
50.0
 43
0.0
 44
0.0
 50
0.0
 51
0.0
 71
     0
 72
   500
 73
     1
 74
     1
 75
     0
 76
     0
 77
     0
 78
     0
  0
VPORT
  2
4
 70
     0
 10
0.0
 20
0.5
 11
0.5
 21
1.0
 12
2.86209
 22
1.052651
 13
0.0
 23
0.0
 14
1.0
 24
1.0
 15
10.0
 25
10.0
 16
0.0
 26
0.0
 36
1.0
 17
0.0
 27
0.0
 37
0.0
 40
4.275207
 41
1.772727
 42
50.0
 43
0.0
 44
0.0
 50
0.0
 51
0.0
 71
     0
 72
   500
 73
     1
 74
     1
 75
     0
 76
     0
 77
     0
 78
     0
  0
VPORT
  2
4
 70
     0
 10
0.0
 20
0.0
 11
0.5
 21
0.5
 12
2.886858
 22
1.052651
 13
0.0
 23
0.0
 14
1.0
 24
1.0
 15
10.0
 25
10.0
 16
0.0
 26
0.0
 36
1.0
 17
0.0
 27
0.0
 37
0.0
 40
4.275207
 41
1.784314
 42
50.0
 43
0.0
 44
0.0
 50
0.0
 51
0.0
 71
     0
 72
   500
 73
     1
 74
     1
 75
     0
 76
     0
 77
     0
 78
     0
  0
ENDTAB
  0
TABLE
  2
LTYPE
 70
     5
  0
LTYPE
  2
CONTINUOUS
 70
    64
  3
実線
 72
    65
 73
     0
 40
0.0
  0
LTYPE
  2
DASHED
 70
    64
  3
__ __ __ __ __ __ __ __ __ __ __ __ __ __ __
 72
    65
 73
     2
 40
0.75
 49
0.5
 49
-0.25
  0
LTYPE
  2
CENTER
 70
    64
  3
____ _ ____ _ ____ _ ____ _ ____ _ ____ _ ____
 72
    65
 73
     4
 40
2.0
 49
1.25
 49
-0.25
 49
0.25
 49
-0.25
  0
LTYPE
  2
PHANTOM
 70
    64
  3
_____ _ _ _____ _ _ _____ _ _ _____ _ _ ____
 72
    65
 73
     6
 40
2.5
 49
1.25
 49
-0.25
 49
0.25
 49
-0.25
 49
0.25
 49
-0.25
  0
LTYPE
  2
HIDDEN
 70
    64
  3
_ _ _ _ _ _ _ _ _ _ _ _ _ _ _ _ _ _ _ _ _ _ _
 72
    65
 73
     2
 40
0.375
 49
0.25
 49
-0.125
  0
ENDTAB
  0
TABLE
  2
LAYER
 70
    14
  0
LAYER
  2
0
 70
    64
 62
     7
  6
CONTINUOUS
  0
LAYER
  2
HASEN
 70
    64
 62
     2
  6
DASHED
  0
LAYER
  2
ITTEN
 70
    64
 62
     1
  6
CENTER
  0
LAYER
  2
NITEN
 70
    64
 62
     2
  6
PHANTOM
  0
LAYER
  2
HATCH
 70
    64
 62
     4
  6
CONTINUOUS
  0
LAYER
  2
SUNPOU
 70
    64
 62
     3
  6
CONTINUOUS
  0
LAYER
  2
TEXT
 70
    64
 62
     3
  6
CONTINUOUS
  0
LAYER
  2
SAISEN
 70
    64
 62
     4
  6
CONTINUOUS
  0
LAYER
  2
JISSEN
 70
    64
 62
     7
  6
CONTINUOUS
  0
LAYER
  2
WAKU
 70
    64
 62
    -5
  6
CONTINUOUS
  0
ENDTAB
  0
TABLE
  2
STYLE
 70
     2
  0
STYLE
  2
STANDARD
 70
     0
 40
0.0
 41
1.0
 50
0.0
 71
     0
 42
0.2
  3
ROMANS
  4
EXTFONT
  0
STYLE
  2
K
 70
    64
 40
0.0
 41
1.0
 50
0.0
 71
     0
 42
60.0
  3
ROMANS
  4
EXTFONT
  0
ENDTAB
  0
TABLE
  2
VIEW
 70
     0
  0
ENDTAB
  0
TABLE
  2
UCS
 70
     0
  0
ENDTAB
  0
TABLE
  2
APPID
 70
     1
  0
APPID
  2
ACAD
 70
    64
  0
ENDTAB
  0
TABLE
  2
DIMSTYLE
 70
     0
  0
ENDTAB
  0
ENDSEC
  0
SECTION
  2
BLOCKS
  0
BLOCK
  8
SUNPOU
  2
ARROWANG
 70
    64
 10
0.0
 20
0.0
 30
0.0
  3
ARROWANG
  0
LINE
  8
SUNPOU
 10
0.0
 20
0.0
 30
0.0
 11
-1.5
 21
0.401924
 31
0.0
  0
LINE
  8
SUNPOU
 10
0.0
 20
0.0
 30
0.0
 11
-1.5
 21
-0.401924
 31
0.0
  0
ENDBLK
  8
SUNPOU
  0
BLOCK
  8
HATCH
  2
*X2
 70
    65
 10
0.0
 20
0.0
 30
0.0
  3
*X
  0
LINE
  8
0
 62
     0
 10
5941.864318
 20
4969.592494
 30
0.0
 11
6183.208874
 21
5210.93705
 31
0.0
  0
LINE
  8
0
 62
     0
 10
5909.30035
 20
5025.416873
 30
0.0
 11
6183.208874
 21
5299.325397
 31
0.0
  0
LINE
  8
0
 62
     0
 10
5888.291614
 20
5092.796485
 30
0.0
 11
6183.208874
 21
5387.713745
 31
0.0
  0
LINE
  8
0
 62
     0
 10
5884.692628
 20
5177.585847
 30
0.0
 11
6153.408689
 21
5446.301908
 31
0.0
  0
LINE
  8
0
 62
     0
 10
5934.990686
 20
5316.272252
 30
0.0
 11
6014.722284
 21
5396.00385
 31
0.0
  0
LINE
  8
0
 62
     0
 10
5984.070951
 20
4923.41078
 30
0.0
 11
6183.208874
 21
5122.548702
 31
0.0
  0
LINE
  8
0
 62
     0
 10
6035.638744
 20
4886.590224
 30
0.0
 11
6183.208874
 21
5034.160354
 31
0.0
  0
LINE
  8
0
 62
     0
 10
6097.674497
 20
4860.23763
 30
0.0
 11
6183.208874
 21
4945.772007
 31
0.0
  0
LINE
  8
0
 62
     0
 10
6173.759724
 20
4847.93451
 30
0.0
 11
6183.208874
 21
4857.383659
 31
0.0
  0
LINE
  8
0
 62
     0
 10
6183.208874
 20
5130.499625
 30
0.0
 11
5962.609968
 21
5351.098531
 31
0.0
  0
LINE
  8
0
 62
     0
 10
6183.208874
 20
5042.111277
 30
0.0
 11
5924.925263
 21
5300.394889
 31
0.0
  0
LINE
  8
0
 62
     0
 10
6183.208874
 20
4953.72293
 30
0.0
 11
5897.537867
 21
5239.393936
 31
0.0
  0
LINE
  8
0
 62
     0
 10
6183.208874
 20
4865.334582
 30
0.0
 11
5883.694526
 21
5164.848931
 31
0.0
  0
LINE
  8
0
 62
     0
 10
6100.840263
 20
4859.314846
 30
0.0
 11
5894.738057
 21
5065.417051
 31
0.0
  0
LINE
  8
0
 62
     0
 10
6183.208874
 20
5218.887973
 30
0.0
 11
6009.628216
 21
5392.468631
 31
0.0
  0
LINE
  8
0
 62
     0
 10
6183.208874
 20
5307.27632
 30
0.0
 11
6066.381869
 21
5424.103325
 31
0.0
  0
LINE
  8
0
 62
     0
 10
6183.208874
 20
5395.664668
 30
0.0
 11
6134.988569
 21
5443.884973
 31
0.0
  0
ENDBLK
  8
HATCH
  0
ENDSEC
  0
SECTION
  2
ENTITIES
  0
ARC
  8
JISSEN
 10
9880.223068
 20
9012.853713
 30
0.0
 40
25.0
 50
270.0
 51
0.0
  0
ARC
  8
JISSEN
 10
9880.223068
 20
9012.853713
 30
0.0
 40
5.0
 50
270.0
 51
0.0
  0
LINE
  8
JISSEN
 10
9880.223068
 20
8987.853713
 30
0.0
 11
9695.223068
 21
8987.853713
 31
0.0
  0
LINE
  8
JISSEN
 10
9905.223068
 20
9103.010842
 30
0.0
 11
9905.223068
 21
9012.853713
 31
0.0
  0
LINE
  8
JISSEN
 10
9885.223068
 20
9012.853713
 30
0.0
 11
9885.223068
 21
9107.569576
 31
0.0
  0
LINE
  8
JISSEN
 10
9695.223068
 20
9007.853713
 30
0.0
 11
9880.223068
 21
9007.853713
 31
0.0
  0
INSERT
  8
HATCH
  2
*X2
 10
3512.014194
 20
3645.068051
 30
0.0
  0
LINE
  8
SAISEN
 10
9695.223068
 20
8492.853713
 30
0.0
 11
9695.223068
 21
9092.853713
 31
0.0
  0
ARC
  8
JISSEN
 10
9695.223068
 20
8677.853713
 30
0.0
 40
525.0
 50
90.0
 51
270.0
  0
ARC
  8
JISSEN
 10
9695.223068
 20
8792.853713
 30
0.0
 40
410.0
 50
90.0
 51
270.0
  0
ARC
  8
JISSEN
 10
9695.223068
 20
8792.853713
 30
0.0
 40
300.0
 50
90.0
 51
270.0
  0
LINE
  8
SUNPOU
 10
10628.209996
 20
8731.872951
 30
0.0
 11
10628.209996
 21
8731.872951
 31
0.0
  0
LINE
  8
SUNPOU
 10
10489.645931
 20
8651.872951
 30
0.0
 11
10489.645931
 21
8651.872951
 31
0.0
  0
LINE
  8
SUNPOU
 10
8930.800204
 20
7751.872951
 30
0.0
 11
8930.800204
 21
7751.872951
 31
0.0
  0
LINE
  8
SUNPOU
 10
8792.23614
 20
7671.872951
 30
0.0
 11
8792.23614
 21
7671.872951
 31
0.0
  0
LINE
  8
ITTEN
 10
9235.223068
 20
8792.853713
 30
0.0
 11
10155.223068
 21
8792.853713
 31
0.0
  0
LINE
  8
ITTEN
 10
9120.223068
 20
8677.853713
 30
0.0
 11
10270.223068
 21
8677.853713
 31
0.0
  0
LINE
  8
JISSEN
 10
9695.223068
 20
7552.853713
 30
0.0
 11
10290.517113
 21
7552.853713
 31
0.0
  0
LINE
  8
JISSEN
 10
9695.223068
 20
8902.853713
 30
0.0
 11
10290.517113
 21
8902.853713
 31
0.0
  0
ARC
  8
JISSEN
 10
9695.223068
 20
8227.853713
 30
0.0
 40
900.0
 50
270.0
 51
90.0
  0
ARC
  8
HASEN
 10
9695.223068
 20
8227.853713
 30
0.0
 40
900.0
 50
90.0
 51
270.0
  0
LINE
  8
HASEN
 10
10147.67859
 20
7449.853713
 30
0.0
 11
10415.164732
 21
7449.853713
 31
0.0
  0
LINE
  8
HASEN
 10
10290.517113
 20
7552.853713
 30
0.0
 11
10512.520443
 21
7552.853713
 31
0.0
  0
LINE
  8
HASEN
 10
8975.281403
 20
7449.853713
 30
0.0
 11
9242.767545
 21
7449.853713
 31
0.0
  0
LINE
  8
HASEN
 10
8975.281403
 20
9005.853713
 30
0.0
 11
9242.767545
 21
9005.853713
 31
0.0
  0
LINE
  8
HASEN
 10
10147.67859
 20
9005.853713
 30
0.0
 11
10415.164732
 21
9005.853713
 31
0.0
  0
LINE
  8
HASEN
 10
10290.517113
 20
8902.853713
 30
0.0
 11
10512.520443
 21
8902.853713
 31
0.0
  0
LINE
  8
HASEN
 10
8135.223068
 20
7552.853713
 30
0.0
 11
9099.929023
 21
7552.853713
 31
0.0
  0
LINE
  8
HASEN
 10
8135.223068
 20
8902.853713
 30
0.0
 11
9099.929023
 21
8902.853713
 31
0.0
  0
LINE
  8
JISSEN
 10
10415.164732
 20
9005.853713
 30
0.0
 11
11255.223068
 21
9005.853713
 31
0.0
  0
LINE
  8
JISSEN
 10
10512.520443
 20
8902.853713
 30
0.0
 11
11255.223068
 21
8902.853713
 31
0.0
  0
LINE
  8
JISSEN
 10
10512.520443
 20
7552.853713
 30
0.0
 11
11255.223068
 21
7552.853713
 31
0.0
  0
LINE
  8
JISSEN
 10
10415.164732
 20
7449.853713
 30
0.0
 11
11255.223068
 21
7449.853713
 31
0.0
  0
LINE
  8
JISSEN
 10
8135.223068
 20
7449.853713
 30
0.0
 11
8975.281403
 21
7449.853713
 31
0.0
  0
LINE
  8
JISSEN
 10
8135.223068
 20
9005.853713
 30
0.0
 11
8975.281403
 21
9005.853713
 31
0.0
  0
LINE
  8
SUNPOU
 10
15929.013035
 20
4863.231591
 30
0.0
 11
16480.358766
 21
4863.231591
 31
0.0
  0
LINE
  8
SUNPOU
 10
15802.099489
 20
4735.653745
 30
0.0
 11
15929.013035
 21
4863.231591
 31
0.0
  0
INSERT
  8
SUNPOU
  2
ARROWANG
 10
15802.099489
 20
4735.653745
 30
0.0
 41
59.85
 42
59.85
 50
225.149559
 43
59.85
  0
LINE
  8
SUNPOU
 10
15935.254685
 20
6809.748672
 30
0.0
 11
16631.822801
 21
6809.748672
 31
0.0
  0
LINE
  8
SUNPOU
 10
15790.0323
 20
6724.696774
 30
0.0
 11
15935.254685
 21
6809.748672
 31
0.0
  0
INSERT
  8
SUNPOU
  2
ARROWANG
 10
15790.0323
 20
6724.696774
 30
0.0
 41
59.85
 42
59.85
 50
210.35608
 43
59.85
  0
LINE
  8
SUNPOU
 10
15941.496334
 20
7149.446969
 30
0.0
 11
16468.291577
 21
7149.446969
 31
0.0
  0
LINE
  8
SUNPOU
 10
15814.166679
 20
7252.578761
 30
0.0
 11
15941.496334
 21
7149.446969
 31
0.0
  0
INSERT
  8
SUNPOU
  2
ARROWANG
 10
15814.166679
 20
7252.578761
 30
0.0
 41
59.85
 42
59.85
 50
140.993948
 43
59.85
  0
TEXT
  8
SAISEN
 10
16077.469637
 20
7188.344311
 30
0.0
 40
133.0
  1
直壁
  7
K
  0
LINE
  8
SUNPOU
 10
15953.979634
 20
8804.903215
 30
0.0
 11
16462.882147
 21
8804.903215
 31
0.0
  0
LINE
  8
SUNPOU
 10
15699.320323
 20
8647.277094
 30
0.0
 11
15953.979634
 21
8804.903215
 31
0.0
  0
INSERT
  8
SUNPOU
  2
ARROWANG
 10
15699.320323
 20
8647.277094
 30
0.0
 41
59.85
 42
59.85
 50
211.756208
 43
59.85
  0
LINE
  8
SUNPOU
 10
15402.633903
 20
9435.662348
 30
0.0
 11
15966.046824
 21
9435.662348
 31
0.0
  0
LINE
  8
SUNPOU
 10
15311.921926
 20
9320.307529
 30
0.0
 11
15402.633903
 21
9435.662348
 31
0.0
  0
INSERT
  8
SUNPOU
  2
ARROWANG
 10
15311.921926
 20
9320.307529
 30
0.0
 41
59.85
 42
59.85
 50
231.819426
 43
59.85
  0
TEXT
  8
SAISEN
 10
16084.672419
 20
8844.681201
 30
0.0
 40
133.0
  1
斜壁
  7
K
  0
LINE
  8
SUNPOU
 10
15402.633903
 20
10023.895532
 30
0.0
 11
15966.046824
 21
10023.895532
 31
0.0
  0
LINE
  8
SUNPOU
 10
15245.344328
 20
10120.91581
 30
0.0
 11
15402.633903
 21
10023.895532
 31
0.0
  0
INSERT
  8
SUNPOU
  2
ARROWANG
 10
15245.344328
 20
10120.91581
 30
0.0
 41
59.85
 42
59.85
 50
148.332641
 43
59.85
  0
LINE
  8
SUNPOU
 10
15172.679966
 20
10430.315992
 30
0.0
 11
15965.73092
 21
10430.315992
 31
0.0
  0
LINE
  8
SUNPOU
 10
15172.679966
 20
10430.315992
 30
0.0
 11
15172.679966
 21
10430.315992
 31
0.0
  0
INSERT
  8
SUNPOU
  2
ARROWANG
 10
15172.679966
 20
10430.315992
 30
0.0
 41
59.85
 42
59.85
 50
180.0
 43
59.85
  0
LINE
  8
SUNPOU
 10
14269.771181
 20
10345.48553
 30
0.0
 11
13439.943786
 21
10345.48553
 31
0.0
  0
LINE
  8
SUNPOU
 10
14433.379196
 20
10521.205773
 30
0.0
 11
14269.771181
 21
10345.48553
 31
0.0
  0
INSERT
  8
SUNPOU
  2
ARROWANG
 10
14433.379196
 20
10521.205773
 30
0.0
 41
59.85
 42
59.85
 50
47.044289
 43
59.85
  0
LINE
  8
SUNPOU
 10
14239.595639
 20
10697.214555
 30
0.0
 11
13543.200717
 21
10697.214555
 31
0.0
  0
LINE
  8
SUNPOU
 10
14457.896823
 20
10569.680323
 30
0.0
 11
14239.595639
 21
10697.214555
 31
0.0
  0
INSERT
  8
SUNPOU
  2
ARROWANG
 10
14457.896823
 20
10569.680323
 30
0.0
 41
59.85
 42
59.85
 50
329.706003
 43
59.85
  0
TEXT
  8
JISSEN
 10
17480.998443
 20
7150.814498
 30
0.0
 40
199.5
  1
マンホール深さ
 50
90.0
  7
K
  0
TEXT
  8
JISSEN
 10
2876.501931
 20
7043.121863
 30
0.0
 40
180.0
  1
マンホール深さ
 50
90.0
  7
K
  0
INSERT
  8
SUNPOU
  2
ARROWANG
 10
2915.570388
 20
10610.529706
 30
0.0
 41
59.85
 42
59.85
 50
90.0
 43
59.85
  0
INSERT
  8
SUNPOU
  2
ARROWANG
 10
2915.570388
 20
5190.529706
 30
0.0
 41
58.5
 42
58.5
 50
270.0
 43
58.5
  0
LINE
  8
SUNPOU
 10
2915.570388
 20
5190.529706
 30
0.0
 11
2915.570388
 21
10610.529706
 31
0.0
  0
LINE
  8
SUNPOU
 10
3612.790298
 20
10610.529706
 30
0.0
 11
2885.570388
 21
10610.529706
 31
0.0
  0
LINE
  8
SUNPOU
 10
4546.298154
 20
5190.529706
 30
0.0
 11
2885.570388
 21
5190.529706
 31
0.0
  0
TEXT
  8
SAISEN
 10
14351.323586
 20
4490.288249
 30
0.0
 40
100.0
  1
栗石又は砕石基礎
  7
K
  0
TEXT
  8
SAISEN
 10
7672.497708
 20
8000.769188
 30
0.0
 40
133.0
  1
掘削幅
 50
90.0
  7
K
  0
INSERT
  8
SUNPOU
  2
ARROWANG
 10
7732.656193
 20
9787.853713
 30
0.0
 41
45.0
 42
45.0
 50
90.0
 43
45.0
  0
INSERT
  8
SUNPOU
  2
ARROWANG
 10
7732.656193
 20
6667.853713
 30
0.0
 41
45.0
 42
45.0
 50
270.0
 43
45.0
  0
LINE
  8
SUNPOU
 10
7732.656193
 20
6667.853713
 30
0.0
 11
7732.656193
 21
9787.853713
 31
0.0
  0
LINE
  8
SUNPOU
 10
8105.223068
 20
9787.853713
 30
0.0
 11
7702.656193
 21
9787.853713
 31
0.0
  0
LINE
  8
SUNPOU
 10
8105.223068
 20
6667.853713
 30
0.0
 11
7702.656193
 21
6667.853713
 31
0.0
  0
TEXT
  8
SAISEN
 10
4109.448219
 20
4469.557356
 30
0.0
 40
100.0
  1
栗石又は砕石基礎
  7
K
  0
TEXT
  8
SAISEN
 10
15975.051708
 20
4703.624029
 30
0.0
 40
133.0
  1
Ｍ４Ｐ，Ｍ４ＰＦ
  7
K
  0
TEXT
  8
SAISEN
 10
16027.623542
 20
6655.372553
 30
0.0
 40
133.0
  1
Ｍ４Ｂ
  7
K
  0
TEXT
  8
SAISEN
 10
15998.472101
 20
6971.408793
 30
0.0
 40
133.0
  1
Ｍ４Ｓ
  7
K
  0
TEXT
  8
SAISEN
 10
16037.220181
 20
8644.340989
 30
0.0
 40
133.0
  1
Ｍ４Ｔ
  7
K
  0
TEXT
  8
SAISEN
 10
15414.826781
 20
9289.779709
 30
0.0
 40
133.0
  1
Ｍ１Ｓ
  7
K
  0
TEXT
  8
SAISEN
 10
15442.133112
 20
9865.20912
 30
0.0
 40
133.0
  1
Ｍ１Ｔ
  7
K
  0
TEXT
  8
SAISEN
 10
15386.770504
 20
10279.700764
 30
0.0
 40
133.0
  1
ＭＲ
  7
K
  0
TEXT
  8
SAISEN
 10
16090.385968
 20
4902.712248
 30
0.0
 40
133.0
  1
底版
  7
K
  0
TEXT
  8
SAISEN
 10
15958.113425
 20
6846.332458
 30
0.0
 40
133.0
  1
管取付け壁
  7
K
  0
TEXT
  8
SAISEN
 10
15501.018859
 20
9461.507114
 30
0.0
 40
133.0
  1
直壁
  7
K
  0
TEXT
  8
SAISEN
 10
15512.829254
 20
10069.111097
 30
0.0
 40
133.0
  1
斜壁
  7
K
  0
TEXT
  8
SAISEN
 10
15298.351452
 20
10448.723282
 30
0.0
 40
133.0
  1
調整リング
  7
K
  0
TEXT
  8
SAISEN
 10
13383.166445
 20
10745.329886
 30
0.0
 40
133.0
  1
ふた及び受わく
  7
K
  0
TEXT
  8
SAISEN
 10
13253.357094
 20
10372.943187
 30
0.0
 40
133.0
  1
調整ワッシャー
  7
K
  0
TEXT
  8
SAISEN
 10
9431.748467
 20
10294.029708
 30
0.0
 40
133.0
  1
掘削幅
  7
K
  0
TEXT
  8
TEXT
 10
3611.443239
 20
11206.147562
 30
0.0
 40
240.0
  1
横断面図
  7
K
  0
TEXT
  8
TEXT
 10
9207.341807
 20
11213.698871
 30
0.0
 40
240.0
  1
平面図
  7
K
  0
TEXT
  8
TEXT
 10
14377.671487
 20
11294.541087
 30
0.0
 40
240.0
  1
縦断面図
  7
K
  0
INSERT
  8
SUNPOU
  2
ARROWANG
 10
11255.223068
 20
10233.986289
 30
0.0
 41
45.0
 42
45.0
 43
45.0
  0
INSERT
  8
SUNPOU
  2
ARROWANG
 10
8135.223068
 20
10233.986289
 30
0.0
 41
45.0
 42
45.0
 50
180.0
 43
45.0
  0
LINE
  8
SUNPOU
 10
8135.223068
 20
10233.986289
 30
0.0
 11
11255.223068
 21
10233.986289
 31
0.0
  0
LINE
  8
SUNPOU
 10
11255.223068
 20
9817.853713
 30
0.0
 11
11255.223068
 21
10263.986289
 31
0.0
  0
LINE
  8
SUNPOU
 10
8135.223068
 20
9817.853713
 30
0.0
 11
8135.223068
 21
10263.986289
 31
0.0
  0
LINE
  8
ITTEN
 10
14565.223068
 20
8291.260598
 30
0.0
 11
15065.223068
 21
8291.260598
 31
0.0
  0
ARC
  8
JISSEN
 10
14625.223068
 20
8291.260598
 30
0.0
 40
10.0
 50
90.0
 51
270.0
  0
LINE
  8
JISSEN
 10
14815.223068
 20
8281.260598
 30
0.0
 11
14625.223068
 21
8281.260598
 31
0.0
  0
LINE
  8
JISSEN
 10
14815.223068
 20
8301.260598
 30
0.0
 11
14625.223068
 21
8301.260598
 31
0.0
  0
LINE
  8
JISSEN
 10
14815.223068
 20
8281.260598
 30
0.0
 11
15005.223068
 21
8281.260598
 31
0.0
  0
ARC
  8
JISSEN
 10
15005.223068
 20
8291.260598
 30
0.0
 40
10.0
 50
270.0
 51
90.0
  0
LINE
  8
JISSEN
 10
14815.223068
 20
8301.260598
 30
0.0
 11
15005.223068
 21
8301.260598
 31
0.0
  0
ARC
  8
JISSEN
 10
14716.735056
 20
-8.020099
 30
0.0
 40
5978.254197
 50
80.3854
 51
97.704918
  0
LINE
  8
JISSEN
 10
13915.223068
 20
5916.260598
 30
0.0
 11
15715.223068
 21
5886.260598
 31
0.0
  0
LINE
  8
JISSEN
 10
13915.223068
 20
5241.260598
 30
0.0
 11
15715.223068
 21
5211.260598
 31
0.0
  0
LINE
  8
JISSEN
 10
13915.223068
 20
5138.260598
 30
0.0
 11
13110.289297
 21
5138.260598
 31
0.0
  0
LINE
  8
JISSEN
 10
13915.223068
 20
5241.260598
 30
0.0
 11
13110.289297
 21
5241.260598
 31
0.0
  0
LINE
  8
NITEN
 10
13110.289297
 20
5138.260598
 30
0.0
 11
13110.289297
 21
6694.260598
 31
0.0
  0
LINE
  8
JISSEN
 10
13915.223068
 20
6591.260598
 30
0.0
 11
13110.289297
 21
6591.260598
 31
0.0
  0
LINE
  8
JISSEN
 10
13915.223068
 20
6694.260598
 30
0.0
 11
13110.289297
 21
6694.260598
 31
0.0
  0
LINE
  8
NITEN
 10
16520.156838
 20
5108.260598
 30
0.0
 11
16520.156838
 21
6664.260598
 31
0.0
  0
LINE
  8
JISSEN
 10
15715.223068
 20
5108.260598
 30
0.0
 11
16520.156838
 21
5108.260598
 31
0.0
  0
LINE
  8
JISSEN
 10
15715.223068
 20
5211.260598
 30
0.0
 11
16520.156838
 21
5211.260598
 31
0.0
  0
LINE
  8
JISSEN
 10
15715.223068
 20
6561.260598
 30
0.0
 11
16520.156838
 21
6561.260598
 31
0.0
  0
LINE
  8
JISSEN
 10
15715.223068
 20
6664.260598
 30
0.0
 11
16520.156838
 21
6664.260598
 31
0.0
  0
LINE
  8
JISSEN
 10
14815.223068
 20
6201.260598
 30
0.0
 11
15005.223068
 21
6201.260598
 31
0.0
  0
ARC
  8
JISSEN
 10
15005.223068
 20
6191.260598
 30
0.0
 40
10.0
 50
270.0
 51
90.0
  0
LINE
  8
JISSEN
 10
14815.223068
 20
6181.260598
 30
0.0
 11
15005.223068
 21
6181.260598
 31
0.0
  0
LINE
  8
JISSEN
 10
14815.223068
 20
6201.260598
 30
0.0
 11
14625.223068
 21
6201.260598
 31
0.0
  0
LINE
  8
JISSEN
 10
14815.223068
 20
6181.260598
 30
0.0
 11
14625.223068
 21
6181.260598
 31
0.0
  0
ARC
  8
JISSEN
 10
14625.223068
 20
6191.260598
 30
0.0
 40
10.0
 50
90.0
 51
270.0
  0
LINE
  8
ITTEN
 10
14565.223068
 20
6191.260598
 30
0.0
 11
15065.223068
 21
6191.260598
 31
0.0
  0
LINE
  8
JISSEN
 10
14815.223068
 20
6501.260598
 30
0.0
 11
15005.223068
 21
6501.260598
 31
0.0
  0
ARC
  8
JISSEN
 10
15005.223068
 20
6491.260598
 30
0.0
 40
10.0
 50
270.0
 51
90.0
  0
LINE
  8
JISSEN
 10
14815.223068
 20
6481.260598
 30
0.0
 11
15005.223068
 21
6481.260598
 31
0.0
  0
LINE
  8
JISSEN
 10
14815.223068
 20
6501.260598
 30
0.0
 11
14625.223068
 21
6501.260598
 31
0.0
  0
LINE
  8
JISSEN
 10
14815.223068
 20
6481.260598
 30
0.0
 11
14625.223068
 21
6481.260598
 31
0.0
  0
ARC
  8
JISSEN
 10
14625.223068
 20
6491.260598
 30
0.0
 40
10.0
 50
90.0
 51
270.0
  0
LINE
  8
ITTEN
 10
14565.223068
 20
6491.260598
 30
0.0
 11
15065.223068
 21
6491.260598
 31
0.0
  0
LINE
  8
JISSEN
 10
14815.223068
 20
6801.260598
 30
0.0
 11
15005.223068
 21
6801.260598
 31
0.0
  0
ARC
  8
JISSEN
 10
15005.223068
 20
6791.260598
 30
0.0
 40
10.0
 50
270.0
 51
90.0
  0
LINE
  8
JISSEN
 10
14815.223068
 20
6781.260598
 30
0.0
 11
15005.223068
 21
6781.260598
 31
0.0
  0
LINE
  8
JISSEN
 10
14815.223068
 20
6801.260598
 30
0.0
 11
14625.223068
 21
6801.260598
 31
0.0
  0
LINE
  8
JISSEN
 10
14815.223068
 20
6781.260598
 30
0.0
 11
14625.223068
 21
6781.260598
 31
0.0
  0
ARC
  8
JISSEN
 10
14625.223068
 20
6791.260598
 30
0.0
 40
10.0
 50
90.0
 51
270.0
  0
LINE
  8
ITTEN
 10
14565.223068
 20
6791.260598
 30
0.0
 11
15065.223068
 21
6791.260598
 31
0.0
  0
LINE
  8
JISSEN
 10
14815.223068
 20
7101.260598
 30
0.0
 11
15005.223068
 21
7101.260598
 31
0.0
  0
ARC
  8
JISSEN
 10
15005.223068
 20
7091.260598
 30
0.0
 40
10.0
 50
270.0
 51
90.0
  0
LINE
  8
JISSEN
 10
14815.223068
 20
7081.260598
 30
0.0
 11
15005.223068
 21
7081.260598
 31
0.0
  0
LINE
  8
JISSEN
 10
14815.223068
 20
7101.260598
 30
0.0
 11
14625.223068
 21
7101.260598
 31
0.0
  0
LINE
  8
JISSEN
 10
14815.223068
 20
7081.260598
 30
0.0
 11
14625.223068
 21
7081.260598
 31
0.0
  0
ARC
  8
JISSEN
 10
14625.223068
 20
7091.260598
 30
0.0
 40
10.0
 50
90.0
 51
270.0
  0
LINE
  8
ITTEN
 10
14565.223068
 20
7091.260598
 30
0.0
 11
15065.223068
 21
7091.260598
 31
0.0
  0
LINE
  8
JISSEN
 10
14815.223068
 20
7401.260598
 30
0.0
 11
15005.223068
 21
7401.260598
 31
0.0
  0
ARC
  8
JISSEN
 10
15005.223068
 20
7391.260598
 30
0.0
 40
10.0
 50
270.0
 51
90.0
  0
LINE
  8
JISSEN
 10
14815.223068
 20
7381.260598
 30
0.0
 11
15005.223068
 21
7381.260598
 31
0.0
  0
LINE
  8
JISSEN
 10
14815.223068
 20
7401.260598
 30
0.0
 11
14625.223068
 21
7401.260598
 31
0.0
  0
LINE
  8
JISSEN
 10
14815.223068
 20
7381.260598
 30
0.0
 11
14625.223068
 21
7381.260598
 31
0.0
  0
ARC
  8
JISSEN
 10
14625.223068
 20
7391.260598
 30
0.0
 40
10.0
 50
90.0
 51
270.0
  0
LINE
  8
ITTEN
 10
14565.223068
 20
7391.260598
 30
0.0
 11
15065.223068
 21
7391.260598
 31
0.0
  0
LINE
  8
JISSEN
 10
14815.223068
 20
7701.260598
 30
0.0
 11
15005.223068
 21
7701.260598
 31
0.0
  0
ARC
  8
JISSEN
 10
15005.223068
 20
7691.260598
 30
0.0
 40
10.0
 50
270.0
 51
90.0
  0
LINE
  8
JISSEN
 10
14815.223068
 20
7681.260598
 30
0.0
 11
15005.223068
 21
7681.260598
 31
0.0
  0
LINE
  8
JISSEN
 10
14815.223068
 20
7701.260598
 30
0.0
 11
14625.223068
 21
7701.260598
 31
0.0
  0
LINE
  8
JISSEN
 10
14815.223068
 20
7681.260598
 30
0.0
 11
14625.223068
 21
7681.260598
 31
0.0
  0
ARC
  8
JISSEN
 10
14625.223068
 20
7691.260598
 30
0.0
 40
10.0
 50
90.0
 51
270.0
  0
LINE
  8
ITTEN
 10
14565.223068
 20
7691.260598
 30
0.0
 11
15065.223068
 21
7691.260598
 31
0.0
  0
LINE
  8
JISSEN
 10
14815.223068
 20
8001.260598
 30
0.0
 11
15005.223068
 21
8001.260598
 31
0.0
  0
ARC
  8
JISSEN
 10
15005.223068
 20
7991.260598
 30
0.0
 40
10.0
 50
270.0
 51
90.0
  0
LINE
  8
JISSEN
 10
14815.223068
 20
7981.260598
 30
0.0
 11
15005.223068
 21
7981.260598
 31
0.0
  0
LINE
  8
JISSEN
 10
14815.223068
 20
8001.260598
 30
0.0
 11
14625.223068
 21
8001.260598
 31
0.0
  0
LINE
  8
JISSEN
 10
14815.223068
 20
7981.260598
 30
0.0
 11
14625.223068
 21
7981.260598
 31
0.0
  0
ARC
  8
JISSEN
 10
14625.223068
 20
7991.260598
 30
0.0
 40
10.0
 50
90.0
 51
270.0
  0
LINE
  8
ITTEN
 10
14565.223068
 20
7991.260598
 30
0.0
 11
15065.223068
 21
7991.260598
 31
0.0
  0
LINE
  8
ITTEN
 10
14605.223068
 20
10321.260598
 30
0.0
 11
15025.223068
 21
10321.260598
 31
0.0
  0
ARC
  8
JISSEN
 10
14665.223068
 20
10321.260598
 30
0.0
 40
10.0
 50
90.0
 51
270.0
  0
LINE
  8
JISSEN
 10
14815.223068
 20
10331.260598
 30
0.0
 11
14665.223068
 21
10331.260598
 31
0.0
  0
LINE
  8
JISSEN
 10
14815.223068
 20
10311.260598
 30
0.0
 11
14665.223068
 21
10311.260598
 31
0.0
  0
LINE
  8
JISSEN
 10
14815.223068
 20
10311.260598
 30
0.0
 11
14965.223068
 21
10311.260598
 31
0.0
  0
LINE
  8
JISSEN
 10
14815.223068
 20
10331.260598
 30
0.0
 11
14965.223068
 21
10331.260598
 31
0.0
  0
ARC
  8
JISSEN
 10
14965.223068
 20
10321.260598
 30
0.0
 40
10.0
 50
270.0
 51
90.0
  0
ARC
  8
JISSEN
 10
14965.223068
 20
10091.260598
 30
0.0
 40
10.0
 50
270.0
 51
90.0
  0
LINE
  8
JISSEN
 10
14815.223068
 20
10101.260598
 30
0.0
 11
14965.223068
 21
10101.260598
 31
0.0
  0
LINE
  8
JISSEN
 10
14815.223068
 20
10081.260598
 30
0.0
 11
14965.223068
 21
10081.260598
 31
0.0
  0
LINE
  8
JISSEN
 10
14815.223068
 20
10081.260598
 30
0.0
 11
14665.223068
 21
10081.260598
 31
0.0
  0
LINE
  8
JISSEN
 10
14815.223068
 20
10101.260598
 30
0.0
 11
14665.223068
 21
10101.260598
 31
0.0
  0
ARC
  8
JISSEN
 10
14665.223068
 20
10091.260598
 30
0.0
 40
10.0
 50
90.0
 51
270.0
  0
LINE
  8
ITTEN
 10
14605.223068
 20
10091.260598
 30
0.0
 11
15025.223068
 21
10091.260598
 31
0.0
  0
ARC
  8
JISSEN
 10
14969.057673
 20
9794.214385
 30
0.0
 40
10.0
 50
270.0
 51
90.0
  0
LINE
  8
JISSEN
 10
14819.057673
 20
9804.214385
 30
0.0
 11
14969.057673
 21
9804.214385
 31
0.0
  0
LINE
  8
JISSEN
 10
14819.057673
 20
9784.214385
 30
0.0
 11
14969.057673
 21
9784.214385
 31
0.0
  0
LINE
  8
JISSEN
 10
14819.057673
 20
9784.214385
 30
0.0
 11
14669.057673
 21
9784.214385
 31
0.0
  0
LINE
  8
JISSEN
 10
14819.057673
 20
9804.214385
 30
0.0
 11
14669.057673
 21
9804.214385
 31
0.0
  0
ARC
  8
JISSEN
 10
14669.057673
 20
9794.214385
 30
0.0
 40
10.0
 50
90.0
 51
270.0
  0
LINE
  8
ITTEN
 10
14609.057673
 20
9794.214385
 30
0.0
 11
15029.057673
 21
9794.214385
 31
0.0
  0
ARC
  8
JISSEN
 10
14965.223068
 20
9491.260598
 30
0.0
 40
10.0
 50
270.0
 51
90.0
  0
LINE
  8
JISSEN
 10
14815.223068
 20
9501.260598
 30
0.0
 11
14965.223068
 21
9501.260598
 31
0.0
  0
LINE
  8
JISSEN
 10
14815.223068
 20
9481.260598
 30
0.0
 11
14965.223068
 21
9481.260598
 31
0.0
  0
LINE
  8
JISSEN
 10
14815.223068
 20
9481.260598
 30
0.0
 11
14665.223068
 21
9481.260598
 31
0.0
  0
LINE
  8
JISSEN
 10
14815.223068
 20
9501.260598
 30
0.0
 11
14665.223068
 21
9501.260598
 31
0.0
  0
ARC
  8
JISSEN
 10
14665.223068
 20
9491.260598
 30
0.0
 40
10.0
 50
90.0
 51
270.0
  0
LINE
  8
ITTEN
 10
14605.223068
 20
9491.260598
 30
0.0
 11
15025.223068
 21
9491.260598
 31
0.0
  0
ARC
  8
JISSEN
 10
14965.223068
 20
9191.260598
 30
0.0
 40
10.0
 50
270.0
 51
90.0
  0
LINE
  8
JISSEN
 10
14815.223068
 20
9201.260598
 30
0.0
 11
14965.223068
 21
9201.260598
 31
0.0
  0
LINE
  8
JISSEN
 10
14815.223068
 20
9181.260598
 30
0.0
 11
14965.223068
 21
9181.260598
 31
0.0
  0
LINE
  8
JISSEN
 10
14815.223068
 20
9181.260598
 30
0.0
 11
14665.223068
 21
9181.260598
 31
0.0
  0
LINE
  8
JISSEN
 10
14815.223068
 20
9201.260598
 30
0.0
 11
14665.223068
 21
9201.260598
 31
0.0
  0
ARC
  8
JISSEN
 10
14665.223068
 20
9191.260598
 30
0.0
 40
10.0
 50
90.0
 51
270.0
  0
LINE
  8
ITTEN
 10
14605.223068
 20
9191.260598
 30
0.0
 11
15025.223068
 21
9191.260598
 31
0.0
  0
LINE
  8
ITTEN
 10
14605.223068
 20
8891.260598
 30
0.0
 11
15025.223068
 21
8891.260598
 31
0.0
  0
ARC
  8
JISSEN
 10
14665.223068
 20
8891.260598
 30
0.0
 40
10.0
 50
90.0
 51
270.0
  0
LINE
  8
JISSEN
 10
14815.223068
 20
8901.260598
 30
0.0
 11
14665.223068
 21
8901.260598
 31
0.0
  0
LINE
  8
JISSEN
 10
14815.223068
 20
8881.260598
 30
0.0
 11
14665.223068
 21
8881.260598
 31
0.0
  0
LINE
  8
JISSEN
 10
14815.223068
 20
8881.260598
 30
0.0
 11
14965.223068
 21
8881.260598
 31
0.0
  0
LINE
  8
JISSEN
 10
14815.223068
 20
8901.260598
 30
0.0
 11
14965.223068
 21
8901.260598
 31
0.0
  0
ARC
  8
JISSEN
 10
14965.223068
 20
8891.260598
 30
0.0
 40
10.0
 50
270.0
 51
90.0
  0
LINE
  8
JISSEN
 10
15265.223068
 20
9941.260598
 30
0.0
 11
15115.223068
 21
10366.260598
 31
0.0
  0
LINE
  8
JISSEN
 10
14365.223068
 20
9941.260598
 30
0.0
 11
14515.223068
 21
10366.260598
 31
0.0
  0
LINE
  8
JISSEN
 10
15340.223068
 20
10016.260598
 30
0.0
 11
15225.223068
 21
10401.260598
 31
0.0
  0
LINE
  8
JISSEN
 10
15340.223068
 20
9956.260598
 30
0.0
 11
15340.223068
 21
10016.260598
 31
0.0
  0
LINE
  8
JISSEN
 10
14290.223068
 20
10016.260598
 30
0.0
 11
14405.223068
 21
10401.260598
 31
0.0
  0
LINE
  8
JISSEN
 10
14290.223068
 20
9956.260598
 30
0.0
 11
14290.223068
 21
10016.260598
 31
0.0
  0
LINE
  8
JISSEN
 10
15265.223068
 20
8733.260598
 30
0.0
 11
15265.223068
 21
8441.260598
 31
0.0
  0
LINE
  8
JISSEN
 10
14365.223068
 20
8733.260598
 30
0.0
 11
14365.223068
 21
8441.260598
 31
0.0
  0
LINE
  8
JISSEN
 10
15875.223068
 20
8756.260598
 30
0.0
 11
15300.223068
 21
8756.260598
 31
0.0
  0
LINE
  8
JISSEN
 10
13881.223068
 20
8756.260598
 30
0.0
 11
14331.223068
 21
8756.260598
 31
0.0
  0
ARC
  8
JISSEN
 10
4576.298154
 20
5865.529706
 30
0.0
 40
778.0
 50
1.972541
 51
178.027459
  0
LINE
  8
JISSEN
 10
3901.298154
 20
5865.529706
 30
0.0
 11
3676.298154
 21
5924.290922
 31
0.0
  0
LINE
  8
JISSEN
 10
5251.298154
 20
5865.529706
 30
0.0
 11
5476.298154
 21
5924.290922
 31
0.0
  0
LINE
  8
ITTEN
 10
14815.223068
 20
10631.260598
 30
0.0
 11
14815.223068
 21
4641.260598
 31
0.0
  0
LINE
  8
JISSEN
 10
13755.223068
 20
4641.260598
 30
0.0
 11
15875.223068
 21
4641.260598
 31
0.0
  0
LINE
  8
JISSEN
 10
13755.223068
 20
4641.260598
 30
0.0
 11
13755.223068
 21
4861.260598
 31
0.0
  0
LINE
  8
JISSEN
 10
13755.223068
 20
4861.260598
 30
0.0
 11
13853.223068
 21
4861.260598
 31
0.0
  0
LINE
  8
JISSEN
 10
13853.223068
 20
4861.260598
 30
0.0
 11
13862.223068
 21
4841.260598
 31
0.0
  0
LINE
  8
JISSEN
 10
13862.223068
 20
4841.260598
 30
0.0
 11
14415.223068
 21
4841.260598
 31
0.0
  0
LINE
  8
JISSEN
 10
14415.223068
 20
4841.260598
 30
0.0
 11
14415.223068
 21
4641.260598
 31
0.0
  0
LINE
  8
JISSEN
 10
13755.223068
 20
6961.260598
 30
0.0
 11
13855.223068
 21
6961.260598
 31
0.0
  0
LINE
  8
JISSEN
 10
13855.223068
 20
6961.260598
 30
0.0
 11
13867.223068
 21
6941.260598
 31
0.0
  0
LINE
  8
JISSEN
 10
13867.223068
 20
6941.260598
 30
0.0
 11
14815.223068
 21
6941.260598
 31
0.0
  0
LINE
  8
JISSEN
 10
13853.223068
 20
6961.260598
 30
0.0
 11
13862.223068
 21
6929.260598
 31
0.0
  0
LINE
  8
JISSEN
 10
13862.223068
 20
6929.260598
 30
0.0
 11
13915.223068
 21
6929.260598
 31
0.0
  0
LINE
  8
JISSEN
 10
13755.223068
 20
6961.260598
 30
0.0
 11
13755.223068
 21
4861.260598
 31
0.0
  0
LINE
  8
JISSEN
 10
13915.223068
 20
4841.260598
 30
0.0
 11
13915.223068
 21
6929.260598
 31
0.0
  0
LINE
  8
JISSEN
 10
13915.223068
 20
6929.260598
 30
0.0
 11
14815.223068
 21
6929.260598
 31
0.0
  0
LINE
  8
JISSEN
 10
15768.223068
 20
4841.260598
 30
0.0
 11
15215.223068
 21
4841.260598
 31
0.0
  0
LINE
  8
JISSEN
 10
15215.223068
 20
4841.260598
 30
0.0
 11
15215.223068
 21
4641.260598
 31
0.0
  0
LINE
  8
JISSEN
 10
15875.223068
 20
4641.260598
 30
0.0
 11
15875.223068
 21
4861.260598
 31
0.0
  0
LINE
  8
JISSEN
 10
15875.223068
 20
4861.260598
 30
0.0
 11
15777.223068
 21
4861.260598
 31
0.0
  0
LINE
  8
JISSEN
 10
15777.223068
 20
4861.260598
 30
0.0
 11
15768.223068
 21
4841.260598
 31
0.0
  0
LINE
  8
JISSEN
 10
15875.223068
 20
6961.260598
 30
0.0
 11
15875.223068
 21
4861.260598
 31
0.0
  0
LINE
  8
JISSEN
 10
15715.223068
 20
4841.260598
 30
0.0
 11
15715.223068
 21
6929.260598
 31
0.0
  0
LINE
  8
JISSEN
 10
15768.223068
 20
6929.260598
 30
0.0
 11
15715.223068
 21
6929.260598
 31
0.0
  0
LINE
  8
JISSEN
 10
15777.223068
 20
6961.260598
 30
0.0
 11
15768.223068
 21
6929.260598
 31
0.0
  0
LINE
  8
JISSEN
 10
15763.223068
 20
6941.260598
 30
0.0
 11
14815.223068
 21
6941.260598
 31
0.0
  0
LINE
  8
JISSEN
 10
15775.223068
 20
6961.260598
 30
0.0
 11
15763.223068
 21
6941.260598
 31
0.0
  0
LINE
  8
JISSEN
 10
15875.223068
 20
6961.260598
 30
0.0
 11
15775.223068
 21
6961.260598
 31
0.0
  0
LINE
  8
JISSEN
 10
15715.223068
 20
6929.260598
 30
0.0
 11
14815.223068
 21
6929.260598
 31
0.0
  0
LINE
  8
JISSEN
 10
15715.223068
 20
8429.260598
 30
0.0
 11
14815.223068
 21
8429.260598
 31
0.0
  0
LINE
  8
JISSEN
 10
15875.223068
 20
8461.260598
 30
0.0
 11
15775.223068
 21
8461.260598
 31
0.0
  0
LINE
  8
JISSEN
 10
15775.223068
 20
8461.260598
 30
0.0
 11
15763.223068
 21
8441.260598
 31
0.0
  0
LINE
  8
JISSEN
 10
15763.223068
 20
8441.260598
 30
0.0
 11
14815.223068
 21
8441.260598
 31
0.0
  0
LINE
  8
JISSEN
 10
15777.223068
 20
8461.260598
 30
0.0
 11
15768.223068
 21
8429.260598
 31
0.0
  0
LINE
  8
JISSEN
 10
15768.223068
 20
8429.260598
 30
0.0
 11
15715.223068
 21
8429.260598
 31
0.0
  0
LINE
  8
JISSEN
 10
13915.223068
 20
8429.260598
 30
0.0
 11
14815.223068
 21
8429.260598
 31
0.0
  0
LINE
  8
JISSEN
 10
13862.223068
 20
8429.260598
 30
0.0
 11
13915.223068
 21
8429.260598
 31
0.0
  0
LINE
  8
JISSEN
 10
13853.223068
 20
8461.260598
 30
0.0
 11
13862.223068
 21
8429.260598
 31
0.0
  0
LINE
  8
JISSEN
 10
13867.223068
 20
8441.260598
 30
0.0
 11
14815.223068
 21
8441.260598
 31
0.0
  0
LINE
  8
JISSEN
 10
13855.223068
 20
8461.260598
 30
0.0
 11
13867.223068
 21
8441.260598
 31
0.0
  0
LINE
  8
JISSEN
 10
13755.223068
 20
8461.260598
 30
0.0
 11
13855.223068
 21
8461.260598
 31
0.0
  0
LINE
  8
JISSEN
 10
13755.223068
 20
8461.260598
 30
0.0
 11
13755.223068
 21
6961.260598
 31
0.0
  0
LINE
  8
JISSEN
 10
15875.223068
 20
8461.260598
 30
0.0
 11
15875.223068
 21
6961.260598
 31
0.0
  0
LINE
  8
JISSEN
 10
13915.223068
 20
6941.260598
 30
0.0
 11
13915.223068
 21
8429.260598
 31
0.0
  0
LINE
  8
JISSEN
 10
15715.223068
 20
8429.260598
 30
0.0
 11
15715.223068
 21
6941.260598
 31
0.0
  0
LINE
  8
JISSEN
 10
13755.223068
 20
8756.260598
 30
0.0
 11
13881.223068
 21
8756.260598
 31
0.0
  0
LINE
  8
JISSEN
 10
14331.223068
 20
8756.260598
 30
0.0
 11
14340.223068
 21
8741.260598
 31
0.0
  0
LINE
  8
JISSEN
 10
14340.223068
 20
8741.260598
 30
0.0
 11
14365.223068
 21
8741.260598
 31
0.0
  0
LINE
  8
JISSEN
 10
14330.223068
 20
8756.260598
 30
0.0
 11
14337.223068
 21
8733.260598
 31
0.0
  0
LINE
  8
JISSEN
 10
14337.223068
 20
8733.260598
 30
0.0
 11
14365.223068
 21
8733.260598
 31
0.0
  0
LINE
  8
JISSEN
 10
13755.223068
 20
8756.260598
 30
0.0
 11
13755.223068
 21
8461.260598
 31
0.0
  0
LINE
  8
JISSEN
 10
14365.223068
 20
8733.260598
 30
0.0
 11
14815.223068
 21
8733.260598
 31
0.0
  0
LINE
  8
JISSEN
 10
14365.223068
 20
8741.260598
 30
0.0
 11
14815.223068
 21
8741.260598
 31
0.0
  0
LINE
  8
JISSEN
 10
15300.223068
 20
8756.260598
 30
0.0
 11
15293.223068
 21
8733.260598
 31
0.0
  0
LINE
  8
JISSEN
 10
15299.223068
 20
8756.260598
 30
0.0
 11
15290.223068
 21
8741.260598
 31
0.0
  0
LINE
  8
JISSEN
 10
15290.223068
 20
8741.260598
 30
0.0
 11
15265.223068
 21
8741.260598
 31
0.0
  0
LINE
  8
JISSEN
 10
15293.223068
 20
8733.260598
 30
0.0
 11
15265.223068
 21
8733.260598
 31
0.0
  0
LINE
  8
JISSEN
 10
15265.223068
 20
8741.260598
 30
0.0
 11
14815.223068
 21
8741.260598
 31
0.0
  0
LINE
  8
JISSEN
 10
15265.223068
 20
8733.260598
 30
0.0
 11
14815.223068
 21
8733.260598
 31
0.0
  0
LINE
  8
JISSEN
 10
15875.223068
 20
8756.260598
 30
0.0
 11
15875.223068
 21
8461.260598
 31
0.0
  0
LINE
  8
JISSEN
 10
14337.223068
 20
9933.260598
 30
0.0
 11
14815.223068
 21
9933.260598
 31
0.0
  0
LINE
  8
JISSEN
 10
14330.223068
 20
9956.260598
 30
0.0
 11
14337.223068
 21
9933.260598
 31
0.0
  0
LINE
  8
JISSEN
 10
14340.223068
 20
9941.260598
 30
0.0
 11
14815.223068
 21
9941.260598
 31
0.0
  0
LINE
  8
JISSEN
 10
14331.223068
 20
9956.260598
 30
0.0
 11
14340.223068
 21
9941.260598
 31
0.0
  0
LINE
  8
JISSEN
 10
14290.223068
 20
9956.260598
 30
0.0
 11
14331.223068
 21
9956.260598
 31
0.0
  0
LINE
  8
JISSEN
 10
14290.223068
 20
9956.260598
 30
0.0
 11
14290.223068
 21
8756.260598
 31
0.0
  0
LINE
  8
JISSEN
 10
14365.223068
 20
9933.260598
 30
0.0
 11
14365.223068
 21
8741.260598
 31
0.0
  0
LINE
  8
JISSEN
 10
15340.223068
 20
9956.260598
 30
0.0
 11
15340.223068
 21
8756.260598
 31
0.0
  0
LINE
  8
JISSEN
 10
15265.223068
 20
9933.260598
 30
0.0
 11
15265.223068
 21
8741.260598
 31
0.0
  0
LINE
  8
JISSEN
 10
15340.223068
 20
9956.260598
 30
0.0
 11
15299.223068
 21
9956.260598
 31
0.0
  0
LINE
  8
JISSEN
 10
15299.223068
 20
9956.260598
 30
0.0
 11
15290.223068
 21
9941.260598
 31
0.0
  0
LINE
  8
JISSEN
 10
15290.223068
 20
9941.260598
 30
0.0
 11
14815.223068
 21
9941.260598
 31
0.0
  0
LINE
  8
JISSEN
 10
15300.223068
 20
9956.260598
 30
0.0
 11
15293.223068
 21
9933.260598
 31
0.0
  0
LINE
  8
JISSEN
 10
15293.223068
 20
9933.260598
 30
0.0
 11
14815.223068
 21
9933.260598
 31
0.0
  0
LINE
  8
JISSEN
 10
14405.223068
 20
10401.260598
 30
0.0
 11
14486.223068
 21
10401.260598
 31
0.0
  0
LINE
  8
JISSEN
 10
14486.223068
 20
10401.260598
 30
0.0
 11
14490.223068
 21
10391.260598
 31
0.0
  0
LINE
  8
JISSEN
 10
14490.223068
 20
10391.260598
 30
0.0
 11
14515.223068
 21
10391.260598
 31
0.0
  0
LINE
  8
JISSEN
 10
14483.223068
 20
10401.260598
 30
0.0
 11
14489.223068
 21
10386.260598
 31
0.0
  0
LINE
  8
JISSEN
 10
14489.223068
 20
10386.260598
 30
0.0
 11
14515.223068
 21
10386.260598
 31
0.0
  0
LINE
  8
JISSEN
 10
14515.223068
 20
10386.260598
 30
0.0
 11
14515.223068
 21
10366.260598
 31
0.0
  0
LINE
  8
JISSEN
 10
14515.223068
 20
10386.260598
 30
0.0
 11
14815.223068
 21
10386.260598
 31
0.0
  0
LINE
  8
JISSEN
 10
14515.223068
 20
10391.260598
 30
0.0
 11
14815.223068
 21
10391.260598
 31
0.0
  0
LINE
  8
JISSEN
 10
15115.223068
 20
10391.260598
 30
0.0
 11
14815.223068
 21
10391.260598
 31
0.0
  0
LINE
  8
JISSEN
 10
15115.223068
 20
10386.260598
 30
0.0
 11
14815.223068
 21
10386.260598
 31
0.0
  0
LINE
  8
JISSEN
 10
15115.223068
 20
10386.260598
 30
0.0
 11
15115.223068
 21
10366.260598
 31
0.0
  0
LINE
  8
JISSEN
 10
15141.223068
 20
10386.260598
 30
0.0
 11
15115.223068
 21
10386.260598
 31
0.0
  0
LINE
  8
JISSEN
 10
15147.223068
 20
10401.260598
 30
0.0
 11
15141.223068
 21
10386.260598
 31
0.0
  0
LINE
  8
JISSEN
 10
15140.223068
 20
10391.260598
 30
0.0
 11
15115.223068
 21
10391.260598
 31
0.0
  0
LINE
  8
JISSEN
 10
15144.223068
 20
10401.260598
 30
0.0
 11
15140.223068
 21
10391.260598
 31
0.0
  0
LINE
  8
JISSEN
 10
15225.223068
 20
10401.260598
 30
0.0
 11
15144.223068
 21
10401.260598
 31
0.0
  0
LINE
  8
JISSEN
 10
15225.223068
 20
10501.260598
 30
0.0
 11
15147.223068
 21
10501.260598
 31
0.0
  0
LINE
  8
JISSEN
 10
15147.223068
 20
10501.260598
 30
0.0
 11
15141.223068
 21
10486.260598
 31
0.0
  0
LINE
  8
JISSEN
 10
15141.223068
 20
10486.260598
 30
0.0
 11
15115.223068
 21
10486.260598
 31
0.0
  0
LINE
  8
JISSEN
 10
15115.223068
 20
10486.260598
 30
0.0
 11
14815.223068
 21
10486.260598
 31
0.0
  0
LINE
  8
JISSEN
 10
14515.223068
 20
10486.260598
 30
0.0
 11
14815.223068
 21
10486.260598
 31
0.0
  0
LINE
  8
JISSEN
 10
14489.223068
 20
10486.260598
 30
0.0
 11
14515.223068
 21
10486.260598
 31
0.0
  0
LINE
  8
JISSEN
 10
14483.223068
 20
10501.260598
 30
0.0
 11
14489.223068
 21
10486.260598
 31
0.0
  0
LINE
  8
JISSEN
 10
14405.223068
 20
10501.260598
 30
0.0
 11
14483.223068
 21
10501.260598
 31
0.0
  0
LINE
  8
JISSEN
 10
14405.223068
 20
10501.260598
 30
0.0
 11
14405.223068
 21
10401.260598
 31
0.0
  0
LINE
  8
JISSEN
 10
14515.223068
 20
10486.260598
 30
0.0
 11
14515.223068
 21
10391.260598
 31
0.0
  0
LINE
  8
JISSEN
 10
15225.223068
 20
10401.260598
 30
0.0
 11
15225.223068
 21
10501.260598
 31
0.0
  0
LINE
  8
JISSEN
 10
15115.223068
 20
10486.260598
 30
0.0
 11
15115.223068
 21
10391.260598
 31
0.0
  0
LINE
  8
JISSEN
 10
14405.223068
 20
10521.260598
 30
0.0
 11
14515.223068
 21
10521.260598
 31
0.0
  0
LINE
  8
JISSEN
 10
14515.223068
 20
10521.260598
 30
0.0
 11
14515.223068
 21
10586.020265
 31
0.0
  0
LINE
  8
JISSEN
 10
14515.223068
 20
10586.020265
 30
0.0
 11
14480.223068
 21
10586.020265
 31
0.0
  0
LINE
  8
JISSEN
 10
14457.869339
 20
10631.260598
 30
0.0
 11
14480.223068
 21
10586.020265
 31
0.0
  0
LINE
  8
JISSEN
 10
14405.223068
 20
10531.260598
 30
0.0
 11
14505.223068
 21
10531.260598
 31
0.0
  0
LINE
  8
JISSEN
 10
14505.223068
 20
10531.260598
 30
0.0
 11
14505.223068
 21
10576.020265
 31
0.0
  0
LINE
  8
JISSEN
 10
14505.223068
 20
10576.020265
 30
0.0
 11
14474.010048
 21
10576.020265
 31
0.0
  0
LINE
  8
JISSEN
 10
14446.715212
 20
10631.260598
 30
0.0
 11
14474.010048
 21
10576.020265
 31
0.0
  0
LINE
  8
JISSEN
 10
14405.223068
 20
10531.260598
 30
0.0
 11
14405.223068
 21
10501.260598
 31
0.0
  0
LINE
  8
JISSEN
 10
14480.223068
 20
10521.260598
 30
0.0
 11
14480.223068
 21
10501.260598
 31
0.0
  0
LINE
  8
JISSEN
 10
14515.223068
 20
10521.260598
 30
0.0
 11
14515.223068
 21
10486.260598
 31
0.0
  0
LINE
  8
JISSEN
 10
14446.715212
 20
10631.260598
 30
0.0
 11
14457.869339
 21
10631.260598
 31
0.0
  0
LINE
  8
JISSEN
 10
14446.715212
 20
10631.260598
 30
0.0
 11
14405.223068
 21
10531.260598
 31
0.0
  0
LINE
  8
JISSEN
 10
14457.869339
 20
10631.260598
 30
0.0
 11
14815.223068
 21
10631.260598
 31
0.0
  0
LINE
  8
JISSEN
 10
14515.223068
 20
10586.020265
 30
0.0
 11
14815.223068
 21
10586.020265
 31
0.0
  0
LINE
  8
JISSEN
 10
15115.223068
 20
10586.020265
 30
0.0
 11
14815.223068
 21
10586.020265
 31
0.0
  0
LINE
  8
JISSEN
 10
15172.576797
 20
10631.260598
 30
0.0
 11
14815.223068
 21
10631.260598
 31
0.0
  0
LINE
  8
JISSEN
 10
15183.730923
 20
10631.260598
 30
0.0
 11
15225.223068
 21
10531.260598
 31
0.0
  0
LINE
  8
JISSEN
 10
15183.730923
 20
10631.260598
 30
0.0
 11
15172.576797
 21
10631.260598
 31
0.0
  0
LINE
  8
JISSEN
 10
15150.223068
 20
10521.260598
 30
0.0
 11
15150.223068
 21
10501.260598
 31
0.0
  0
LINE
  8
JISSEN
 10
15225.223068
 20
10531.260598
 30
0.0
 11
15225.223068
 21
10501.260598
 31
0.0
  0
LINE
  8
JISSEN
 10
15183.730923
 20
10631.260598
 30
0.0
 11
15156.436088
 21
10576.020265
 31
0.0
  0
LINE
  8
JISSEN
 10
15125.223068
 20
10576.020265
 30
0.0
 11
15156.436088
 21
10576.020265
 31
0.0
  0
LINE
  8
JISSEN
 10
15125.223068
 20
10531.260598
 30
0.0
 11
15125.223068
 21
10576.020265
 31
0.0
  0
LINE
  8
JISSEN
 10
15225.223068
 20
10531.260598
 30
0.0
 11
15125.223068
 21
10531.260598
 31
0.0
  0
LINE
  8
JISSEN
 10
15172.576797
 20
10631.260598
 30
0.0
 11
15150.223068
 21
10586.020265
 31
0.0
  0
LINE
  8
JISSEN
 10
15115.223068
 20
10586.020265
 30
0.0
 11
15150.223068
 21
10586.020265
 31
0.0
  0
LINE
  8
JISSEN
 10
15115.223068
 20
10521.260598
 30
0.0
 11
15115.223068
 21
10586.020265
 31
0.0
  0
LINE
  8
JISSEN
 10
15225.223068
 20
10521.260598
 30
0.0
 11
15115.223068
 21
10521.260598
 31
0.0
  0
LINE
  8
JISSEN
 10
15115.223068
 20
10521.260598
 30
0.0
 11
15115.223068
 21
10486.260598
 31
0.0
  0
LINE
  8
JISSEN
 10
13755.223068
 20
4641.260598
 30
0.0
 11
13755.223068
 21
4441.260598
 31
0.0
  0
LINE
  8
JISSEN
 10
15875.223068
 20
4641.260598
 30
0.0
 11
15875.223068
 21
4441.260598
 31
0.0
  0
LINE
  8
JISSEN
 10
13755.223068
 20
4441.260598
 30
0.0
 11
15875.223068
 21
4441.260598
 31
0.0
  0
LINE
  8
HASEN
 10
11255.223068
 20
6667.853713
 30
0.0
 11
8135.223068
 21
6667.853713
 31
0.0
  0
LINE
  8
HASEN
 10
11255.223068
 20
9787.853713
 30
0.0
 11
11255.223068
 21
6667.853713
 31
0.0
  0
LINE
  8
HASEN
 10
8135.223068
 20
9787.853713
 30
0.0
 11
11255.223068
 21
9787.853713
 31
0.0
  0
LINE
  8
HASEN
 10
8135.223068
 20
6667.853713
 30
0.0
 11
8135.223068
 21
9787.853713
 31
0.0
  0
LINE
  8
ITTEN
 10
10805.223068
 20
8227.853713
 30
0.0
 11
8585.223068
 21
8227.853713
 31
0.0
  0
LINE
  8
ITTEN
 10
9695.223068
 20
9337.853713
 30
0.0
 11
9695.223068
 21
7117.853713
 31
0.0
  0
CIRCLE
  8
JISSEN
 10
9695.223068
 20
8227.853713
 30
0.0
 40
1060.0
  0
LINE
  8
JISSEN
 10
3516.298154
 20
4420.529706
 30
0.0
 11
5636.298154
 21
4420.529706
 31
0.0
  0
LINE
  8
JISSEN
 10
5636.298154
 20
4620.529706
 30
0.0
 11
5636.298154
 21
4420.529706
 31
0.0
  0
LINE
  8
JISSEN
 10
3516.298154
 20
4620.529706
 30
0.0
 11
3516.298154
 21
4420.529706
 31
0.0
  0
LINE
  8
ITTEN
 10
3656.298154
 20
6170.529706
 30
0.0
 11
3856.298154
 21
6170.529706
 31
0.0
  0
LINE
  8
JISSEN
 10
3676.298154
 20
6160.529706
 30
0.0
 11
3796.298154
 21
6160.529706
 31
0.0
  0
LINE
  8
JISSEN
 10
3676.298154
 20
6180.529706
 30
0.0
 11
3796.298154
 21
6180.529706
 31
0.0
  0
ARC
  8
JISSEN
 10
3796.298154
 20
6170.529706
 30
0.0
 40
10.0
 50
270.0
 51
90.0
  0
LINE
  8
ITTEN
 10
3654.048367
 20
6470.19094
 30
0.0
 11
3854.048367
 21
6470.19094
 31
0.0
  0
LINE
  8
JISSEN
 10
3674.048367
 20
6460.19094
 30
0.0
 11
3794.048367
 21
6460.19094
 31
0.0
  0
LINE
  8
JISSEN
 10
3674.048367
 20
6480.19094
 30
0.0
 11
3794.048367
 21
6480.19094
 31
0.0
  0
ARC
  8
JISSEN
 10
3794.048367
 20
6470.19094
 30
0.0
 40
10.0
 50
270.0
 51
90.0
  0
LINE
  8
ITTEN
 10
3656.298154
 20
6770.529706
 30
0.0
 11
3856.298154
 21
6770.529706
 31
0.0
  0
LINE
  8
JISSEN
 10
3676.298154
 20
6760.529706
 30
0.0
 11
3796.298154
 21
6760.529706
 31
0.0
  0
LINE
  8
JISSEN
 10
3676.298154
 20
6780.529706
 30
0.0
 11
3796.298154
 21
6780.529706
 31
0.0
  0
ARC
  8
JISSEN
 10
3796.298154
 20
6770.529706
 30
0.0
 40
10.0
 50
270.0
 51
90.0
  0
LINE
  8
ITTEN
 10
3656.298154
 20
7070.529706
 30
0.0
 11
3856.298154
 21
7070.529706
 31
0.0
  0
LINE
  8
JISSEN
 10
3676.298154
 20
7060.529706
 30
0.0
 11
3796.298154
 21
7060.529706
 31
0.0
  0
LINE
  8
JISSEN
 10
3676.298154
 20
7080.529706
 30
0.0
 11
3796.298154
 21
7080.529706
 31
0.0
  0
ARC
  8
JISSEN
 10
3796.298154
 20
7070.529706
 30
0.0
 40
10.0
 50
270.0
 51
90.0
  0
LINE
  8
ITTEN
 10
3656.298154
 20
7370.529706
 30
0.0
 11
3856.298154
 21
7370.529706
 31
0.0
  0
LINE
  8
JISSEN
 10
3676.298154
 20
7360.529706
 30
0.0
 11
3796.298154
 21
7360.529706
 31
0.0
  0
LINE
  8
JISSEN
 10
3676.298154
 20
7380.529706
 30
0.0
 11
3796.298154
 21
7380.529706
 31
0.0
  0
ARC
  8
JISSEN
 10
3796.298154
 20
7370.529706
 30
0.0
 40
10.0
 50
270.0
 51
90.0
  0
LINE
  8
ITTEN
 10
3656.298154
 20
7670.529706
 30
0.0
 11
3856.298154
 21
7670.529706
 31
0.0
  0
LINE
  8
JISSEN
 10
3676.298154
 20
7660.529706
 30
0.0
 11
3796.298154
 21
7660.529706
 31
0.0
  0
LINE
  8
JISSEN
 10
3676.298154
 20
7680.529706
 30
0.0
 11
3796.298154
 21
7680.529706
 31
0.0
  0
ARC
  8
JISSEN
 10
3796.298154
 20
7670.529706
 30
0.0
 40
10.0
 50
270.0
 51
90.0
  0
LINE
  8
ITTEN
 10
3656.907465
 20
7972.415807
 30
0.0
 11
3856.907465
 21
7972.415807
 31
0.0
  0
LINE
  8
JISSEN
 10
3676.907465
 20
7962.415807
 30
0.0
 11
3796.907465
 21
7962.415807
 31
0.0
  0
LINE
  8
JISSEN
 10
3676.907465
 20
7982.415807
 30
0.0
 11
3796.907465
 21
7982.415807
 31
0.0
  0
ARC
  8
JISSEN
 10
3796.907465
 20
7972.415807
 30
0.0
 40
10.0
 50
270.0
 51
90.0
  0
LINE
  8
ITTEN
 10
3656.298154
 20
8270.529706
 30
0.0
 11
3856.298154
 21
8270.529706
 31
0.0
  0
LINE
  8
JISSEN
 10
3676.298154
 20
8260.529706
 30
0.0
 11
3796.298154
 21
8260.529706
 31
0.0
  0
LINE
  8
JISSEN
 10
3676.298154
 20
8280.529706
 30
0.0
 11
3796.298154
 21
8280.529706
 31
0.0
  0
ARC
  8
JISSEN
 10
3796.298154
 20
8270.529706
 30
0.0
 40
10.0
 50
270.0
 51
90.0
  0
ARC
  8
JISSEN
 10
3796.298154
 20
8570.529706
 30
0.0
 40
10.0
 50
270.0
 51
90.0
  0
LINE
  8
JISSEN
 10
3676.298154
 20
8580.529706
 30
0.0
 11
3796.298154
 21
8580.529706
 31
0.0
  0
LINE
  8
JISSEN
 10
3676.298154
 20
8560.529706
 30
0.0
 11
3796.298154
 21
8560.529706
 31
0.0
  0
LINE
  8
ITTEN
 10
3656.298154
 20
8570.529706
 30
0.0
 11
3856.298154
 21
8570.529706
 31
0.0
  0
ARC
  8
JISSEN
 10
3797.592271
 20
10300.529706
 30
0.0
 40
10.0
 50
270.0
 51
90.0
  0
LINE
  8
JISSEN
 10
3707.592271
 20
10310.529706
 30
0.0
 11
3797.592271
 21
10310.529706
 31
0.0
  0
LINE
  8
JISSEN
 10
3707.592271
 20
10290.529706
 30
0.0
 11
3797.592271
 21
10290.529706
 31
0.0
  0
LINE
  8
ITTEN
 10
3657.592271
 20
10300.529706
 30
0.0
 11
3857.592271
 21
10300.529706
 31
0.0
  0
ARC
  8
JISSEN
 10
3778.651095
 20
10070.529706
 30
0.0
 40
10.0
 50
270.0
 51
90.0
  0
LINE
  8
JISSEN
 10
3688.651095
 20
10080.529706
 30
0.0
 11
3778.651095
 21
10080.529706
 31
0.0
  0
LINE
  8
JISSEN
 10
3688.651095
 20
10060.529706
 30
0.0
 11
3778.651095
 21
10060.529706
 31
0.0
  0
LINE
  8
ITTEN
 10
3638.651095
 20
10070.529706
 30
0.0
 11
3838.651095
 21
10070.529706
 31
0.0
  0
ARC
  8
JISSEN
 10
3773.034105
 20
9767.337067
 30
0.0
 40
10.0
 50
270.0
 51
90.0
  0
LINE
  8
JISSEN
 10
3683.034105
 20
9777.337067
 30
0.0
 11
3773.034105
 21
9777.337067
 31
0.0
  0
LINE
  8
JISSEN
 10
3683.034105
 20
9757.337067
 30
0.0
 11
3773.034105
 21
9757.337067
 31
0.0
  0
LINE
  8
ITTEN
 10
3633.034105
 20
9767.337067
 30
0.0
 11
3833.034105
 21
9767.337067
 31
0.0
  0
ARC
  8
JISSEN
 10
3766.298154
 20
9470.529706
 30
0.0
 40
10.0
 50
270.0
 51
90.0
  0
LINE
  8
JISSEN
 10
3676.298154
 20
9480.529706
 30
0.0
 11
3766.298154
 21
9480.529706
 31
0.0
  0
LINE
  8
JISSEN
 10
3676.298154
 20
9460.529706
 30
0.0
 11
3766.298154
 21
9460.529706
 31
0.0
  0
LINE
  8
ITTEN
 10
3626.298154
 20
9470.529706
 30
0.0
 11
3826.298154
 21
9470.529706
 31
0.0
  0
ARC
  8
JISSEN
 10
3766.298154
 20
9170.529706
 30
0.0
 40
10.0
 50
270.0
 51
90.0
  0
LINE
  8
JISSEN
 10
3676.298154
 20
9180.529706
 30
0.0
 11
3766.298154
 21
9180.529706
 31
0.0
  0
LINE
  8
JISSEN
 10
3676.298154
 20
9160.529706
 30
0.0
 11
3766.298154
 21
9160.529706
 31
0.0
  0
LINE
  8
ITTEN
 10
3626.298154
 20
9170.529706
 30
0.0
 11
3826.298154
 21
9170.529706
 31
0.0
  0
LINE
  8
ITTEN
 10
3626.298154
 20
8870.529706
 30
0.0
 11
3826.298154
 21
8870.529706
 31
0.0
  0
LINE
  8
JISSEN
 10
3676.298154
 20
8860.529706
 30
0.0
 11
3766.298154
 21
8860.529706
 31
0.0
  0
LINE
  8
JISSEN
 10
3676.298154
 20
8880.529706
 30
0.0
 11
3766.298154
 21
8880.529706
 31
0.0
  0
ARC
  8
JISSEN
 10
3766.298154
 20
8870.529706
 30
0.0
 40
10.0
 50
270.0
 51
90.0
  0
LINE
  8
ITTEN
 10
4011.298154
 20
10660.529706
 30
0.0
 11
4011.298154
 21
9870.529706
 31
0.0
  0
LINE
  8
JISSEN
 10
4311.298154
 20
10500.529706
 30
0.0
 11
4311.298154
 21
10465.529706
 31
0.0
  0
LINE
  8
JISSEN
 10
4421.298154
 20
10500.529706
 30
0.0
 11
4311.298154
 21
10500.529706
 31
0.0
  0
LINE
  8
JISSEN
 10
4311.298154
 20
10500.529706
 30
0.0
 11
4311.298154
 21
10565.289373
 31
0.0
  0
LINE
  8
JISSEN
 10
4311.298154
 20
10565.289373
 30
0.0
 11
4346.298154
 21
10565.289373
 31
0.0
  0
LINE
  8
JISSEN
 10
4368.651883
 20
10610.529706
 30
0.0
 11
4346.298154
 21
10565.289373
 31
0.0
  0
LINE
  8
JISSEN
 10
4421.298154
 20
10510.529706
 30
0.0
 11
4321.298154
 21
10510.529706
 31
0.0
  0
LINE
  8
JISSEN
 10
4321.298154
 20
10510.529706
 30
0.0
 11
4321.298154
 21
10555.289373
 31
0.0
  0
LINE
  8
JISSEN
 10
4321.298154
 20
10555.289373
 30
0.0
 11
4352.511174
 21
10555.289373
 31
0.0
  0
LINE
  8
JISSEN
 10
4379.806009
 20
10610.529706
 30
0.0
 11
4352.511174
 21
10555.289373
 31
0.0
  0
LINE
  8
JISSEN
 10
4421.298154
 20
10510.529706
 30
0.0
 11
4421.298154
 21
10480.529706
 31
0.0
  0
LINE
  8
JISSEN
 10
4346.298154
 20
10500.529706
 30
0.0
 11
4346.298154
 21
10480.529706
 31
0.0
  0
LINE
  8
JISSEN
 10
4379.806009
 20
10610.529706
 30
0.0
 11
4368.651883
 21
10610.529706
 31
0.0
  0
LINE
  8
JISSEN
 10
4379.806009
 20
10610.529706
 30
0.0
 11
4421.298154
 21
10510.529706
 31
0.0
  0
LINE
  8
JISSEN
 10
4368.651883
 20
10610.529706
 30
0.0
 11
4011.298154
 21
10610.529706
 31
0.0
  0
LINE
  8
JISSEN
 10
4311.298154
 20
10565.289373
 30
0.0
 11
4011.298154
 21
10565.289373
 31
0.0
  0
LINE
  8
JISSEN
 10
3711.298154
 20
10565.289373
 30
0.0
 11
4011.298154
 21
10565.289373
 31
0.0
  0
LINE
  8
JISSEN
 10
3653.944425
 20
10610.529706
 30
0.0
 11
4011.298154
 21
10610.529706
 31
0.0
  0
LINE
  8
JISSEN
 10
3642.790298
 20
10610.529706
 30
0.0
 11
3601.298154
 21
10510.529706
 31
0.0
  0
LINE
  8
JISSEN
 10
3642.790298
 20
10610.529706
 30
0.0
 11
3653.944425
 21
10610.529706
 31
0.0
  0
LINE
  8
JISSEN
 10
3711.298154
 20
10500.529706
 30
0.0
 11
3711.298154
 21
10465.529706
 31
0.0
  0
LINE
  8
JISSEN
 10
3676.298154
 20
10500.529706
 30
0.0
 11
3676.298154
 21
10480.529706
 31
0.0
  0
LINE
  8
JISSEN
 10
3601.298154
 20
10510.529706
 30
0.0
 11
3601.298154
 21
10480.529706
 31
0.0
  0
LINE
  8
JISSEN
 10
3642.790298
 20
10610.529706
 30
0.0
 11
3670.085134
 21
10555.289373
 31
0.0
  0
LINE
  8
JISSEN
 10
3701.298154
 20
10555.289373
 30
0.0
 11
3670.085134
 21
10555.289373
 31
0.0
  0
LINE
  8
JISSEN
 10
3701.298154
 20
10510.529706
 30
0.0
 11
3701.298154
 21
10555.289373
 31
0.0
  0
LINE
  8
JISSEN
 10
3601.298154
 20
10510.529706
 30
0.0
 11
3701.298154
 21
10510.529706
 31
0.0
  0
LINE
  8
JISSEN
 10
3653.944425
 20
10610.529706
 30
0.0
 11
3676.298154
 21
10565.289373
 31
0.0
  0
LINE
  8
JISSEN
 10
3711.298154
 20
10565.289373
 30
0.0
 11
3676.298154
 21
10565.289373
 31
0.0
  0
LINE
  8
JISSEN
 10
3711.298154
 20
10500.529706
 30
0.0
 11
3711.298154
 21
10565.289373
 31
0.0
  0
LINE
  8
JISSEN
 10
3601.298154
 20
10500.529706
 30
0.0
 11
3711.298154
 21
10500.529706
 31
0.0
  0
LINE
  8
JISSEN
 10
4311.298154
 20
10465.529706
 30
0.0
 11
4311.298154
 21
10370.529706
 31
0.0
  0
LINE
  8
JISSEN
 10
4421.298154
 20
10380.529706
 30
0.0
 11
4421.298154
 21
10480.529706
 31
0.0
  0
LINE
  8
JISSEN
 10
3711.298154
 20
10465.529706
 30
0.0
 11
3711.298154
 21
10370.529706
 31
0.0
  0
LINE
  8
JISSEN
 10
3601.298154
 20
10480.529706
 30
0.0
 11
3601.298154
 21
10380.529706
 31
0.0
  0
LINE
  8
JISSEN
 10
3601.298154
 20
10480.529706
 30
0.0
 11
3679.298154
 21
10480.529706
 31
0.0
  0
LINE
  8
JISSEN
 10
3679.298154
 20
10480.529706
 30
0.0
 11
3685.298154
 21
10465.529706
 31
0.0
  0
LINE
  8
JISSEN
 10
3685.298154
 20
10465.529706
 30
0.0
 11
3711.298154
 21
10465.529706
 31
0.0
  0
LINE
  8
JISSEN
 10
3711.298154
 20
10465.529706
 30
0.0
 11
4011.298154
 21
10465.529706
 31
0.0
  0
LINE
  8
JISSEN
 10
4311.298154
 20
10465.529706
 30
0.0
 11
4011.298154
 21
10465.529706
 31
0.0
  0
LINE
  8
JISSEN
 10
4337.298154
 20
10465.529706
 30
0.0
 11
4311.298154
 21
10465.529706
 31
0.0
  0
LINE
  8
JISSEN
 10
4343.298154
 20
10480.529706
 30
0.0
 11
4337.298154
 21
10465.529706
 31
0.0
  0
LINE
  8
JISSEN
 10
4421.298154
 20
10480.529706
 30
0.0
 11
4343.298154
 21
10480.529706
 31
0.0
  0
LINE
  8
JISSEN
 10
4311.298154
 20
10345.529706
 30
0.0
 11
4576.298154
 21
9920.529706
 31
0.0
  0
LINE
  8
JISSEN
 10
4651.298154
 20
9995.529706
 30
0.0
 11
4421.298154
 21
10380.529706
 31
0.0
  0
LINE
  8
JISSEN
 10
4651.298154
 20
9935.529706
 30
0.0
 11
4651.298154
 21
9995.529706
 31
0.0
  0
LINE
  8
JISSEN
 10
4421.298154
 20
10380.529706
 30
0.0
 11
4340.298154
 21
10380.529706
 31
0.0
  0
LINE
  8
JISSEN
 10
4340.298154
 20
10380.529706
 30
0.0
 11
4336.298154
 21
10370.529706
 31
0.0
  0
LINE
  8
JISSEN
 10
4336.298154
 20
10370.529706
 30
0.0
 11
4311.298154
 21
10370.529706
 31
0.0
  0
LINE
  8
JISSEN
 10
4343.298154
 20
10380.529706
 30
0.0
 11
4337.298154
 21
10365.529706
 31
0.0
  0
LINE
  8
JISSEN
 10
4337.298154
 20
10365.529706
 30
0.0
 11
4311.298154
 21
10365.529706
 31
0.0
  0
LINE
  8
JISSEN
 10
4311.298154
 20
10365.529706
 30
0.0
 11
4311.298154
 21
10345.529706
 31
0.0
  0
LINE
  8
JISSEN
 10
4311.298154
 20
10365.529706
 30
0.0
 11
4011.298154
 21
10365.529706
 31
0.0
  0
LINE
  8
JISSEN
 10
4311.298154
 20
10370.529706
 30
0.0
 11
4011.298154
 21
10370.529706
 31
0.0
  0
LINE
  8
JISSEN
 10
3711.298154
 20
10370.529706
 30
0.0
 11
4011.298154
 21
10370.529706
 31
0.0
  0
LINE
  8
JISSEN
 10
3711.298154
 20
10365.529706
 30
0.0
 11
4011.298154
 21
10365.529706
 31
0.0
  0
LINE
  8
JISSEN
 10
3711.298154
 20
10345.529706
 30
0.0
 11
3676.298154
 21
9920.529706
 31
0.0
  0
LINE
  8
JISSEN
 10
3601.298154
 20
10380.529706
 30
0.0
 11
3601.298154
 21
9935.529706
 31
0.0
  0
LINE
  8
JISSEN
 10
3711.298154
 20
10365.529706
 30
0.0
 11
3711.298154
 21
10345.529706
 31
0.0
  0
LINE
  8
JISSEN
 10
3685.298154
 20
10365.529706
 30
0.0
 11
3711.298154
 21
10365.529706
 31
0.0
  0
LINE
  8
JISSEN
 10
3679.298154
 20
10380.529706
 30
0.0
 11
3685.298154
 21
10365.529706
 31
0.0
  0
LINE
  8
JISSEN
 10
3686.298154
 20
10370.529706
 30
0.0
 11
3711.298154
 21
10370.529706
 31
0.0
  0
LINE
  8
JISSEN
 10
3682.298154
 20
10380.529706
 30
0.0
 11
3686.298154
 21
10370.529706
 31
0.0
  0
LINE
  8
JISSEN
 10
3601.298154
 20
10380.529706
 30
0.0
 11
3682.298154
 21
10380.529706
 31
0.0
  0
LINE
  8
ITTEN
 10
4126.298154
 20
9970.529706
 30
0.0
 11
4126.298154
 21
8370.529706
 31
0.0
  0
LINE
  8
JISSEN
 10
4604.298154
 20
9912.529706
 30
0.0
 11
4126.298154
 21
9912.529706
 31
0.0
  0
LINE
  8
JISSEN
 10
4611.298154
 20
9935.529706
 30
0.0
 11
4604.298154
 21
9912.529706
 31
0.0
  0
LINE
  8
JISSEN
 10
4601.298154
 20
9920.529706
 30
0.0
 11
4126.298154
 21
9920.529706
 31
0.0
  0
LINE
  8
JISSEN
 10
4610.298154
 20
9935.529706
 30
0.0
 11
4601.298154
 21
9920.529706
 31
0.0
  0
LINE
  8
JISSEN
 10
4651.298154
 20
9935.529706
 30
0.0
 11
4610.298154
 21
9935.529706
 31
0.0
  0
LINE
  8
JISSEN
 10
4576.298154
 20
9912.529706
 30
0.0
 11
4576.298154
 21
8720.529706
 31
0.0
  0
LINE
  8
JISSEN
 10
4651.298154
 20
9935.529706
 30
0.0
 11
4651.298154
 21
8735.529706
 31
0.0
  0
LINE
  8
JISSEN
 10
3676.298154
 20
9912.529706
 30
0.0
 11
3676.298154
 21
8720.529706
 31
0.0
  0
LINE
  8
JISSEN
 10
3601.298154
 20
9935.529706
 30
0.0
 11
3601.298154
 21
8735.529706
 31
0.0
  0
LINE
  8
JISSEN
 10
3601.298154
 20
9935.529706
 30
0.0
 11
3642.298154
 21
9935.529706
 31
0.0
  0
LINE
  8
JISSEN
 10
3642.298154
 20
9935.529706
 30
0.0
 11
3651.298154
 21
9920.529706
 31
0.0
  0
LINE
  8
JISSEN
 10
3651.298154
 20
9920.529706
 30
0.0
 11
4126.298154
 21
9920.529706
 31
0.0
  0
LINE
  8
JISSEN
 10
3641.298154
 20
9935.529706
 30
0.0
 11
3648.298154
 21
9912.529706
 31
0.0
  0
LINE
  8
JISSEN
 10
3648.298154
 20
9912.529706
 30
0.0
 11
4126.298154
 21
9912.529706
 31
0.0
  0
LINE
  8
JISSEN
 10
5636.298154
 20
8735.529706
 30
0.0
 11
5636.298154
 21
8440.529706
 31
0.0
  0
LINE
  8
JISSEN
 10
4576.298154
 20
8712.529706
 30
0.0
 11
4126.298154
 21
8712.529706
 31
0.0
  0
LINE
  8
JISSEN
 10
4576.298154
 20
8720.529706
 30
0.0
 11
4126.298154
 21
8720.529706
 31
0.0
  0
LINE
  8
JISSEN
 10
4576.298154
 20
8712.529706
 30
0.0
 11
4576.298154
 21
8420.529706
 31
0.0
  0
LINE
  8
JISSEN
 10
4604.298154
 20
8712.529706
 30
0.0
 11
4576.298154
 21
8712.529706
 31
0.0
  0
LINE
  8
JISSEN
 10
4601.298154
 20
8720.529706
 30
0.0
 11
4576.298154
 21
8720.529706
 31
0.0
  0
LINE
  8
JISSEN
 10
5636.298154
 20
8735.529706
 30
0.0
 11
4610.298154
 21
8735.529706
 31
0.0
  0
LINE
  8
JISSEN
 10
4610.298154
 20
8735.529706
 30
0.0
 11
4601.298154
 21
8720.529706
 31
0.0
  0
LINE
  8
JISSEN
 10
4611.298154
 20
8735.529706
 30
0.0
 11
4604.298154
 21
8712.529706
 31
0.0
  0
LINE
  8
JISSEN
 10
3676.298154
 20
8720.529706
 30
0.0
 11
4126.298154
 21
8720.529706
 31
0.0
  0
LINE
  8
JISSEN
 10
3676.298154
 20
8712.529706
 30
0.0
 11
4126.298154
 21
8712.529706
 31
0.0
  0
LINE
  8
JISSEN
 10
3676.298154
 20
8712.529706
 30
0.0
 11
3676.298154
 21
8420.529706
 31
0.0
  0
LINE
  8
JISSEN
 10
3516.298154
 20
8735.529706
 30
0.0
 11
3516.298154
 21
8440.529706
 31
0.0
  0
LINE
  8
JISSEN
 10
3648.298154
 20
8712.529706
 30
0.0
 11
3676.298154
 21
8712.529706
 31
0.0
  0
LINE
  8
JISSEN
 10
3641.298154
 20
8735.529706
 30
0.0
 11
3648.298154
 21
8712.529706
 31
0.0
  0
LINE
  8
JISSEN
 10
3651.298154
 20
8720.529706
 30
0.0
 11
3676.298154
 21
8720.529706
 31
0.0
  0
LINE
  8
JISSEN
 10
3642.298154
 20
8735.529706
 30
0.0
 11
3651.298154
 21
8720.529706
 31
0.0
  0
LINE
  8
JISSEN
 10
3516.298154
 20
8735.529706
 30
0.0
 11
3642.298154
 21
8735.529706
 31
0.0
  0
LINE
  8
JISSEN
 10
5476.298154
 20
8408.529706
 30
0.0
 11
5476.298154
 21
6920.529706
 31
0.0
  0
LINE
  8
JISSEN
 10
3676.298154
 20
6920.529706
 30
0.0
 11
3676.298154
 21
8408.529706
 31
0.0
  0
LINE
  8
JISSEN
 10
5636.298154
 20
8440.529706
 30
0.0
 11
5636.298154
 21
6940.529706
 31
0.0
  0
LINE
  8
JISSEN
 10
3516.298154
 20
8440.529706
 30
0.0
 11
3516.298154
 21
6940.529706
 31
0.0
  0
LINE
  8
JISSEN
 10
3516.298154
 20
8440.529706
 30
0.0
 11
3616.298154
 21
8440.529706
 31
0.0
  0
LINE
  8
JISSEN
 10
3616.298154
 20
8440.529706
 30
0.0
 11
3628.298154
 21
8420.529706
 31
0.0
  0
LINE
  8
JISSEN
 10
3628.298154
 20
8420.529706
 30
0.0
 11
4576.298154
 21
8420.529706
 31
0.0
  0
LINE
  8
JISSEN
 10
3614.298154
 20
8440.529706
 30
0.0
 11
3623.298154
 21
8408.529706
 31
0.0
  0
LINE
  8
JISSEN
 10
3623.298154
 20
8408.529706
 30
0.0
 11
3676.298154
 21
8408.529706
 31
0.0
  0
LINE
  8
JISSEN
 10
3676.298154
 20
8408.529706
 30
0.0
 11
4576.298154
 21
8408.529706
 31
0.0
  0
LINE
  8
JISSEN
 10
5529.298154
 20
8408.529706
 30
0.0
 11
5476.298154
 21
8408.529706
 31
0.0
  0
LINE
  8
JISSEN
 10
5538.298154
 20
8440.529706
 30
0.0
 11
5529.298154
 21
8408.529706
 31
0.0
  0
LINE
  8
JISSEN
 10
5524.298154
 20
8420.529706
 30
0.0
 11
4576.298154
 21
8420.529706
 31
0.0
  0
LINE
  8
JISSEN
 10
5536.298154
 20
8440.529706
 30
0.0
 11
5524.298154
 21
8420.529706
 31
0.0
  0
LINE
  8
JISSEN
 10
5636.298154
 20
8440.529706
 30
0.0
 11
5536.298154
 21
8440.529706
 31
0.0
  0
LINE
  8
JISSEN
 10
5476.298154
 20
8408.529706
 30
0.0
 11
4576.298154
 21
8408.529706
 31
0.0
  0
LINE
  8
JISSEN
 10
5476.298154
 20
6908.529706
 30
0.0
 11
4576.298154
 21
6908.529706
 31
0.0
  0
LINE
  8
JISSEN
 10
5636.298154
 20
6940.529706
 30
0.0
 11
5536.298154
 21
6940.529706
 31
0.0
  0
LINE
  8
JISSEN
 10
5536.298154
 20
6940.529706
 30
0.0
 11
5524.298154
 21
6920.529706
 31
0.0
  0
LINE
  8
JISSEN
 10
5524.298154
 20
6920.529706
 30
0.0
 11
4576.298154
 21
6920.529706
 31
0.0
  0
LINE
  8
JISSEN
 10
5538.298154
 20
6940.529706
 30
0.0
 11
5529.298154
 21
6908.529706
 31
0.0
  0
LINE
  8
JISSEN
 10
5529.298154
 20
6908.529706
 30
0.0
 11
5476.298154
 21
6908.529706
 31
0.0
  0
LINE
  8
JISSEN
 10
5476.298154
 20
4820.529706
 30
0.0
 11
5476.298154
 21
6908.529706
 31
0.0
  0
LINE
  8
JISSEN
 10
5636.298154
 20
6940.529706
 30
0.0
 11
5636.298154
 21
4840.529706
 31
0.0
  0
LINE
  8
JISSEN
 10
5538.298154
 20
4840.529706
 30
0.0
 11
5529.298154
 21
4820.529706
 31
0.0
  0
LINE
  8
JISSEN
 10
5636.298154
 20
4840.529706
 30
0.0
 11
5538.298154
 21
4840.529706
 31
0.0
  0
LINE
  8
JISSEN
 10
5636.298154
 20
4620.529706
 30
0.0
 11
5636.298154
 21
4840.529706
 31
0.0
  0
LINE
  8
JISSEN
 10
4976.298154
 20
4820.529706
 30
0.0
 11
4976.298154
 21
4620.529706
 31
0.0
  0
LINE
  8
JISSEN
 10
5529.298154
 20
4820.529706
 30
0.0
 11
4976.298154
 21
4820.529706
 31
0.0
  0
LINE
  8
JISSEN
 10
3676.298154
 20
6908.529706
 30
0.0
 11
4576.298154
 21
6908.529706
 31
0.0
  0
LINE
  8
JISSEN
 10
3676.298154
 20
4820.529706
 30
0.0
 11
3676.298154
 21
6908.529706
 31
0.0
  0
LINE
  8
JISSEN
 10
3516.298154
 20
6940.529706
 30
0.0
 11
3516.298154
 21
4840.529706
 31
0.0
  0
LINE
  8
JISSEN
 10
3623.298154
 20
6908.529706
 30
0.0
 11
3676.298154
 21
6908.529706
 31
0.0
  0
LINE
  8
JISSEN
 10
3614.298154
 20
6940.529706
 30
0.0
 11
3623.298154
 21
6908.529706
 31
0.0
  0
LINE
  8
JISSEN
 10
3628.298154
 20
6920.529706
 30
0.0
 11
4576.298154
 21
6920.529706
 31
0.0
  0
LINE
  8
JISSEN
 10
3616.298154
 20
6940.529706
 30
0.0
 11
3628.298154
 21
6920.529706
 31
0.0
  0
LINE
  8
JISSEN
 10
3516.298154
 20
6940.529706
 30
0.0
 11
3616.298154
 21
6940.529706
 31
0.0
  0
LINE
  8
JISSEN
 10
4176.298154
 20
4820.529706
 30
0.0
 11
4176.298154
 21
4620.529706
 31
0.0
  0
LINE
  8
JISSEN
 10
3623.298154
 20
4820.529706
 30
0.0
 11
4176.298154
 21
4820.529706
 31
0.0
  0
LINE
  8
JISSEN
 10
3614.298154
 20
4840.529706
 30
0.0
 11
3623.298154
 21
4820.529706
 31
0.0
  0
LINE
  8
JISSEN
 10
3516.298154
 20
4840.529706
 30
0.0
 11
3614.298154
 21
4840.529706
 31
0.0
  0
LINE
  8
JISSEN
 10
3516.298154
 20
4620.529706
 30
0.0
 11
3516.298154
 21
4840.529706
 31
0.0
  0
LINE
  8
JISSEN
 10
3516.298154
 20
4620.529706
 30
0.0
 11
5636.298154
 21
4620.529706
 31
0.0
  0
LINE
  8
ITTEN
 10
5476.298154
 20
5865.529706
 30
0.0
 11
3676.298154
 21
5865.529706
 31
0.0
  0
LINE
  8
ITTEN
 10
4576.298154
 20
8420.529706
 30
0.0
 11
4576.298154
 21
4620.529706
 31
0.0
  0
CIRCLE
  8
JISSEN
 10
4576.298154
 20
5865.529706
 30
0.0
 40
675.0
  0
LINE
  8
SUNPOU
 10
3601.298154
 20
10550.529706
 30
0.0
 11
3601.298154
 21
10960.159942
 31
0.0
  0
LINE
  8
SUNPOU
 10
4421.298154
 20
10550.529706
 30
0.0
 11
4421.298154
 21
10960.159942
 31
0.0
  0
LINE
  8
SUNPOU
 10
3601.298154
 20
10920.159942
 30
0.0
 11
4421.298154
 21
10920.159942
 31
0.0
  0
INSERT
  8
SUNPOU
  2
ARROWANG
 10
3601.298154
 20
10920.159942
 30
0.0
 41
60.0
 42
60.0
 50
180.0
 43
60.0
  0
INSERT
  8
SUNPOU
  2
ARROWANG
 10
4421.298154
 20
10920.159942
 30
0.0
 41
60.0
 42
60.0
 43
60.0
  0
TEXT
  8
SUNPOU
 10
3839.869602
 20
10980.159942
 30
0.0
 40
120.0
  1
820
  7
K
 72
     1
 11
4011.298173
 21
10980.159942
 31
0.0
  0
LINE
  8
SUNPOU
 10
3711.298154
 20
10305.529706
 30
0.0
 11
3711.298154
 21
10102.18277
 31
0.0
  0
LINE
  8
SUNPOU
 10
4311.298154
 20
10305.529706
 30
0.0
 11
4311.298154
 21
10102.18277
 31
0.0
  0
LINE
  8
SUNPOU
 10
3711.298154
 20
10142.18277
 30
0.0
 11
4311.298154
 21
10142.18277
 31
0.0
  0
INSERT
  8
SUNPOU
  2
ARROWANG
 10
3711.298154
 20
10142.18277
 30
0.0
 41
60.0
 42
60.0
 50
180.0
 43
60.0
  0
INSERT
  8
SUNPOU
  2
ARROWANG
 10
4311.298154
 20
10142.18277
 30
0.0
 41
60.0
 42
60.0
 43
60.0
  0
TEXT
  8
SUNPOU
 10
3837.012459
 20
10202.18277
 30
0.0
 40
120.0
  1
600
  7
K
 72
     1
 11
4011.298173
 21
10202.18277
 31
0.0
  0
LINE
  8
SUNPOU
 10
3601.298154
 20
9327.638426
 30
0.0
 11
3601.298154
 21
9327.638426
 31
0.0
  0
LINE
  8
SUNPOU
 10
3676.298154
 20
9327.638426
 30
0.0
 11
3676.298154
 21
9327.638426
 31
0.0
  0
LINE
  8
SUNPOU
 10
3601.298154
 20
9287.638426
 30
0.0
 11
3676.298154
 21
9287.638426
 31
0.0
  0
INSERT
  8
SUNPOU
  2
ARROWANG
 10
3676.298154
 20
9287.638426
 30
0.0
 41
60.0
 42
60.0
 50
180.0
 43
60.0
  0
INSERT
  8
SUNPOU
  2
ARROWANG
 10
3601.298154
 20
9287.638426
 30
0.0
 41
60.0
 42
60.0
 43
60.0
  0
LINE
  8
SUNPOU
 10
3601.298154
 20
9287.638426
 30
0.0
 11
3337.298154
 21
9287.638426
 31
0.0
  0
LINE
  8
SUNPOU
 10
3676.298154
 20
9287.638426
 30
0.0
 11
3796.298154
 21
9287.638426
 31
0.0
  0
TEXT
  8
SUNPOU
 10
3355.012439
 20
9347.638426
 30
0.0
 40
120.0
  1
75
  7
K
 72
     1
 11
3469.298154
 21
9347.638426
 31
0.0
  0
LINE
  8
SUNPOU
 10
3676.298154
 20
9287.638426
 30
0.0
 11
4576.298154
 21
9287.638426
 31
0.0
  0
LINE
  8
SUNPOU
 10
4576.298154
 20
9327.638426
 30
0.0
 11
4576.298154
 21
9327.638426
 31
0.0
  0
INSERT
  8
SUNPOU
  2
ARROWANG
 10
3676.298154
 20
9287.638426
 30
0.0
 41
60.0
 42
60.0
 50
180.0
 43
60.0
  0
INSERT
  8
SUNPOU
  2
ARROWANG
 10
4576.298154
 20
9287.638426
 30
0.0
 41
60.0
 42
60.0
 43
60.0
  0
TEXT
  8
SUNPOU
 10
3954.869582
 20
9347.638426
 30
0.0
 40
120.0
  1
900
  7
K
 72
     1
 11
4126.298154
 21
9347.638426
 31
0.0
  0
LINE
  8
SUNPOU
 10
4576.298154
 20
9287.638426
 30
0.0
 11
4651.298154
 21
9287.638426
 31
0.0
  0
LINE
  8
SUNPOU
 10
4651.298154
 20
9327.638426
 30
0.0
 11
4651.298154
 21
9327.638426
 31
0.0
  0
INSERT
  8
SUNPOU
  2
ARROWANG
 10
4651.298154
 20
9287.638426
 30
0.0
 41
60.0
 42
60.0
 50
180.0
 43
60.0
  0
INSERT
  8
SUNPOU
  2
ARROWANG
 10
4576.298154
 20
9287.638426
 30
0.0
 41
60.0
 42
60.0
 43
60.0
  0
LINE
  8
SUNPOU
 10
4651.298154
 20
9287.638426
 30
0.0
 11
4915.298154
 21
9287.638426
 31
0.0
  0
TEXT
  8
SUNPOU
 10
4811.298154
 20
9347.638426
 30
0.0
 40
120.0
  1
75
  7
K
  0
LINE
  8
SUNPOU
 10
4576.298154
 20
9287.638426
 30
0.0
 11
4456.298154
 21
9287.638426
 31
0.0
  0
LINE
  8
SUNPOU
 10
3516.298154
 20
7819.538566
 30
0.0
 11
3516.298154
 21
7819.538566
 31
0.0
  0
LINE
  8
SUNPOU
 10
3676.298154
 20
7819.538566
 30
0.0
 11
3676.298154
 21
7819.538566
 31
0.0
  0
LINE
  8
SUNPOU
 10
3516.298154
 20
7779.538566
 30
0.0
 11
3676.298154
 21
7779.538566
 31
0.0
  0
INSERT
  8
SUNPOU
  2
ARROWANG
 10
3676.298154
 20
7779.538566
 30
0.0
 41
60.0
 42
60.0
 50
180.0
 43
60.0
  0
INSERT
  8
SUNPOU
  2
ARROWANG
 10
3516.298154
 20
7779.538566
 30
0.0
 41
60.0
 42
60.0
 43
60.0
  0
LINE
  8
SUNPOU
 10
3516.298154
 20
7779.538566
 30
0.0
 11
3120.298154
 21
7779.538566
 31
0.0
  0
LINE
  8
SUNPOU
 10
3676.298154
 20
7779.538566
 30
0.0
 11
3796.298154
 21
7779.538566
 31
0.0
  0
TEXT
  8
SUNPOU
 10
3138.298154
 20
7839.538566
 30
0.0
 40
120.0
  1
160
  7
K
 72
     1
 11
3318.298154
 21
7839.538566
 31
0.0
  0
LINE
  8
SUNPOU
 10
3676.298154
 20
7779.538566
 30
0.0
 11
5476.298154
 21
7779.538566
 31
0.0
  0
LINE
  8
SUNPOU
 10
5476.298154
 20
7819.538566
 30
0.0
 11
5476.298154
 21
7819.538566
 31
0.0
  0
INSERT
  8
SUNPOU
  2
ARROWANG
 10
3676.298154
 20
7779.538566
 30
0.0
 41
60.0
 42
60.0
 50
180.0
 43
60.0
  0
INSERT
  8
SUNPOU
  2
ARROWANG
 10
5476.298154
 20
7779.538566
 30
0.0
 41
60.0
 42
60.0
 43
60.0
  0
TEXT
  8
SUNPOU
 10
4339.155297
 20
7839.538566
 30
0.0
 40
120.0
  1
1800
  7
K
 72
     1
 11
4576.298154
 21
7839.538566
 31
0.0
  0
LINE
  8
SUNPOU
 10
5476.298154
 20
7779.538566
 30
0.0
 11
5636.298154
 21
7779.538566
 31
0.0
  0
LINE
  8
SUNPOU
 10
5636.298154
 20
7819.538566
 30
0.0
 11
5636.298154
 21
7819.538566
 31
0.0
  0
INSERT
  8
SUNPOU
  2
ARROWANG
 10
5636.298154
 20
7779.538566
 30
0.0
 41
60.0
 42
60.0
 50
180.0
 43
60.0
  0
INSERT
  8
SUNPOU
  2
ARROWANG
 10
5476.298154
 20
7779.538566
 30
0.0
 41
60.0
 42
60.0
 43
60.0
  0
LINE
  8
SUNPOU
 10
5636.298154
 20
7779.538566
 30
0.0
 11
6032.298154
 21
7779.538566
 31
0.0
  0
TEXT
  8
SUNPOU
 10
5796.298154
 20
7839.538566
 30
0.0
 40
120.0
  1
160
  7
K
  0
LINE
  8
SUNPOU
 10
5476.298154
 20
7779.538566
 30
0.0
 11
5356.298154
 21
7779.538566
 31
0.0
  0
LINE
  8
SUNPOU
 10
3516.298154
 20
4380.529706
 30
0.0
 11
3516.298154
 21
4017.1434
 31
0.0
  0
LINE
  8
SUNPOU
 10
5636.298154
 20
4380.529706
 30
0.0
 11
5636.298154
 21
4017.1434
 31
0.0
  0
LINE
  8
SUNPOU
 10
3516.298154
 20
4057.1434
 30
0.0
 11
5636.298154
 21
4057.1434
 31
0.0
  0
INSERT
  8
SUNPOU
  2
ARROWANG
 10
3516.298154
 20
4057.1434
 30
0.0
 41
60.0
 42
60.0
 50
180.0
 43
60.0
  0
INSERT
  8
SUNPOU
  2
ARROWANG
 10
5636.298154
 20
4057.1434
 30
0.0
 41
60.0
 42
60.0
 43
60.0
  0
TEXT
  8
SUNPOU
 10
4347.726745
 20
4117.1434
 30
0.0
 40
120.0
  1
2120
  7
K
 72
     1
 11
4576.298173
 21
4117.1434
 31
0.0
  0
LINE
  8
SUNPOU
 10
5128.870478
 20
5477.858677
 30
0.0
 11
4023.72583
 21
6253.200735
 31
0.0
  0
INSERT
  8
SUNPOU
  2
ARROWANG
 10
5128.870478
 20
5477.858677
 30
0.0
 41
60.0
 42
60.0
 50
324.947453
 43
60.0
  0
INSERT
  8
SUNPOU
  2
ARROWANG
 10
4023.72583
 20
6253.200735
 30
0.0
 41
60.0
 42
60.0
 50
144.947453
 43
60.0
  0
TEXT
  8
SUNPOU
 10
4559.30133
 20
5950.747828
 30
0.0
 40
120.0
  1
D
 50
324.947453
  7
K
 72
     1
 11
4610.757801
 21
5914.647246
 31
0.0
  0
LINE
  8
SUNPOU
 10
8907.486703
 20
7792.570564
 30
0.0
 11
10623.001453
 21
8740.520533
 31
0.0
  0
INSERT
  8
SUNPOU
  2
ARROWANG
 10
8907.486703
 20
7792.570564
 30
0.0
 41
60.0
 42
60.0
 50
208.923927
 43
60.0
  0
INSERT
  8
SUNPOU
  2
ARROWANG
 10
10482.959432
 20
8663.136862
 30
0.0
 41
60.0
 42
60.0
 50
28.923927
 43
60.0
  0
TEXT
  8
SUNPOU
 10
9426.132156
 20
8147.711749
 30
0.0
 40
120.0
  1
%%C1800
 50
28.923927
  7
K
 72
     1
 11
9666.204191
 21
8280.36947
 31
0.0
  0
LINE
  8
SUNPOU
 10
10502.30535
 20
8628.126357
 30
0.0
 11
10502.30535
 21
8628.126357
 31
0.0
  0
LINE
  8
SUNPOU
 10
10642.347371
 20
8705.510028
 30
0.0
 11
10642.347371
 21
8705.510028
 31
0.0
  0
LINE
  8
SUNPOU
 10
10482.959432
 20
8663.136862
 30
0.0
 11
10623.001453
 21
8740.520533
 31
0.0
  0
INSERT
  8
SUNPOU
  2
ARROWANG
 10
10482.959432
 20
8663.136862
 30
0.0
 41
60.0
 42
60.0
 50
28.923927
 43
60.0
  0
INSERT
  8
SUNPOU
  2
ARROWANG
 10
10623.001453
 20
8740.520533
 30
0.0
 41
60.0
 42
60.0
 50
208.923927
 43
60.0
  0
LINE
  8
SUNPOU
 10
10623.001453
 20
8740.520533
 30
0.0
 11
10969.605453
 21
8932.045118
 31
0.0
  0
TEXT
  8
SUNPOU
 10
10609.737303
 20
8801.741953
 30
0.0
 40
120.0
  1
160
 50
28.923927
  7
K
 72
     1
 11
10767.284576
 21
8888.798583
 31
0.0
  0
LINE
  8
SUNPOU
 10
13755.223068
 20
4401.260598
 30
0.0
 11
13755.223068
 21
3917.554449
 31
0.0
  0
LINE
  8
SUNPOU
 10
15875.223068
 20
4401.260598
 30
0.0
 11
15875.223068
 21
3917.554449
 31
0.0
  0
LINE
  8
SUNPOU
 10
13755.223068
 20
3957.554449
 30
0.0
 11
15875.223068
 21
3957.554449
 31
0.0
  0
INSERT
  8
SUNPOU
  2
ARROWANG
 10
13755.223068
 20
3957.554449
 30
0.0
 41
60.0
 42
60.0
 50
180.0
 43
60.0
  0
INSERT
  8
SUNPOU
  2
ARROWANG
 10
15875.223068
 20
3957.554449
 30
0.0
 41
60.0
 42
60.0
 43
60.0
  0
TEXT
  8
SUNPOU
 10
14586.651659
 20
4017.554449
 30
0.0
 40
120.0
  1
2120
  7
K
 72
     1
 11
14815.223087
 21
4017.554449
 31
0.0
  0
LINE
  8
SUNPOU
 10
16560.156838
 20
5211.260598
 30
0.0
 11
17587.640619
 21
5211.260598
 31
0.0
  0
LINE
  8
SUNPOU
 10
15223.730923
 20
10631.260598
 30
0.0
 11
17587.640619
 21
10631.260598
 31
0.0
  0
LINE
  8
SUNPOU
 10
17547.640619
 20
5211.260598
 30
0.0
 11
17547.640619
 21
10631.260598
 31
0.0
  0
INSERT
  8
SUNPOU
  2
ARROWANG
 10
17547.640619
 20
5211.260598
 30
0.0
 41
60.0
 42
60.0
 50
270.0
 43
60.0
  0
INSERT
  8
SUNPOU
  2
ARROWANG
 10
17547.640619
 20
10631.260598
 30
0.0
 41
60.0
 42
60.0
 50
90.0
 43
60.0
  0
LINE
  8
SUNPOU
 10
3636.298154
 20
4820.529706
 30
0.0
 11
2875.570388
 21
4820.529706
 31
0.0
  0
LINE
  8
SUNPOU
 10
2875.570388
 20
5190.529706
 30
0.0
 11
2875.570388
 21
5190.529706
 31
0.0
  0
LINE
  8
SUNPOU
 10
2915.570388
 20
4820.529706
 30
0.0
 11
2915.570388
 21
5190.529706
 31
0.0
  0
INSERT
  8
SUNPOU
  2
ARROWANG
 10
2915.570388
 20
4820.529706
 30
0.0
 41
60.0
 42
60.0
 50
270.0
 43
60.0
  0
INSERT
  8
SUNPOU
  2
ARROWANG
 10
2915.570388
 20
5190.529706
 30
0.0
 41
60.0
 42
60.0
 50
90.0
 43
60.0
  0
TEXT
  8
SUNPOU
 10
2855.570388
 20
4834.101134
 30
0.0
 40
120.0
  1
382
 50
90.0
  7
K
 72
     1
 11
2855.570388
 21
5005.529706
 31
0.0
  0
LINE
  8
SUNPOU
 10
2915.570388
 20
4820.529706
 30
0.0
 11
2915.570388
 21
4620.529706
 31
0.0
  0
LINE
  8
SUNPOU
 10
3476.298154
 20
4620.529706
 30
0.0
 11
2875.570388
 21
4620.529706
 31
0.0
  0
INSERT
  8
SUNPOU
  2
ARROWANG
 10
2915.570388
 20
4620.529706
 30
0.0
 41
60.0
 42
60.0
 50
90.0
 43
60.0
  0
INSERT
  8
SUNPOU
  2
ARROWANG
 10
2915.570388
 20
4820.529706
 30
0.0
 41
60.0
 42
60.0
 50
270.0
 43
60.0
  0
LINE
  8
SUNPOU
 10
2915.570388
 20
4620.529706
 30
0.0
 11
2915.570388
 21
4224.529706
 31
0.0
  0
TEXT
  8
SUNPOU
 10
2855.570388
 20
4174.81542
 30
0.0
 40
120.0
  1
250
 50
90.0
  7
K
 72
     2
 11
2855.570388
 21
4500.529706
 31
0.0
  0
LINE
  8
SUNPOU
 10
2915.570388
 20
4620.529706
 30
0.0
 11
2915.570388
 21
4500.529706
 31
0.0
  0
LINE
  8
SUNPOU
 10
2915.570388
 20
4820.529706
 30
0.0
 11
2915.570388
 21
4940.529706
 31
0.0
  0
LINE
  8
SUNPOU
 10
15808.223068
 20
4841.260598
 30
0.0
 11
17587.640619
 21
4841.260598
 31
0.0
  0
LINE
  8
SUNPOU
 10
17507.640619
 20
5211.260598
 30
0.0
 11
17507.640619
 21
5211.260598
 31
0.0
  0
LINE
  8
SUNPOU
 10
17547.640619
 20
4841.260598
 30
0.0
 11
17547.640619
 21
5211.260598
 31
0.0
  0
INSERT
  8
SUNPOU
  2
ARROWANG
 10
17547.640619
 20
4841.260598
 30
0.0
 41
60.0
 42
60.0
 50
270.0
 43
60.0
  0
INSERT
  8
SUNPOU
  2
ARROWANG
 10
17547.640619
 20
5211.260598
 30
0.0
 41
60.0
 42
60.0
 50
90.0
 43
60.0
  0
TEXT
  8
SUNPOU
 10
17487.640619
 20
4854.832027
 30
0.0
 40
120.0
  1
382
 50
90.0
  7
K
 72
     1
 11
17487.640619
 21
5026.260598
 31
0.0
  0
LINE
  8
SUNPOU
 10
17547.640619
 20
4841.260598
 30
0.0
 11
17547.640619
 21
4641.260598
 31
0.0
  0
LINE
  8
SUNPOU
 10
15915.223068
 20
4641.260598
 30
0.0
 11
17587.640619
 21
4641.260598
 31
0.0
  0
INSERT
  8
SUNPOU
  2
ARROWANG
 10
17547.640619
 20
4641.260598
 30
0.0
 41
60.0
 42
60.0
 50
90.0
 43
60.0
  0
INSERT
  8
SUNPOU
  2
ARROWANG
 10
17547.640619
 20
4841.260598
 30
0.0
 41
60.0
 42
60.0
 50
270.0
 43
60.0
  0
LINE
  8
SUNPOU
 10
17547.640619
 20
4641.260598
 30
0.0
 11
17547.640619
 21
4245.260598
 31
0.0
  0
TEXT
  8
SUNPOU
 10
17487.640619
 20
4195.546312
 30
0.0
 40
120.0
  1
250
 50
90.0
  7
K
 72
     2
 11
17487.640619
 21
4521.260598
 31
0.0
  0
LINE
  8
SUNPOU
 10
17547.640619
 20
4641.260598
 30
0.0
 11
17547.640619
 21
4521.260598
 31
0.0
  0
LINE
  8
SUNPOU
 10
17547.640619
 20
4841.260598
 30
0.0
 11
17547.640619
 21
4961.260598
 31
0.0
  0
TEXT
  8
JISSEN
 10
4993.075222
 20
12751.565419
 30
0.0
 40
500.0
  1
４号マンホール（内径１８００ｍｍ）
  7
K
  0
LINE
  8
ITTEN
 10
14605.223068
 20
8591.260598
 30
0.0
 11
15025.223068
 21
8591.260598
 31
0.0
  0
LINE
  8
JISSEN
 10
14815.223068
 20
8601.260598
 30
0.0
 11
15005.223068
 21
8601.260598
 31
0.0
  0
ARC
  8
JISSEN
 10
15005.223068
 20
8591.260598
 30
0.0
 40
10.0
 50
270.0
 51
90.0
  0
LINE
  8
JISSEN
 10
14815.223068
 20
8581.260598
 30
0.0
 11
15005.223068
 21
8581.260598
 31
0.0
  0
LINE
  8
JISSEN
 10
14815.223068
 20
8601.260598
 30
0.0
 11
14625.223068
 21
8601.260598
 31
0.0
  0
LINE
  8
JISSEN
 10
14815.223068
 20
8581.260598
 30
0.0
 11
14625.223068
 21
8581.260598
 31
0.0
  0
ARC
  8
JISSEN
 10
14625.223068
 20
8591.260598
 30
0.0
 40
10.0
 50
90.0
 51
270.0
  0
TEXT
  8
TEXT
 10
8866.716672
 20
11604.311653
 30
0.0
 40
240.0
  1
構造標準図
  7
K
  0
POLYLINE
  8
WAKU
 66
     1
 10
0.0
 20
0.0
 30
0.0
 70
     1
  0
VERTEX
  8
WAKU
 10
0.0
 20
0.0
 30
0.0
  0
VERTEX
  8
WAKU
 10
19750.0
 20
0.0
 30
0.0
  0
VERTEX
  8
WAKU
 10
19750.0
 20
13650.0
 30
0.0
  0
VERTEX
  8
WAKU
 10
0.0
 20
13650.0
 30
0.0
  0
SEQEND
  8
WAKU
  0
TEXT
  8
TEXT
 10
18701.364013
 20
1594.520455
 30
0.0
 40
240.0
  1
1/50
  7
K
  0
POLYLINE
  8
HATCH
 66
     1
 10
0.0
 20
0.0
 30
0.0
  0
VERTEX
  8
HATCH
 10
15861.634299
 20
4639.264154
 30
0.0
  0
VERTEX
  8
HATCH
 10
15871.44326
 20
4617.825655
 30
0.0
  0
VERTEX
  8
HATCH
 10
15853.226618
 20
4599.817316
 30
0.0
  0
VERTEX
  8
HATCH
 10
15822.398455
 20
4620.398275
 30
0.0
  0
VERTEX
  8
HATCH
 10
15833.608696
 20
4637.549074
 30
0.0
  0
VERTEX
  8
HATCH
 10
15858.831739
 20
4639.264154
 30
0.0
  0
SEQEND
  8
HATCH
  0
POLYLINE
  8
HATCH
 66
     1
 10
0.0
 20
0.0
 30
0.0
  0
VERTEX
  8
HATCH
 10
15865.838139
 20
4483.191879
 30
0.0
  0
VERTEX
  8
HATCH
 10
15870.04198
 20
4458.32322
 30
0.0
  0
VERTEX
  8
HATCH
 10
15844.818937
 20
4448.89028
 30
0.0
  0
VERTEX
  8
HATCH
 10
15839.213816
 20
4465.18354
 30
0.0
  0
VERTEX
  8
HATCH
 10
15858.831739
 20
4479.761719
 30
0.0
  0
VERTEX
  8
HATCH
 10
15867.23942
 20
4483.191879
 30
0.0
  0
SEQEND
  8
HATCH
  0
POLYLINE
  8
HATCH
 66
     1
 10
0.0
 20
0.0
 30
0.0
  0
VERTEX
  8
HATCH
 10
15777.55749
 20
4634.118915
 30
0.0
  0
VERTEX
  8
HATCH
 10
15833.608696
 20
4611.822875
 30
0.0
  0
VERTEX
  8
HATCH
 10
15867.23942
 20
4568.088337
 30
0.0
  0
VERTEX
  8
HATCH
 10
15865.838139
 20
4507.202998
 30
0.0
  0
VERTEX
  8
HATCH
 10
15823.799735
 20
4460.89584
 30
0.0
  0
VERTEX
  8
HATCH
 10
15784.56389
 20
4447.1752
 30
0.0
  0
VERTEX
  8
HATCH
 10
15755.137007
 20
4491.767279
 30
0.0
  0
VERTEX
  8
HATCH
 10
15732.716525
 20
4581.808976
 30
0.0
  0
VERTEX
  8
HATCH
 10
15776.15621
 20
4634.118915
 30
0.0
  0
SEQEND
  8
HATCH
  0
POLYLINE
  8
HATCH
 66
     1
 10
0.0
 20
0.0
 30
0.0
  0
VERTEX
  8
HATCH
 10
15273.096634
 20
4635.833994
 30
0.0
  0
VERTEX
  8
HATCH
 10
15285.708156
 20
4622.113355
 30
0.0
  0
VERTEX
  8
HATCH
 10
15270.294074
 20
4596.387156
 30
0.0
  0
VERTEX
  8
HATCH
 10
15246.472311
 20
4610.107795
 30
0.0
  0
VERTEX
  8
HATCH
 10
15254.879992
 20
4630.688755
 30
0.0
  0
VERTEX
  8
HATCH
 10
15267.491514
 20
4638.406614
 30
0.0
  0
SEQEND
  8
HATCH
  0
POLYLINE
  8
HATCH
 66
     1
 10
0.0
 20
0.0
 30
0.0
  0
VERTEX
  8
HATCH
 10
15317.937599
 20
4638.406614
 30
0.0
  0
VERTEX
  8
HATCH
 10
15382.396486
 20
4598.959776
 30
0.0
  0
VERTEX
  8
HATCH
 10
15389.402887
 20
4548.364917
 30
0.0
  0
VERTEX
  8
HATCH
 10
15373.988805
 20
4480.619259
 30
0.0
  0
VERTEX
  8
HATCH
 10
15309.529918
 20
4446.31766
 30
0.0
  0
VERTEX
  8
HATCH
 10
15282.905595
 20
4501.200219
 30
0.0
  0
VERTEX
  8
HATCH
 10
15280.103035
 20
4591.241916
 30
0.0
  0
VERTEX
  8
HATCH
 10
15296.918397
 20
4628.116135
 30
0.0
  0
VERTEX
  8
HATCH
 10
15316.536319
 20
4638.406614
 30
0.0
  0
SEQEND
  8
HATCH
  0
POLYLINE
  8
HATCH
 66
     1
 10
0.0
 20
0.0
 30
0.0
  0
VERTEX
  8
HATCH
 10
15278.701755
 20
4491.767279
 30
0.0
  0
VERTEX
  8
HATCH
 10
15295.517117
 20
4469.47124
 30
0.0
  0
VERTEX
  8
HATCH
 10
15285.708156
 20
4446.31766
 30
0.0
  0
VERTEX
  8
HATCH
 10
15257.682553
 20
4457.46568
 30
0.0
  0
VERTEX
  8
HATCH
 10
15261.886393
 20
4478.046639
 30
0.0
  0
VERTEX
  8
HATCH
 10
15277.300475
 20
4492.624819
 30
0.0
  0
SEQEND
  8
HATCH
  0
POLYLINE
  8
HATCH
 66
     1
 10
0.0
 20
0.0
 30
0.0
  0
VERTEX
  8
HATCH
 10
15671.060198
 20
4641.836774
 30
0.0
  0
VERTEX
  8
HATCH
 10
15720.105003
 20
4608.392715
 30
0.0
  0
VERTEX
  8
HATCH
 10
15738.321645
 20
4549.222457
 30
0.0
  0
VERTEX
  8
HATCH
 10
15725.710124
 20
4478.046639
 30
0.0
  0
VERTEX
  8
HATCH
 10
15673.862758
 20
4445.46012
 30
0.0
  0
VERTEX
  8
HATCH
 10
15626.219233
 20
4458.32322
 30
0.0
  0
VERTEX
  8
HATCH
 10
15612.206432
 20
4535.501818
 30
0.0
  0
VERTEX
  8
HATCH
 10
15629.021793
 20
4618.683195
 30
0.0
  0
VERTEX
  8
HATCH
 10
15669.658918
 20
4641.836774
 30
0.0
  0
SEQEND
  8
HATCH
  0
POLYLINE
  8
HATCH
 66
     1
 10
0.0
 20
0.0
 30
0.0
  0
VERTEX
  8
HATCH
 10
15557.556506
 20
4638.406614
 30
0.0
  0
VERTEX
  8
HATCH
 10
15605.200031
 20
4604.962555
 30
0.0
  0
VERTEX
  8
HATCH
 10
15609.403871
 20
4558.655397
 30
0.0
  0
VERTEX
  8
HATCH
 10
15605.200031
 20
4488.337119
 30
0.0
  0
VERTEX
  8
HATCH
 10
15574.371867
 20
4460.89584
 30
0.0
  0
VERTEX
  8
HATCH
 10
15523.925782
 20
4445.46012
 30
0.0
  0
VERTEX
  8
HATCH
 10
15502.90658
 20
4501.200219
 30
0.0
  0
VERTEX
  8
HATCH
 10
15500.104019
 20
4596.387156
 30
0.0
  0
VERTEX
  8
HATCH
 10
15544.944984
 20
4637.549074
 30
0.0
  0
VERTEX
  8
HATCH
 10
15557.556506
 20
4637.549074
 30
0.0
  0
SEQEND
  8
HATCH
  0
POLYLINE
  8
HATCH
 66
     1
 10
0.0
 20
0.0
 30
0.0
  0
VERTEX
  8
HATCH
 10
15451.059214
 20
4640.979234
 30
0.0
  0
VERTEX
  8
HATCH
 10
15500.104019
 20
4568.088337
 30
0.0
  0
VERTEX
  8
HATCH
 10
15494.498899
 20
4483.191879
 30
0.0
  0
VERTEX
  8
HATCH
 10
15452.460494
 20
4453.17798
 30
0.0
  0
VERTEX
  8
HATCH
 10
15420.23105
 20
4445.46012
 30
0.0
  0
VERTEX
  8
HATCH
 10
15383.797766
 20
4493.482359
 30
0.0
  0
VERTEX
  8
HATCH
 10
15395.008008
 20
4592.099456
 30
0.0
  0
VERTEX
  8
HATCH
 10
15427.237451
 20
4629.831215
 30
0.0
  0
VERTEX
  8
HATCH
 10
15449.657934
 20
4640.979234
 30
0.0
  0
SEQEND
  8
HATCH
  0
POLYLINE
  8
HATCH
 66
     1
 10
0.0
 20
0.0
 30
0.0
  0
VERTEX
  8
HATCH
 10
15746.729326
 20
4640.979234
 30
0.0
  0
VERTEX
  8
HATCH
 10
15764.945968
 20
4629.831215
 30
0.0
  0
VERTEX
  8
HATCH
 10
15749.531887
 20
4610.107795
 30
0.0
  0
VERTEX
  8
HATCH
 10
15728.512684
 20
4604.105015
 30
0.0
  0
VERTEX
  8
HATCH
 10
15714.499883
 20
4631.546295
 30
0.0
  0
VERTEX
  8
HATCH
 10
15750.933167
 20
4639.264154
 30
0.0
  0
SEQEND
  8
HATCH
  0
POLYLINE
  8
HATCH
 66
     1
 10
0.0
 20
0.0
 30
0.0
  0
VERTEX
  8
HATCH
 10
15742.525486
 20
4493.482359
 30
0.0
  0
VERTEX
  8
HATCH
 10
15766.347248
 20
4468.6137
 30
0.0
  0
VERTEX
  8
HATCH
 10
15750.933167
 20
4448.89028
 30
0.0
  0
VERTEX
  8
HATCH
 10
15728.512684
 20
4449.74782
 30
0.0
  0
VERTEX
  8
HATCH
 10
15731.315245
 20
4470.32878
 30
0.0
  0
VERTEX
  8
HATCH
 10
15742.525486
 20
4490.909739
 30
0.0
  0
SEQEND
  8
HATCH
  0
POLYLINE
  8
HATCH
 66
     1
 10
0.0
 20
0.0
 30
0.0
  0
VERTEX
  8
HATCH
 10
15622.015393
 20
4638.406614
 30
0.0
  0
VERTEX
  8
HATCH
 10
15631.824354
 20
4620.398275
 30
0.0
  0
VERTEX
  8
HATCH
 10
15612.206432
 20
4604.105015
 30
0.0
  0
VERTEX
  8
HATCH
 10
15596.79235
 20
4617.825655
 30
0.0
  0
VERTEX
  8
HATCH
 10
15610.805151
 20
4635.833994
 30
0.0
  0
VERTEX
  8
HATCH
 10
15617.811552
 20
4638.406614
 30
0.0
  0
SEQEND
  8
HATCH
  0
POLYLINE
  8
HATCH
 66
     1
 10
0.0
 20
0.0
 30
0.0
  0
VERTEX
  8
HATCH
 10
15616.410272
 20
4478.046639
 30
0.0
  0
VERTEX
  8
HATCH
 10
15624.817953
 20
4460.0383
 30
0.0
  0
VERTEX
  8
HATCH
 10
15609.403871
 20
4447.1752
 30
0.0
  0
VERTEX
  8
HATCH
 10
15592.588509
 20
4460.0383
 30
0.0
  0
VERTEX
  8
HATCH
 10
15593.98979
 20
4470.32878
 30
0.0
  0
VERTEX
  8
HATCH
 10
15616.410272
 20
4481.476799
 30
0.0
  0
VERTEX
  8
HATCH
 10
15617.811552
 20
4478.046639
 30
0.0
  0
SEQEND
  8
HATCH
  0
POLYLINE
  8
HATCH
 66
     1
 10
0.0
 20
0.0
 30
0.0
  0
VERTEX
  8
HATCH
 10
15504.30786
 20
4639.264154
 30
0.0
  0
VERTEX
  8
HATCH
 10
15509.91298
 20
4611.822875
 30
0.0
  0
VERTEX
  8
HATCH
 10
15488.893778
 20
4596.387156
 30
0.0
  0
VERTEX
  8
HATCH
 10
15474.880976
 20
4610.107795
 30
0.0
  0
VERTEX
  8
HATCH
 10
15487.492498
 20
4634.118915
 30
0.0
  0
VERTEX
  8
HATCH
 10
15502.90658
 20
4638.406614
 30
0.0
  0
SEQEND
  8
HATCH
  0
POLYLINE
  8
HATCH
 66
     1
 10
0.0
 20
0.0
 30
0.0
  0
VERTEX
  8
HATCH
 10
15388.001607
 20
4640.979234
 30
0.0
  0
VERTEX
  8
HATCH
 10
15414.62593
 20
4631.546295
 30
0.0
  0
VERTEX
  8
HATCH
 10
15393.606728
 20
4604.962555
 30
0.0
  0
VERTEX
  8
HATCH
 10
15368.383685
 20
4606.677635
 30
0.0
  0
VERTEX
  8
HATCH
 10
15368.383685
 20
4631.546295
 30
0.0
  0
VERTEX
  8
HATCH
 10
15389.402887
 20
4642.694314
 30
0.0
  0
SEQEND
  8
HATCH
  0
POLYLINE
  8
HATCH
 66
     1
 10
0.0
 20
0.0
 30
0.0
  0
VERTEX
  8
HATCH
 10
15386.600327
 20
4476.331559
 30
0.0
  0
VERTEX
  8
HATCH
 10
15395.008008
 20
4458.32322
 30
0.0
  0
VERTEX
  8
HATCH
 10
15382.396486
 20
4448.89028
 30
0.0
  0
VERTEX
  8
HATCH
 10
15361.377284
 20
4454.89306
 30
0.0
  0
VERTEX
  8
HATCH
 10
15362.778564
 20
4469.47124
 30
0.0
  0
VERTEX
  8
HATCH
 10
15385.199047
 20
4484.049419
 30
0.0
  0
VERTEX
  8
HATCH
 10
15388.001607
 20
4477.189099
 30
0.0
  0
SEQEND
  8
HATCH
  0
POLYLINE
  8
HATCH
 66
     1
 10
0.0
 20
0.0
 30
0.0
  0
VERTEX
  8
HATCH
 10
15502.90658
 20
4480.619259
 30
0.0
  0
VERTEX
  8
HATCH
 10
15514.116821
 20
4457.46568
 30
0.0
  0
VERTEX
  8
HATCH
 10
15497.301459
 20
4447.1752
 30
0.0
  0
VERTEX
  8
HATCH
 10
15472.078416
 20
4457.46568
 30
0.0
  0
VERTEX
  8
HATCH
 10
15484.689938
 20
4468.6137
 30
0.0
  0
VERTEX
  8
HATCH
 10
15502.90658
 20
4480.619259
 30
0.0
  0
SEQEND
  8
HATCH
  0
POLYLINE
  8
HATCH
 66
     1
 10
0.0
 20
0.0
 30
0.0
  0
VERTEX
  8
HATCH
 10
14351.474455
 20
4491.767279
 30
0.0
  0
VERTEX
  8
HATCH
 10
14334.659094
 20
4469.47124
 30
0.0
  0
VERTEX
  8
HATCH
 10
14344.468055
 20
4446.31766
 30
0.0
  0
VERTEX
  8
HATCH
 10
14372.493658
 20
4457.46568
 30
0.0
  0
VERTEX
  8
HATCH
 10
14368.289817
 20
4478.046639
 30
0.0
  0
VERTEX
  8
HATCH
 10
14352.875736
 20
4492.624819
 30
0.0
  0
SEQEND
  8
HATCH
  0
POLYLINE
  8
HATCH
 66
     1
 10
0.0
 20
0.0
 30
0.0
  0
VERTEX
  8
HATCH
 10
14357.079576
 20
4635.833994
 30
0.0
  0
VERTEX
  8
HATCH
 10
14344.468055
 20
4622.113355
 30
0.0
  0
VERTEX
  8
HATCH
 10
14359.882136
 20
4596.387156
 30
0.0
  0
VERTEX
  8
HATCH
 10
14383.703899
 20
4610.107795
 30
0.0
  0
VERTEX
  8
HATCH
 10
14375.296218
 20
4630.688755
 30
0.0
  0
VERTEX
  8
HATCH
 10
14362.684697
 20
4638.406614
 30
0.0
  0
SEQEND
  8
HATCH
  0
POLYLINE
  8
HATCH
 66
     1
 10
0.0
 20
0.0
 30
0.0
  0
VERTEX
  8
HATCH
 10
14127.269631
 20
4480.619259
 30
0.0
  0
VERTEX
  8
HATCH
 10
14116.05939
 20
4457.46568
 30
0.0
  0
VERTEX
  8
HATCH
 10
14132.874751
 20
4447.1752
 30
0.0
  0
VERTEX
  8
HATCH
 10
14158.097794
 20
4457.46568
 30
0.0
  0
VERTEX
  8
HATCH
 10
14145.486273
 20
4468.6137
 30
0.0
  0
VERTEX
  8
HATCH
 10
14127.269631
 20
4480.619259
 30
0.0
  0
SEQEND
  8
HATCH
  0
POLYLINE
  8
HATCH
 66
     1
 10
0.0
 20
0.0
 30
0.0
  0
VERTEX
  8
HATCH
 10
14243.575884
 20
4476.331559
 30
0.0
  0
VERTEX
  8
HATCH
 10
14235.168203
 20
4458.32322
 30
0.0
  0
VERTEX
  8
HATCH
 10
14247.779724
 20
4448.89028
 30
0.0
  0
VERTEX
  8
HATCH
 10
14268.798926
 20
4454.89306
 30
0.0
  0
VERTEX
  8
HATCH
 10
14267.397646
 20
4469.47124
 30
0.0
  0
VERTEX
  8
HATCH
 10
14244.977164
 20
4484.049419
 30
0.0
  0
VERTEX
  8
HATCH
 10
14242.174603
 20
4477.189099
 30
0.0
  0
SEQEND
  8
HATCH
  0
POLYLINE
  8
HATCH
 66
     1
 10
0.0
 20
0.0
 30
0.0
  0
VERTEX
  8
HATCH
 10
14242.174603
 20
4640.979234
 30
0.0
  0
VERTEX
  8
HATCH
 10
14215.550281
 20
4631.546295
 30
0.0
  0
VERTEX
  8
HATCH
 10
14236.569483
 20
4604.962555
 30
0.0
  0
VERTEX
  8
HATCH
 10
14261.792526
 20
4606.677635
 30
0.0
  0
VERTEX
  8
HATCH
 10
14261.792526
 20
4631.546295
 30
0.0
  0
VERTEX
  8
HATCH
 10
14240.773323
 20
4642.694314
 30
0.0
  0
SEQEND
  8
HATCH
  0
POLYLINE
  8
HATCH
 66
     1
 10
0.0
 20
0.0
 30
0.0
  0
VERTEX
  8
HATCH
 10
14125.868351
 20
4639.264154
 30
0.0
  0
VERTEX
  8
HATCH
 10
14120.26323
 20
4611.822875
 30
0.0
  0
VERTEX
  8
HATCH
 10
14141.282432
 20
4596.387156
 30
0.0
  0
VERTEX
  8
HATCH
 10
14155.295234
 20
4610.107795
 30
0.0
  0
VERTEX
  8
HATCH
 10
14142.683713
 20
4634.118915
 30
0.0
  0
VERTEX
  8
HATCH
 10
14127.269631
 20
4638.406614
 30
0.0
  0
SEQEND
  8
HATCH
  0
POLYLINE
  8
HATCH
 66
     1
 10
0.0
 20
0.0
 30
0.0
  0
VERTEX
  8
HATCH
 10
14013.765938
 20
4478.046639
 30
0.0
  0
VERTEX
  8
HATCH
 10
14005.358257
 20
4460.0383
 30
0.0
  0
VERTEX
  8
HATCH
 10
14020.772339
 20
4447.1752
 30
0.0
  0
VERTEX
  8
HATCH
 10
14037.587701
 20
4460.0383
 30
0.0
  0
VERTEX
  8
HATCH
 10
14036.186421
 20
4470.32878
 30
0.0
  0
VERTEX
  8
HATCH
 10
14013.765938
 20
4481.476799
 30
0.0
  0
VERTEX
  8
HATCH
 10
14012.364658
 20
4478.046639
 30
0.0
  0
SEQEND
  8
HATCH
  0
POLYLINE
  8
HATCH
 66
     1
 10
0.0
 20
0.0
 30
0.0
  0
VERTEX
  8
HATCH
 10
14008.160818
 20
4638.406614
 30
0.0
  0
VERTEX
  8
HATCH
 10
13998.351857
 20
4620.398275
 30
0.0
  0
VERTEX
  8
HATCH
 10
14017.969779
 20
4604.105015
 30
0.0
  0
VERTEX
  8
HATCH
 10
14033.383861
 20
4617.825655
 30
0.0
  0
VERTEX
  8
HATCH
 10
14019.371059
 20
4635.833994
 30
0.0
  0
VERTEX
  8
HATCH
 10
14012.364658
 20
4638.406614
 30
0.0
  0
SEQEND
  8
HATCH
  0
POLYLINE
  8
HATCH
 66
     1
 10
0.0
 20
0.0
 30
0.0
  0
VERTEX
  8
HATCH
 10
13764.338071
 20
4483.191879
 30
0.0
  0
VERTEX
  8
HATCH
 10
13760.134231
 20
4458.32322
 30
0.0
  0
VERTEX
  8
HATCH
 10
13785.357273
 20
4448.89028
 30
0.0
  0
VERTEX
  8
HATCH
 10
13790.962394
 20
4465.18354
 30
0.0
  0
VERTEX
  8
HATCH
 10
13771.344472
 20
4479.761719
 30
0.0
  0
VERTEX
  8
HATCH
 10
13762.936791
 20
4483.191879
 30
0.0
  0
SEQEND
  8
HATCH
  0
POLYLINE
  8
HATCH
 66
     1
 10
0.0
 20
0.0
 30
0.0
  0
VERTEX
  8
HATCH
 10
13887.650725
 20
4493.482359
 30
0.0
  0
VERTEX
  8
HATCH
 10
13863.828962
 20
4468.6137
 30
0.0
  0
VERTEX
  8
HATCH
 10
13879.243044
 20
4448.89028
 30
0.0
  0
VERTEX
  8
HATCH
 10
13901.663526
 20
4449.74782
 30
0.0
  0
VERTEX
  8
HATCH
 10
13898.860966
 20
4470.32878
 30
0.0
  0
VERTEX
  8
HATCH
 10
13887.650725
 20
4490.909739
 30
0.0
  0
SEQEND
  8
HATCH
  0
POLYLINE
  8
HATCH
 66
     1
 10
0.0
 20
0.0
 30
0.0
  0
VERTEX
  8
HATCH
 10
13883.446884
 20
4640.979234
 30
0.0
  0
VERTEX
  8
HATCH
 10
13865.230242
 20
4629.831215
 30
0.0
  0
VERTEX
  8
HATCH
 10
13880.644324
 20
4610.107795
 30
0.0
  0
VERTEX
  8
HATCH
 10
13901.663526
 20
4604.105015
 30
0.0
  0
VERTEX
  8
HATCH
 10
13915.676328
 20
4631.546295
 30
0.0
  0
VERTEX
  8
HATCH
 10
13879.243044
 20
4639.264154
 30
0.0
  0
SEQEND
  8
HATCH
  0
POLYLINE
  8
HATCH
 66
     1
 10
0.0
 20
0.0
 30
0.0
  0
VERTEX
  8
HATCH
 10
13768.541911
 20
4639.264154
 30
0.0
  0
VERTEX
  8
HATCH
 10
13758.73295
 20
4617.825655
 30
0.0
  0
VERTEX
  8
HATCH
 10
13776.949592
 20
4599.817316
 30
0.0
  0
VERTEX
  8
HATCH
 10
13807.777756
 20
4620.398275
 30
0.0
  0
VERTEX
  8
HATCH
 10
13796.567515
 20
4637.549074
 30
0.0
  0
VERTEX
  8
HATCH
 10
13771.344472
 20
4639.264154
 30
0.0
  0
SEQEND
  8
HATCH
  0
POLYLINE
  8
HATCH
 66
     1
 10
0.0
 20
0.0
 30
0.0
  0
VERTEX
  8
HATCH
 10
14312.238611
 20
4638.406614
 30
0.0
  0
VERTEX
  8
HATCH
 10
14247.779724
 20
4598.959776
 30
0.0
  0
VERTEX
  8
HATCH
 10
14240.773323
 20
4548.364917
 30
0.0
  0
VERTEX
  8
HATCH
 10
14256.187405
 20
4480.619259
 30
0.0
  0
VERTEX
  8
HATCH
 10
14320.646292
 20
4446.31766
 30
0.0
  0
VERTEX
  8
HATCH
 10
14347.270615
 20
4501.200219
 30
0.0
  0
VERTEX
  8
HATCH
 10
14350.073175
 20
4591.241916
 30
0.0
  0
VERTEX
  8
HATCH
 10
14333.257813
 20
4628.116135
 30
0.0
  0
VERTEX
  8
HATCH
 10
14313.639891
 20
4638.406614
 30
0.0
  0
SEQEND
  8
HATCH
  0
POLYLINE
  8
HATCH
 66
     1
 10
0.0
 20
0.0
 30
0.0
  0
VERTEX
  8
HATCH
 10
14179.116997
 20
4640.979234
 30
0.0
  0
VERTEX
  8
HATCH
 10
14130.072191
 20
4568.088337
 30
0.0
  0
VERTEX
  8
HATCH
 10
14135.677312
 20
4483.191879
 30
0.0
  0
VERTEX
  8
HATCH
 10
14177.715716
 20
4453.17798
 30
0.0
  0
VERTEX
  8
HATCH
 10
14209.94516
 20
4445.46012
 30
0.0
  0
VERTEX
  8
HATCH
 10
14246.378444
 20
4493.482359
 30
0.0
  0
VERTEX
  8
HATCH
 10
14235.168203
 20
4592.099456
 30
0.0
  0
VERTEX
  8
HATCH
 10
14202.938759
 20
4629.831215
 30
0.0
  0
VERTEX
  8
HATCH
 10
14180.518277
 20
4640.979234
 30
0.0
  0
SEQEND
  8
HATCH
  0
POLYLINE
  8
HATCH
 66
     1
 10
0.0
 20
0.0
 30
0.0
  0
VERTEX
  8
HATCH
 10
14072.619705
 20
4638.406614
 30
0.0
  0
VERTEX
  8
HATCH
 10
14024.97618
 20
4604.962555
 30
0.0
  0
VERTEX
  8
HATCH
 10
14020.772339
 20
4558.655397
 30
0.0
  0
VERTEX
  8
HATCH
 10
14024.97618
 20
4488.337119
 30
0.0
  0
VERTEX
  8
HATCH
 10
14055.804343
 20
4460.89584
 30
0.0
  0
VERTEX
  8
HATCH
 10
14106.250429
 20
4445.46012
 30
0.0
  0
VERTEX
  8
HATCH
 10
14127.269631
 20
4501.200219
 30
0.0
  0
VERTEX
  8
HATCH
 10
14130.072191
 20
4596.387156
 30
0.0
  0
VERTEX
  8
HATCH
 10
14085.231226
 20
4637.549074
 30
0.0
  0
VERTEX
  8
HATCH
 10
14072.619705
 20
4637.549074
 30
0.0
  0
SEQEND
  8
HATCH
  0
POLYLINE
  8
HATCH
 66
     1
 10
0.0
 20
0.0
 30
0.0
  0
VERTEX
  8
HATCH
 10
13959.116012
 20
4641.836774
 30
0.0
  0
VERTEX
  8
HATCH
 10
13910.071207
 20
4608.392715
 30
0.0
  0
VERTEX
  8
HATCH
 10
13891.854565
 20
4549.222457
 30
0.0
  0
VERTEX
  8
HATCH
 10
13904.466086
 20
4478.046639
 30
0.0
  0
VERTEX
  8
HATCH
 10
13956.313452
 20
4445.46012
 30
0.0
  0
VERTEX
  8
HATCH
 10
14003.956977
 20
4458.32322
 30
0.0
  0
VERTEX
  8
HATCH
 10
14017.969779
 20
4535.501818
 30
0.0
  0
VERTEX
  8
HATCH
 10
14001.154417
 20
4618.683195
 30
0.0
  0
VERTEX
  8
HATCH
 10
13960.517293
 20
4641.836774
 30
0.0
  0
SEQEND
  8
HATCH
  0
POLYLINE
  8
HATCH
 66
     1
 10
0.0
 20
0.0
 30
0.0
  0
VERTEX
  8
HATCH
 10
13852.618721
 20
4634.118915
 30
0.0
  0
VERTEX
  8
HATCH
 10
13796.567515
 20
4611.822875
 30
0.0
  0
VERTEX
  8
HATCH
 10
13762.936791
 20
4568.088337
 30
0.0
  0
VERTEX
  8
HATCH
 10
13764.338071
 20
4507.202998
 30
0.0
  0
VERTEX
  8
HATCH
 10
13806.376476
 20
4460.89584
 30
0.0
  0
VERTEX
  8
HATCH
 10
13845.61232
 20
4447.1752
 30
0.0
  0
VERTEX
  8
HATCH
 10
13875.039203
 20
4491.767279
 30
0.0
  0
VERTEX
  8
HATCH
 10
13897.459686
 20
4581.808976
 30
0.0
  0
VERTEX
  8
HATCH
 10
13854.020001
 20
4634.118915
 30
0.0
  0
SEQEND
  8
HATCH
  0
POLYLINE
  8
HATCH
 66
     1
 10
0.0
 20
0.0
 30
0.0
  0
VERTEX
  8
HATCH
 10
3613.642526
 20
4614.539167
 30
0.0
  0
VERTEX
  8
HATCH
 10
3557.59132
 20
4592.243128
 30
0.0
  0
VERTEX
  8
HATCH
 10
3523.960596
 20
4548.508589
 30
0.0
  0
VERTEX
  8
HATCH
 10
3525.361877
 20
4487.623251
 30
0.0
  0
VERTEX
  8
HATCH
 10
3567.400281
 20
4441.316093
 30
0.0
  0
VERTEX
  8
HATCH
 10
3606.636125
 20
4427.595453
 30
0.0
  0
VERTEX
  8
HATCH
 10
3636.063009
 20
4472.187532
 30
0.0
  0
VERTEX
  8
HATCH
 10
3658.483491
 20
4562.229229
 30
0.0
  0
VERTEX
  8
HATCH
 10
3615.043806
 20
4614.539167
 30
0.0
  0
SEQEND
  8
HATCH
  0
POLYLINE
  8
HATCH
 66
     1
 10
0.0
 20
0.0
 30
0.0
  0
VERTEX
  8
HATCH
 10
3720.139818
 20
4622.257027
 30
0.0
  0
VERTEX
  8
HATCH
 10
3671.095013
 20
4588.812968
 30
0.0
  0
VERTEX
  8
HATCH
 10
3652.878371
 20
4529.64271
 30
0.0
  0
VERTEX
  8
HATCH
 10
3665.489892
 20
4458.466892
 30
0.0
  0
VERTEX
  8
HATCH
 10
3717.337258
 20
4425.880373
 30
0.0
  0
VERTEX
  8
HATCH
 10
3764.980783
 20
4438.743473
 30
0.0
  0
VERTEX
  8
HATCH
 10
3778.993584
 20
4515.92207
 30
0.0
  0
VERTEX
  8
HATCH
 10
3762.178223
 20
4599.103448
 30
0.0
  0
VERTEX
  8
HATCH
 10
3721.541098
 20
4622.257027
 30
0.0
  0
SEQEND
  8
HATCH
  0
POLYLINE
  8
HATCH
 66
     1
 10
0.0
 20
0.0
 30
0.0
  0
VERTEX
  8
HATCH
 10
3833.64351
 20
4618.826867
 30
0.0
  0
VERTEX
  8
HATCH
 10
3785.999985
 20
4585.382808
 30
0.0
  0
VERTEX
  8
HATCH
 10
3781.796145
 20
4539.07565
 30
0.0
  0
VERTEX
  8
HATCH
 10
3785.999985
 20
4468.757372
 30
0.0
  0
VERTEX
  8
HATCH
 10
3816.828149
 20
4441.316093
 30
0.0
  0
VERTEX
  8
HATCH
 10
3867.274234
 20
4425.880373
 30
0.0
  0
VERTEX
  8
HATCH
 10
3888.293436
 20
4481.620471
 30
0.0
  0
VERTEX
  8
HATCH
 10
3891.095997
 20
4576.807408
 30
0.0
  0
VERTEX
  8
HATCH
 10
3846.255032
 20
4617.969327
 30
0.0
  0
VERTEX
  8
HATCH
 10
3833.64351
 20
4617.969327
 30
0.0
  0
SEQEND
  8
HATCH
  0
POLYLINE
  8
HATCH
 66
     1
 10
0.0
 20
0.0
 30
0.0
  0
VERTEX
  8
HATCH
 10
3940.140802
 20
4621.399487
 30
0.0
  0
VERTEX
  8
HATCH
 10
3891.095997
 20
4548.508589
 30
0.0
  0
VERTEX
  8
HATCH
 10
3896.701117
 20
4463.612132
 30
0.0
  0
VERTEX
  8
HATCH
 10
3938.739522
 20
4433.598233
 30
0.0
  0
VERTEX
  8
HATCH
 10
3970.968965
 20
4425.880373
 30
0.0
  0
VERTEX
  8
HATCH
 10
4007.402249
 20
4473.902612
 30
0.0
  0
VERTEX
  8
HATCH
 10
3996.192008
 20
4572.519709
 30
0.0
  0
VERTEX
  8
HATCH
 10
3963.962565
 20
4610.251467
 30
0.0
  0
VERTEX
  8
HATCH
 10
3941.542082
 20
4621.399487
 30
0.0
  0
SEQEND
  8
HATCH
  0
POLYLINE
  8
HATCH
 66
     1
 10
0.0
 20
0.0
 30
0.0
  0
VERTEX
  8
HATCH
 10
4073.262417
 20
4618.826867
 30
0.0
  0
VERTEX
  8
HATCH
 10
4008.80353
 20
4579.380028
 30
0.0
  0
VERTEX
  8
HATCH
 10
4001.797129
 20
4528.78517
 30
0.0
  0
VERTEX
  8
HATCH
 10
4017.211211
 20
4461.039512
 30
0.0
  0
VERTEX
  8
HATCH
 10
4081.670098
 20
4426.737913
 30
0.0
  0
VERTEX
  8
HATCH
 10
4108.294421
 20
4481.620471
 30
0.0
  0
VERTEX
  8
HATCH
 10
4111.096981
 20
4571.662169
 30
0.0
  0
VERTEX
  8
HATCH
 10
4094.281619
 20
4608.536387
 30
0.0
  0
VERTEX
  8
HATCH
 10
4074.663697
 20
4618.826867
 30
0.0
  0
SEQEND
  8
HATCH
  0
POLYLINE
  8
HATCH
 66
     1
 10
0.0
 20
0.0
 30
0.0
  0
VERTEX
  8
HATCH
 10
3529.565717
 20
4619.684407
 30
0.0
  0
VERTEX
  8
HATCH
 10
3519.756756
 20
4598.245908
 30
0.0
  0
VERTEX
  8
HATCH
 10
3537.973398
 20
4580.237568
 30
0.0
  0
VERTEX
  8
HATCH
 10
3568.801561
 20
4600.818528
 30
0.0
  0
VERTEX
  8
HATCH
 10
3557.59132
 20
4617.969327
 30
0.0
  0
VERTEX
  8
HATCH
 10
3532.368277
 20
4619.684407
 30
0.0
  0
SEQEND
  8
HATCH
  0
POLYLINE
  8
HATCH
 66
     1
 10
0.0
 20
0.0
 30
0.0
  0
VERTEX
  8
HATCH
 10
3644.47069
 20
4621.399487
 30
0.0
  0
VERTEX
  8
HATCH
 10
3626.254048
 20
4610.251467
 30
0.0
  0
VERTEX
  8
HATCH
 10
3641.668129
 20
4590.528048
 30
0.0
  0
VERTEX
  8
HATCH
 10
3662.687332
 20
4584.525268
 30
0.0
  0
VERTEX
  8
HATCH
 10
3676.700133
 20
4611.966547
 30
0.0
  0
VERTEX
  8
HATCH
 10
3640.266849
 20
4619.684407
 30
0.0
  0
SEQEND
  8
HATCH
  0
POLYLINE
  8
HATCH
 66
     1
 10
0.0
 20
0.0
 30
0.0
  0
VERTEX
  8
HATCH
 10
3648.67453
 20
4473.902612
 30
0.0
  0
VERTEX
  8
HATCH
 10
3624.852767
 20
4449.033952
 30
0.0
  0
VERTEX
  8
HATCH
 10
3640.266849
 20
4429.310533
 30
0.0
  0
VERTEX
  8
HATCH
 10
3662.687332
 20
4430.168073
 30
0.0
  0
VERTEX
  8
HATCH
 10
3659.884771
 20
4450.749032
 30
0.0
  0
VERTEX
  8
HATCH
 10
3648.67453
 20
4471.329992
 30
0.0
  0
SEQEND
  8
HATCH
  0
POLYLINE
  8
HATCH
 66
     1
 10
0.0
 20
0.0
 30
0.0
  0
VERTEX
  8
HATCH
 10
3525.361877
 20
4463.612132
 30
0.0
  0
VERTEX
  8
HATCH
 10
3521.158036
 20
4438.743473
 30
0.0
  0
VERTEX
  8
HATCH
 10
3546.381079
 20
4429.310533
 30
0.0
  0
VERTEX
  8
HATCH
 10
3551.986199
 20
4445.603792
 30
0.0
  0
VERTEX
  8
HATCH
 10
3532.368277
 20
4460.181972
 30
0.0
  0
VERTEX
  8
HATCH
 10
3523.960596
 20
4463.612132
 30
0.0
  0
SEQEND
  8
HATCH
  0
POLYLINE
  8
HATCH
 66
     1
 10
0.0
 20
0.0
 30
0.0
  0
VERTEX
  8
HATCH
 10
3769.184623
 20
4618.826867
 30
0.0
  0
VERTEX
  8
HATCH
 10
3759.375662
 20
4600.818528
 30
0.0
  0
VERTEX
  8
HATCH
 10
3778.993584
 20
4584.525268
 30
0.0
  0
VERTEX
  8
HATCH
 10
3794.407666
 20
4598.245908
 30
0.0
  0
VERTEX
  8
HATCH
 10
3780.394865
 20
4616.254247
 30
0.0
  0
VERTEX
  8
HATCH
 10
3773.388464
 20
4618.826867
 30
0.0
  0
SEQEND
  8
HATCH
  0
POLYLINE
  8
HATCH
 66
     1
 10
0.0
 20
0.0
 30
0.0
  0
VERTEX
  8
HATCH
 10
3774.789744
 20
4458.466892
 30
0.0
  0
VERTEX
  8
HATCH
 10
3766.382063
 20
4440.458553
 30
0.0
  0
VERTEX
  8
HATCH
 10
3781.796145
 20
4427.595453
 30
0.0
  0
VERTEX
  8
HATCH
 10
3798.611507
 20
4440.458553
 30
0.0
  0
VERTEX
  8
HATCH
 10
3797.210226
 20
4450.749032
 30
0.0
  0
VERTEX
  8
HATCH
 10
3774.789744
 20
4461.897052
 30
0.0
  0
VERTEX
  8
HATCH
 10
3773.388464
 20
4458.466892
 30
0.0
  0
SEQEND
  8
HATCH
  0
POLYLINE
  8
HATCH
 66
     1
 10
0.0
 20
0.0
 30
0.0
  0
VERTEX
  8
HATCH
 10
3886.892156
 20
4619.684407
 30
0.0
  0
VERTEX
  8
HATCH
 10
3881.287036
 20
4592.243128
 30
0.0
  0
VERTEX
  8
HATCH
 10
3902.306238
 20
4576.807408
 30
0.0
  0
VERTEX
  8
HATCH
 10
3916.319039
 20
4590.528048
 30
0.0
  0
VERTEX
  8
HATCH
 10
3903.707518
 20
4614.539167
 30
0.0
  0
VERTEX
  8
HATCH
 10
3888.293436
 20
4618.826867
 30
0.0
  0
SEQEND
  8
HATCH
  0
POLYLINE
  8
HATCH
 66
     1
 10
0.0
 20
0.0
 30
0.0
  0
VERTEX
  8
HATCH
 10
4003.198409
 20
4621.399487
 30
0.0
  0
VERTEX
  8
HATCH
 10
3976.574086
 20
4611.966547
 30
0.0
  0
VERTEX
  8
HATCH
 10
3997.593288
 20
4585.382808
 30
0.0
  0
VERTEX
  8
HATCH
 10
4022.816331
 20
4587.097888
 30
0.0
  0
VERTEX
  8
HATCH
 10
4022.816331
 20
4611.966547
 30
0.0
  0
VERTEX
  8
HATCH
 10
4001.797129
 20
4623.114567
 30
0.0
  0
SEQEND
  8
HATCH
  0
POLYLINE
  8
HATCH
 66
     1
 10
0.0
 20
0.0
 30
0.0
  0
VERTEX
  8
HATCH
 10
4004.599689
 20
4456.751812
 30
0.0
  0
VERTEX
  8
HATCH
 10
3996.192008
 20
4438.743473
 30
0.0
  0
VERTEX
  8
HATCH
 10
4008.80353
 20
4429.310533
 30
0.0
  0
VERTEX
  8
HATCH
 10
4029.822732
 20
4435.313313
 30
0.0
  0
VERTEX
  8
HATCH
 10
4028.421452
 20
4449.891492
 30
0.0
  0
VERTEX
  8
HATCH
 10
4006.000969
 20
4464.469672
 30
0.0
  0
VERTEX
  8
HATCH
 10
4003.198409
 20
4457.609352
 30
0.0
  0
SEQEND
  8
HATCH
  0
POLYLINE
  8
HATCH
 66
     1
 10
0.0
 20
0.0
 30
0.0
  0
VERTEX
  8
HATCH
 10
3888.293436
 20
4461.039512
 30
0.0
  0
VERTEX
  8
HATCH
 10
3877.083195
 20
4437.885933
 30
0.0
  0
VERTEX
  8
HATCH
 10
3893.898557
 20
4427.595453
 30
0.0
  0
VERTEX
  8
HATCH
 10
3919.1216
 20
4437.885933
 30
0.0
  0
VERTEX
  8
HATCH
 10
3906.510078
 20
4449.033952
 30
0.0
  0
VERTEX
  8
HATCH
 10
3888.293436
 20
4461.039512
 30
0.0
  0
SEQEND
  8
HATCH
  0
POLYLINE
  8
HATCH
 66
     1
 10
0.0
 20
0.0
 30
0.0
  0
VERTEX
  8
HATCH
 10
4118.103382
 20
4616.254247
 30
0.0
  0
VERTEX
  8
HATCH
 10
4105.49186
 20
4602.533608
 30
0.0
  0
VERTEX
  8
HATCH
 10
4120.905942
 20
4576.807408
 30
0.0
  0
VERTEX
  8
HATCH
 10
4144.727705
 20
4590.528048
 30
0.0
  0
VERTEX
  8
HATCH
 10
4136.320024
 20
4611.109007
 30
0.0
  0
VERTEX
  8
HATCH
 10
4123.708502
 20
4618.826867
 30
0.0
  0
SEQEND
  8
HATCH
  0
POLYLINE
  8
HATCH
 66
     1
 10
0.0
 20
0.0
 30
0.0
  0
VERTEX
  8
HATCH
 10
4112.498261
 20
4472.187532
 30
0.0
  0
VERTEX
  8
HATCH
 10
4095.682899
 20
4449.891492
 30
0.0
  0
VERTEX
  8
HATCH
 10
4105.49186
 20
4426.737913
 30
0.0
  0
VERTEX
  8
HATCH
 10
4133.517463
 20
4437.885933
 30
0.0
  0
VERTEX
  8
HATCH
 10
4129.313623
 20
4458.466892
 30
0.0
  0
VERTEX
  8
HATCH
 10
4113.899541
 20
4473.045072
 30
0.0
  0
SEQEND
  8
HATCH
  0
POLYLINE
  8
HATCH
 66
     1
 10
0.0
 20
0.0
 30
0.0
  0
VERTEX
  8
HATCH
 10
5263.930385
 20
4461.039512
 30
0.0
  0
VERTEX
  8
HATCH
 10
5275.140626
 20
4437.885933
 30
0.0
  0
VERTEX
  8
HATCH
 10
5258.325264
 20
4427.595453
 30
0.0
  0
VERTEX
  8
HATCH
 10
5233.102222
 20
4437.885933
 30
0.0
  0
VERTEX
  8
HATCH
 10
5245.713743
 20
4449.033952
 30
0.0
  0
VERTEX
  8
HATCH
 10
5263.930385
 20
4461.039512
 30
0.0
  0
SEQEND
  8
HATCH
  0
POLYLINE
  8
HATCH
 66
     1
 10
0.0
 20
0.0
 30
0.0
  0
VERTEX
  8
HATCH
 10
5147.624132
 20
4456.751812
 30
0.0
  0
VERTEX
  8
HATCH
 10
5156.031813
 20
4438.743473
 30
0.0
  0
VERTEX
  8
HATCH
 10
5143.420292
 20
4429.310533
 30
0.0
  0
VERTEX
  8
HATCH
 10
5122.40109
 20
4435.313313
 30
0.0
  0
VERTEX
  8
HATCH
 10
5123.80237
 20
4449.891492
 30
0.0
  0
VERTEX
  8
HATCH
 10
5146.222852
 20
4464.469672
 30
0.0
  0
VERTEX
  8
HATCH
 10
5149.025412
 20
4457.609352
 30
0.0
  0
SEQEND
  8
HATCH
  0
POLYLINE
  8
HATCH
 66
     1
 10
0.0
 20
0.0
 30
0.0
  0
VERTEX
  8
HATCH
 10
5149.025412
 20
4621.399487
 30
0.0
  0
VERTEX
  8
HATCH
 10
5175.649735
 20
4611.966547
 30
0.0
  0
VERTEX
  8
HATCH
 10
5154.630533
 20
4585.382808
 30
0.0
  0
VERTEX
  8
HATCH
 10
5129.40749
 20
4587.097888
 30
0.0
  0
VERTEX
  8
HATCH
 10
5129.40749
 20
4611.966547
 30
0.0
  0
VERTEX
  8
HATCH
 10
5150.426693
 20
4623.114567
 30
0.0
  0
SEQEND
  8
HATCH
  0
POLYLINE
  8
HATCH
 66
     1
 10
0.0
 20
0.0
 30
0.0
  0
VERTEX
  8
HATCH
 10
5265.331665
 20
4619.684407
 30
0.0
  0
VERTEX
  8
HATCH
 10
5270.936786
 20
4592.243128
 30
0.0
  0
VERTEX
  8
HATCH
 10
5249.917584
 20
4576.807408
 30
0.0
  0
VERTEX
  8
HATCH
 10
5235.904782
 20
4590.528048
 30
0.0
  0
VERTEX
  8
HATCH
 10
5248.516303
 20
4614.539167
 30
0.0
  0
VERTEX
  8
HATCH
 10
5263.930385
 20
4618.826867
 30
0.0
  0
SEQEND
  8
HATCH
  0
POLYLINE
  8
HATCH
 66
     1
 10
0.0
 20
0.0
 30
0.0
  0
VERTEX
  8
HATCH
 10
5377.434078
 20
4458.466892
 30
0.0
  0
VERTEX
  8
HATCH
 10
5385.841758
 20
4440.458553
 30
0.0
  0
VERTEX
  8
HATCH
 10
5370.427677
 20
4427.595453
 30
0.0
  0
VERTEX
  8
HATCH
 10
5353.612315
 20
4440.458553
 30
0.0
  0
VERTEX
  8
HATCH
 10
5355.013595
 20
4450.749032
 30
0.0
  0
VERTEX
  8
HATCH
 10
5377.434078
 20
4461.897052
 30
0.0
  0
VERTEX
  8
HATCH
 10
5378.835358
 20
4458.466892
 30
0.0
  0
SEQEND
  8
HATCH
  0
POLYLINE
  8
HATCH
 66
     1
 10
0.0
 20
0.0
 30
0.0
  0
VERTEX
  8
HATCH
 10
5383.039198
 20
4618.826867
 30
0.0
  0
VERTEX
  8
HATCH
 10
5392.848159
 20
4600.818528
 30
0.0
  0
VERTEX
  8
HATCH
 10
5373.230237
 20
4584.525268
 30
0.0
  0
VERTEX
  8
HATCH
 10
5357.816155
 20
4598.245908
 30
0.0
  0
VERTEX
  8
HATCH
 10
5371.828957
 20
4616.254247
 30
0.0
  0
VERTEX
  8
HATCH
 10
5378.835358
 20
4618.826867
 30
0.0
  0
SEQEND
  8
HATCH
  0
POLYLINE
  8
HATCH
 66
     1
 10
0.0
 20
0.0
 30
0.0
  0
VERTEX
  8
HATCH
 10
5503.549291
 20
4473.902612
 30
0.0
  0
VERTEX
  8
HATCH
 10
5527.371054
 20
4449.033952
 30
0.0
  0
VERTEX
  8
HATCH
 10
5511.956972
 20
4429.310533
 30
0.0
  0
VERTEX
  8
HATCH
 10
5489.53649
 20
4430.168073
 30
0.0
  0
VERTEX
  8
HATCH
 10
5492.33905
 20
4450.749032
 30
0.0
  0
VERTEX
  8
HATCH
 10
5503.549291
 20
4471.329992
 30
0.0
  0
SEQEND
  8
HATCH
  0
POLYLINE
  8
HATCH
 66
     1
 10
0.0
 20
0.0
 30
0.0
  0
VERTEX
  8
HATCH
 10
5507.753132
 20
4621.399487
 30
0.0
  0
VERTEX
  8
HATCH
 10
5525.969774
 20
4610.251467
 30
0.0
  0
VERTEX
  8
HATCH
 10
5510.555692
 20
4590.528048
 30
0.0
  0
VERTEX
  8
HATCH
 10
5489.53649
 20
4584.525268
 30
0.0
  0
VERTEX
  8
HATCH
 10
5475.523688
 20
4611.966547
 30
0.0
  0
VERTEX
  8
HATCH
 10
5511.956972
 20
4619.684407
 30
0.0
  0
SEQEND
  8
HATCH
  0
POLYLINE
  8
HATCH
 66
     1
 10
0.0
 20
0.0
 30
0.0
  0
VERTEX
  8
HATCH
 10
5212.083019
 20
4621.399487
 30
0.0
  0
VERTEX
  8
HATCH
 10
5261.127825
 20
4548.508589
 30
0.0
  0
VERTEX
  8
HATCH
 10
5255.522704
 20
4463.612132
 30
0.0
  0
VERTEX
  8
HATCH
 10
5213.4843
 20
4433.598233
 30
0.0
  0
VERTEX
  8
HATCH
 10
5181.254856
 20
4425.880373
 30
0.0
  0
VERTEX
  8
HATCH
 10
5144.821572
 20
4473.902612
 30
0.0
  0
VERTEX
  8
HATCH
 10
5156.031813
 20
4572.519709
 30
0.0
  0
VERTEX
  8
HATCH
 10
5188.261257
 20
4610.251467
 30
0.0
  0
VERTEX
  8
HATCH
 10
5210.681739
 20
4621.399487
 30
0.0
  0
SEQEND
  8
HATCH
  0
POLYLINE
  8
HATCH
 66
     1
 10
0.0
 20
0.0
 30
0.0
  0
VERTEX
  8
HATCH
 10
5318.580311
 20
4618.826867
 30
0.0
  0
VERTEX
  8
HATCH
 10
5366.223836
 20
4585.382808
 30
0.0
  0
VERTEX
  8
HATCH
 10
5370.427677
 20
4539.07565
 30
0.0
  0
VERTEX
  8
HATCH
 10
5366.223836
 20
4468.757372
 30
0.0
  0
VERTEX
  8
HATCH
 10
5335.395673
 20
4441.316093
 30
0.0
  0
VERTEX
  8
HATCH
 10
5284.949587
 20
4425.880373
 30
0.0
  0
VERTEX
  8
HATCH
 10
5263.930385
 20
4481.620471
 30
0.0
  0
VERTEX
  8
HATCH
 10
5261.127825
 20
4576.807408
 30
0.0
  0
VERTEX
  8
HATCH
 10
5305.96879
 20
4617.969327
 30
0.0
  0
VERTEX
  8
HATCH
 10
5318.580311
 20
4617.969327
 30
0.0
  0
SEQEND
  8
HATCH
  0
POLYLINE
  8
HATCH
 66
     1
 10
0.0
 20
0.0
 30
0.0
  0
VERTEX
  8
HATCH
 10
5432.084004
 20
4622.257027
 30
0.0
  0
VERTEX
  8
HATCH
 10
5481.128809
 20
4588.812968
 30
0.0
  0
VERTEX
  8
HATCH
 10
5499.345451
 20
4529.64271
 30
0.0
  0
VERTEX
  8
HATCH
 10
5486.73393
 20
4458.466892
 30
0.0
  0
VERTEX
  8
HATCH
 10
5434.886564
 20
4425.880373
 30
0.0
  0
VERTEX
  8
HATCH
 10
5387.243039
 20
4438.743473
 30
0.0
  0
VERTEX
  8
HATCH
 10
5373.230237
 20
4515.92207
 30
0.0
  0
VERTEX
  8
HATCH
 10
5390.045599
 20
4599.103448
 30
0.0
  0
VERTEX
  8
HATCH
 10
5430.682723
 20
4622.257027
 30
0.0
  0
SEQEND
  8
HATCH
  0
POLYLINE
  8
HATCH
 66
     1
 10
0.0
 20
0.0
 30
0.0
  0
VERTEX
  8
HATCH
 10
5039.72556
 20
4472.187532
 30
0.0
  0
VERTEX
  8
HATCH
 10
5056.540922
 20
4449.891492
 30
0.0
  0
VERTEX
  8
HATCH
 10
5046.731961
 20
4426.737913
 30
0.0
  0
VERTEX
  8
HATCH
 10
5018.706358
 20
4437.885933
 30
0.0
  0
VERTEX
  8
HATCH
 10
5022.910199
 20
4458.466892
 30
0.0
  0
VERTEX
  8
HATCH
 10
5038.32428
 20
4473.045072
 30
0.0
  0
SEQEND
  8
HATCH
  0
POLYLINE
  8
HATCH
 66
     1
 10
0.0
 20
0.0
 30
0.0
  0
VERTEX
  8
HATCH
 10
5078.961405
 20
4618.826867
 30
0.0
  0
VERTEX
  8
HATCH
 10
5143.420292
 20
4579.380028
 30
0.0
  0
VERTEX
  8
HATCH
 10
5150.426693
 20
4528.78517
 30
0.0
  0
VERTEX
  8
HATCH
 10
5135.012611
 20
4461.039512
 30
0.0
  0
VERTEX
  8
HATCH
 10
5070.553724
 20
4426.737913
 30
0.0
  0
VERTEX
  8
HATCH
 10
5043.929401
 20
4481.620471
 30
0.0
  0
VERTEX
  8
HATCH
 10
5041.126841
 20
4571.662169
 30
0.0
  0
VERTEX
  8
HATCH
 10
5057.942202
 20
4608.536387
 30
0.0
  0
VERTEX
  8
HATCH
 10
5077.560125
 20
4618.826867
 30
0.0
  0
SEQEND
  8
HATCH
  0
POLYLINE
  8
HATCH
 66
     1
 10
0.0
 20
0.0
 30
0.0
  0
VERTEX
  8
HATCH
 10
5034.12044
 20
4616.254247
 30
0.0
  0
VERTEX
  8
HATCH
 10
5046.731961
 20
4602.533608
 30
0.0
  0
VERTEX
  8
HATCH
 10
5031.31788
 20
4576.807408
 30
0.0
  0
VERTEX
  8
HATCH
 10
5007.496117
 20
4590.528048
 30
0.0
  0
VERTEX
  8
HATCH
 10
5015.903798
 20
4611.109007
 30
0.0
  0
VERTEX
  8
HATCH
 10
5028.515319
 20
4618.826867
 30
0.0
  0
SEQEND
  8
HATCH
  0
POLYLINE
  8
HATCH
 66
     1
 10
0.0
 20
0.0
 30
0.0
  0
VERTEX
  8
HATCH
 10
5538.581295
 20
4614.539167
 30
0.0
  0
VERTEX
  8
HATCH
 10
5594.632501
 20
4592.243128
 30
0.0
  0
VERTEX
  8
HATCH
 10
5628.263225
 20
4548.508589
 30
0.0
  0
VERTEX
  8
HATCH
 10
5626.861945
 20
4487.623251
 30
0.0
  0
VERTEX
  8
HATCH
 10
5584.82354
 20
4441.316093
 30
0.0
  0
VERTEX
  8
HATCH
 10
5545.587696
 20
4427.595453
 30
0.0
  0
VERTEX
  8
HATCH
 10
5516.160813
 20
4472.187532
 30
0.0
  0
VERTEX
  8
HATCH
 10
5493.74033
 20
4562.229229
 30
0.0
  0
VERTEX
  8
HATCH
 10
5537.180015
 20
4614.539167
 30
0.0
  0
SEQEND
  8
HATCH
  0
POLYLINE
  8
HATCH
 66
     1
 10
0.0
 20
0.0
 30
0.0
  0
VERTEX
  8
HATCH
 10
5626.861945
 20
4463.612132
 30
0.0
  0
VERTEX
  8
HATCH
 10
5631.065785
 20
4438.743473
 30
0.0
  0
VERTEX
  8
HATCH
 10
5605.842743
 20
4429.310533
 30
0.0
  0
VERTEX
  8
HATCH
 10
5600.237622
 20
4445.603792
 30
0.0
  0
VERTEX
  8
HATCH
 10
5619.855544
 20
4460.181972
 30
0.0
  0
VERTEX
  8
HATCH
 10
5628.263225
 20
4463.612132
 30
0.0
  0
SEQEND
  8
HATCH
  0
POLYLINE
  8
HATCH
 66
     1
 10
0.0
 20
0.0
 30
0.0
  0
VERTEX
  8
HATCH
 10
5622.658104
 20
4619.684407
 30
0.0
  0
VERTEX
  8
HATCH
 10
5632.467066
 20
4598.245908
 30
0.0
  0
VERTEX
  8
HATCH
 10
5614.250424
 20
4580.237568
 30
0.0
  0
VERTEX
  8
HATCH
 10
5583.42226
 20
4600.818528
 30
0.0
  0
VERTEX
  8
HATCH
 10
5594.632501
 20
4617.969327
 30
0.0
  0
VERTEX
  8
HATCH
 10
5619.855544
 20
4619.684407
 30
0.0
  0
SEQEND
  8
HATCH
  0
ENDSEC
  0
EOF
