  0
SECTION
  2
HEADER
  9
$ACADVER
  1
AC1009
  9
$INSBASE
 10
0.0
 20
0.0
 30
0.0
  9
$EXTMIN
 10
0.0
 20
0.0
 30
0.0
  9
$EXTMAX
 10
9875.0
 20
6825.0
 30
0.0
  9
$LIMMIN
 10
0.0
 20
0.0
  9
$LIMMAX
 10
9875.0
 20
6825.0
  9
$ORTHOMODE
 70
     0
  9
$REGENMODE
 70
     1
  9
$FILLMODE
 70
     1
  9
$QTEXTMODE
 70
     0
  9
$MIRRTEXT
 70
     0
  9
$DRAGMODE
 70
     2
  9
$LTSCALE
 40
125.0
  9
$OSMODE
 70
    33
  9
$ATTMODE
 70
     1
  9
$TEXTSIZE
 40
60.0
  9
$TRACEWID
 40
0.05
  9
$TEXTSTYLE
  7
K
  9
$CLAYER
  8
SUNPOU
  9
$CELTYPE
  6
BYLAYER
  9
$CECOLOR
 62
   256
  9
$DIMSCALE
 40
25.0
  9
$DIMASZ
 40
1.5
  9
$DIMEXO
 40
1.0
  9
$DIMDLI
 40
6.0
  9
$DIMRND
 40
0.0
  9
$DIMDLE
 40
0.0
  9
$DIMEXE
 40
1.0
  9
$DIMTP
 40
495.0
  9
$DIMTM
 40
0.0
  9
$DIMTXT
 40
3.0
  9
$DIMCEN
 40
0.0
  9
$DIMTSZ
 40
0.0
  9
$DIMTOL
 70
     0
  9
$DIMLIM
 70
     0
  9
$DIMTIH
 70
     0
  9
$DIMTOH
 70
     0
  9
$DIMSE1
 70
     0
  9
$DIMSE2
 70
     0
  9
$DIMTAD
 70
     1
  9
$DIMZIN
 70
     8
  9
$DIMBLK
  1
ARROW
  9
$DIMASO
 70
     0
  9
$DIMSHO
 70
     0
  9
$DIMPOST
  1

  9
$DIMAPOST
  1

  9
$DIMALT
 70
     0
  9
$DIMALTD
 70
     2
  9
$DIMALTF
 40
25.4
  9
$DIMLFAC
 40
1.0
  9
$DIMTOFL
 70
     1
  9
$DIMTVP
 40
0.0
  9
$DIMTIX
 70
     1
  9
$DIMSOXD
 70
     0
  9
$DIMSAH
 70
     0
  9
$DIMBLK1
  1

  9
$DIMBLK2
  1

  9
$DIMSTYLE
  2
*UNNAMED
  9
$DIMCLRD
 70
     0
  9
$DIMCLRE
 70
     0
  9
$DIMCLRT
 70
     0
  9
$DIMTFAC
 40
1.0
  9
$DIMGAP
 40
0.09
  9
$LUNITS
 70
     2
  9
$LUPREC
 70
     2
  9
$AXISMODE
 70
     1
  9
$AXISUNIT
 10
100.0
 20
100.0
  9
$SKETCHINC
 40
0.1
  9
$FILLETRAD
 40
10.0
  9
$AUNITS
 70
     0
  9
$AUPREC
 70
     2
  9
$MENU
  1
d:stdgx5
  9
$ELEVATION
 40
0.0
  9
$PELEVATION
 40
0.0
  9
$THICKNESS
 40
0.0
  9
$LIMCHECK
 70
     0
  9
$BLIPMODE
 70
     1
  9
$CHAMFERA
 40
0.0
  9
$CHAMFERB
 40
0.0
  9
$SKPOLY
 70
     0
  9
$TDCREATE
 40
2450248.671805555
  9
$TDUPDATE
 40
2450255.706087963
  9
$TDINDWG
 40
0.0016782407
  9
$TDUSRTIMER
 40
0.0016782407
  9
$USRTIMER
 70
     1
  9
$ANGBASE
 50
0.0
  9
$ANGDIR
 70
     0
  9
$PDMODE
 70
     0
  9
$PDSIZE
 40
0.0
  9
$PLINEWID
 40
0.0
  9
$COORDS
 70
     2
  9
$SPLFRAME
 70
     0
  9
$SPLINETYPE
 70
     6
  9
$SPLINESEGS
 70
     8
  9
$ATTDIA
 70
     0
  9
$ATTREQ
 70
     1
  9
$HANDLING
 70
     0
  9
$HANDSEED
  5
0
  9
$SURFTAB1
 70
     6
  9
$SURFTAB2
 70
     6
  9
$SURFTYPE
 70
     6
  9
$SURFU
 70
     6
  9
$SURFV
 70
     6
  9
$UCSNAME
  2

  9
$UCSORG
 10
0.0
 20
0.0
 30
0.0
  9
$UCSXDIR
 10
1.0
 20
0.0
 30
0.0
  9
$UCSYDIR
 10
0.0
 20
1.0
 30
0.0
  9
$PUCSNAME
  2

  9
$PUCSORG
 10
0.0
 20
0.0
 30
0.0
  9
$PUCSXDIR
 10
1.0
 20
0.0
 30
0.0
  9
$PUCSYDIR
 10
0.0
 20
1.0
 30
0.0
  9
$USERI1
 70
     3
  9
$USERI2
 70
    33
  9
$USERI3
 70
     0
  9
$USERI4
 70
     1
  9
$USERI5
 70
     0
  9
$USERR1
 40
25.0
  9
$USERR2
 40
3.0
  9
$USERR3
 40
3.0
  9
$USERR4
 40
1.5
  9
$USERR5
 40
10.0
  9
$WORLDVIEW
 70
     1
  9
$SHADEDGE
 70
     3
  9
$SHADEDIF
 70
    70
  9
$TILEMODE
 70
     1
  9
$MAXACTVP
 70
    16
  9
$PINSBASE
 10
0.0
 20
0.0
 30
0.0
  9
$PLIMCHECK
 70
     0
  9
$PEXTMIN
 10
1.000000E+20
 20
1.000000E+20
 30
1.000000E+20
  9
$PEXTMAX
 10
-1.000000E+20
 20
-1.000000E+20
 30
-1.000000E+20
  9
$PLIMMIN
 10
0.0
 20
0.0
  9
$PLIMMAX
 10
12.0
 20
9.0
  9
$UNITMODE
 70
     0
  9
$VISRETAIN
 70
     0
  0
ENDSEC
  0
SECTION
  2
TABLES
  0
TABLE
  2
VPORT
 70
    10
  0
VPORT
  2
*ACTIVE
 70
     0
 10
0.0
 20
0.0
 11
1.0
 21
1.0
 12
5576.263114
 22
3412.5
 13
0.0
 23
0.0
 14
1.0
 24
1.0
 15
10.0
 25
10.0
 16
0.0
 26
0.0
 36
1.0
 17
0.0
 27
0.0
 37
0.0
 40
6825.0
 41
1.63407
 42
50.0
 43
0.0
 44
0.0
 50
0.0
 51
0.0
 71
     0
 72
   500
 73
     1
 74
     0
 75
     0
 76
     0
 77
     0
 78
     0
  0
VPORT
  2
2
 70
     0
 10
0.5
 20
0.0
 11
1.0
 21
1.0
 12
0.924031
 22
1.052651
 13
0.0
 23
0.0
 14
1.0
 24
1.0
 15
10.0
 25
10.0
 16
0.0
 26
0.0
 36
1.0
 17
0.0
 27
0.0
 37
0.0
 40
2.105302
 41
0.877814
 42
50.0
 43
0.0
 44
0.0
 50
0.0
 51
0.0
 71
     0
 72
   500
 73
     1
 74
     1
 75
     0
 76
     0
 77
     0
 78
     0
  0
VPORT
  2
2
 70
     0
 10
0.0
 20
0.0
 11
0.5
 21
1.0
 12
0.924031
 22
1.052651
 13
0.0
 23
0.0
 14
1.0
 24
1.0
 15
10.0
 25
10.0
 16
0.0
 26
0.0
 36
1.0
 17
0.0
 27
0.0
 37
0.0
 40
2.105302
 41
0.877814
 42
50.0
 43
0.0
 44
0.0
 50
0.0
 51
0.0
 71
     0
 72
   500
 73
     1
 74
     1
 75
     0
 76
     0
 77
     0
 78
     0
  0
VPORT
  2
3
 70
     0
 10
0.0
 20
0.5
 11
1.0
 21
1.0
 12
2.83217
 22
1.052651
 13
0.0
 23
0.0
 14
1.0
 24
1.0
 15
10.0
 25
10.0
 16
0.0
 26
0.0
 36
1.0
 17
0.0
 27
0.0
 37
0.0
 40
2.105302
 41
3.571429
 42
50.0
 43
0.0
 44
0.0
 50
0.0
 51
0.0
 71
     0
 72
   500
 73
     1
 74
     1
 75
     0
 76
     0
 77
     0
 78
     0
  0
VPORT
  2
3
 70
     0
 10
0.0
 20
0.0
 11
1.0
 21
0.5
 12
2.856742
 22
1.052651
 13
0.0
 23
0.0
 14
1.0
 24
1.0
 15
10.0
 25
10.0
 16
0.0
 26
0.0
 36
1.0
 17
0.0
 27
0.0
 37
0.0
 40
2.105302
 41
3.594771
 42
50.0
 43
0.0
 44
0.0
 50
0.0
 51
0.0
 71
     0
 72
   500
 73
     1
 74
     1
 75
     0
 76
     0
 77
     0
 78
     0
  0
VPORT
  2
4
 70
     0
 10
0.5
 20
0.0
 11
1.0
 21
0.5
 12
2.886858
 22
1.052651
 13
0.0
 23
0.0
 14
1.0
 24
1.0
 15
10.0
 25
10.0
 16
0.0
 26
0.0
 36
1.0
 17
0.0
 27
0.0
 37
0.0
 40
4.275207
 41
1.784314
 42
50.0
 43
0.0
 44
0.0
 50
0.0
 51
0.0
 71
     0
 72
   500
 73
     1
 74
     1
 75
     0
 76
     0
 77
     0
 78
     0
  0
VPORT
  2
4
 70
     0
 10
0.5
 20
0.5
 11
1.0
 21
1.0
 12
2.86209
 22
1.052651
 13
0.0
 23
0.0
 14
1.0
 24
1.0
 15
10.0
 25
10.0
 16
0.0
 26
0.0
 36
1.0
 17
0.0
 27
0.0
 37
0.0
 40
4.275207
 41
1.772727
 42
50.0
 43
0.0
 44
0.0
 50
0.0
 51
0.0
 71
     0
 72
   500
 73
     1
 74
     1
 75
     0
 76
     0
 77
     0
 78
     0
  0
VPORT
  2
4
 70
     0
 10
0.0
 20
0.5
 11
0.5
 21
1.0
 12
2.86209
 22
1.052651
 13
0.0
 23
0.0
 14
1.0
 24
1.0
 15
10.0
 25
10.0
 16
0.0
 26
0.0
 36
1.0
 17
0.0
 27
0.0
 37
0.0
 40
4.275207
 41
1.772727
 42
50.0
 43
0.0
 44
0.0
 50
0.0
 51
0.0
 71
     0
 72
   500
 73
     1
 74
     1
 75
     0
 76
     0
 77
     0
 78
     0
  0
VPORT
  2
4
 70
     0
 10
0.0
 20
0.0
 11
0.5
 21
0.5
 12
2.886858
 22
1.052651
 13
0.0
 23
0.0
 14
1.0
 24
1.0
 15
10.0
 25
10.0
 16
0.0
 26
0.0
 36
1.0
 17
0.0
 27
0.0
 37
0.0
 40
4.275207
 41
1.784314
 42
50.0
 43
0.0
 44
0.0
 50
0.0
 51
0.0
 71
     0
 72
   500
 73
     1
 74
     1
 75
     0
 76
     0
 77
     0
 78
     0
  0
ENDTAB
  0
TABLE
  2
LTYPE
 70
     5
  0
LTYPE
  2
CONTINUOUS
 70
    64
  3
実線
 72
    65
 73
     0
 40
0.0
  0
LTYPE
  2
DASHED
 70
    64
  3
__ __ __ __ __ __ __ __ __ __ __ __ __ __ __
 72
    65
 73
     2
 40
0.75
 49
0.5
 49
-0.25
  0
LTYPE
  2
CENTER
 70
    64
  3
____ _ ____ _ ____ _ ____ _ ____ _ ____ _ ____
 72
    65
 73
     4
 40
2.0
 49
1.25
 49
-0.25
 49
0.25
 49
-0.25
  0
LTYPE
  2
PHANTOM
 70
    64
  3
_____ _ _ _____ _ _ _____ _ _ _____ _ _ ____
 72
    65
 73
     6
 40
2.5
 49
1.25
 49
-0.25
 49
0.25
 49
-0.25
 49
0.25
 49
-0.25
  0
LTYPE
  2
HIDDEN
 70
    64
  3
_ _ _ _ _ _ _ _ _ _ _ _ _ _ _ _ _ _ _ _ _ _ _
 72
    65
 73
     2
 40
0.375
 49
0.25
 49
-0.125
  0
ENDTAB
  0
TABLE
  2
LAYER
 70
    14
  0
LAYER
  2
0
 70
     0
 62
     7
  6
CONTINUOUS
  0
LAYER
  2
HASEN
 70
    64
 62
     2
  6
DASHED
  0
LAYER
  2
ITTEN
 70
    64
 62
     1
  6
CENTER
  0
LAYER
  2
SUNPOU
 70
    64
 62
     3
  6
CONTINUOUS
  0
LAYER
  2
TEXT
 70
    64
 62
     3
  6
CONTINUOUS
  0
LAYER
  2
JISSEN
 70
    64
 62
     7
  6
CONTINUOUS
  0
LAYER
  2
WAKU
 70
    64
 62
    -5
  6
CONTINUOUS
  0
ENDTAB
  0
TABLE
  2
STYLE
 70
     2
  0
STYLE
  2
STANDARD
 70
     0
 40
0.0
 41
1.0
 50
0.0
 71
     0
 42
0.2
  3
ROMANS
  4
EXTFONT
  0
STYLE
  2
K
 70
    64
 40
0.0
 41
1.0
 50
0.0
 71
     0
 42
60.0
  3
ROMANS
  4
EXTFONT
  0
ENDTAB
  0
TABLE
  2
VIEW
 70
     0
  0
ENDTAB
  0
TABLE
  2
UCS
 70
     0
  0
ENDTAB
  0
TABLE
  2
APPID
 70
     1
  0
APPID
  2
ACAD
 70
    64
  0
ENDTAB
  0
TABLE
  2
DIMSTYLE
 70
     0
  0
ENDTAB
  0
ENDSEC
  0
SECTION
  2
BLOCKS
  0
BLOCK
  8
SUNPOU
  2
ARROWANG
 70
    64
 10
0.0
 20
0.0
 30
0.0
  3
ARROWANG
  0
LINE
  8
SUNPOU
 10
0.0
 20
0.0
 30
0.0
 11
-1.5
 21
0.401924
 31
0.0
  0
LINE
  8
SUNPOU
 10
0.0
 20
0.0
 30
0.0
 11
-1.5
 21
-0.401924
 31
0.0
  0
ENDBLK
  8
SUNPOU
  0
ENDSEC
  0
SECTION
  2
ENTITIES
  0
TEXT
  8
TEXT
 10
2527.488133
 20
5138.672642
 30
0.0
 40
72.0
  1
M4P
  7
K
  0
TEXT
  8
TEXT
 10
4638.190879
 20
5511.017517
 30
0.0
 40
120.0
  1
底  版
  7
K
  0
TEXT
  8
JISSEN
 10
2833.456306
 20
6383.418782
 30
0.0
 40
250.0
  1
４号マンホール（内径１８００ｍｍ）
  7
K
  0
LINE
  8
HASEN
 10
1853.773169
 20
1810.43501
 30
0.0
 11
1924.483847
 21
1881.145688
 31
0.0
  0
LINE
  8
HASEN
 10
1924.483847
 20
1881.145688
 30
0.0
 11
1903.270644
 21
1902.358891
 31
0.0
  0
LINE
  8
HASEN
 10
1832.559966
 20
1831.648213
 30
0.0
 11
1903.270644
 21
1902.358891
 31
0.0
  0
LINE
  8
HASEN
 10
2200.91351
 20
1585.522244
 30
0.0
 11
2239.181853
 21
1677.910197
 31
0.0
  0
LINE
  8
HASEN
 10
2239.181853
 20
1677.910197
 30
0.0
 11
2211.465467
 21
1689.3907
 31
0.0
  0
LINE
  8
HASEN
 10
2173.197124
 20
1597.002747
 30
0.0
 11
2211.465467
 21
1689.3907
 31
0.0
  0
LINE
  8
HASEN
 10
3012.202387
 20
1597.002747
 30
0.0
 11
2973.934043
 21
1689.3907
 31
0.0
  0
LINE
  8
HASEN
 10
2973.934043
 20
1689.3907
 30
0.0
 11
2946.217657
 21
1677.910197
 31
0.0
  0
LINE
  8
HASEN
 10
2984.486001
 20
1585.522244
 30
0.0
 11
2946.217657
 21
1677.910197
 31
0.0
  0
LINE
  8
HASEN
 10
3352.839545
 20
1831.648213
 30
0.0
 11
3282.128867
 21
1902.358891
 31
0.0
  0
LINE
  8
HASEN
 10
3282.128867
 20
1902.358891
 30
0.0
 11
3260.915664
 21
1881.145688
 31
0.0
  0
LINE
  8
HASEN
 10
3331.626342
 20
1810.43501
 30
0.0
 11
3260.915664
 21
1881.145688
 31
0.0
  0
LINE
  8
HASEN
 10
3331.626342
 20
3330.714589
 30
0.0
 11
3260.915664
 21
3260.003911
 31
0.0
  0
LINE
  8
HASEN
 10
3260.915664
 20
3260.003911
 30
0.0
 11
3282.128867
 21
3238.790708
 31
0.0
  0
LINE
  8
HASEN
 10
3352.839545
 20
3309.501386
 30
0.0
 11
3282.128867
 21
3238.790708
 31
0.0
  0
LINE
  8
HASEN
 10
2984.486001
 20
3555.627356
 30
0.0
 11
2946.217657
 21
3463.239402
 31
0.0
  0
LINE
  8
HASEN
 10
2946.217657
 20
3463.239402
 30
0.0
 11
2973.934043
 21
3451.758899
 31
0.0
  0
LINE
  8
HASEN
 10
3012.202387
 20
3544.146853
 30
0.0
 11
2973.934043
 21
3451.758899
 31
0.0
  0
LINE
  8
HASEN
 10
2173.197124
 20
3544.146853
 30
0.0
 11
2211.465467
 21
3451.758899
 31
0.0
  0
LINE
  8
HASEN
 10
2211.465467
 20
3451.758899
 30
0.0
 11
2239.181853
 21
3463.239402
 31
0.0
  0
LINE
  8
HASEN
 10
2200.91351
 20
3555.627356
 30
0.0
 11
2239.181853
 21
3463.239402
 31
0.0
  0
LINE
  8
HASEN
 10
1832.559966
 20
3309.501386
 30
0.0
 11
1903.270644
 21
3238.790708
 31
0.0
  0
LINE
  8
HASEN
 10
1903.270644
 20
3238.790708
 30
0.0
 11
1924.483847
 21
3260.003911
 31
0.0
  0
LINE
  8
HASEN
 10
1853.773169
 20
3330.714589
 30
0.0
 11
1924.483847
 21
3260.003911
 31
0.0
  0
CIRCLE
  8
TEXT
 10
1843.166567
 20
4447.693136
 30
0.0
 40
15.0
  0
LINE
  8
ITTEN
 10
1843.166567
 20
4472.693136
 30
0.0
 11
1843.166567
 21
4422.693136
 31
0.0
  0
LINE
  8
ITTEN
 10
1818.166567
 20
4447.693136
 30
0.0
 11
1868.166567
 21
4447.693136
 31
0.0
  0
LINE
  8
ITTEN
 10
2162.055317
 20
4447.693136
 30
0.0
 11
2212.055317
 21
4447.693136
 31
0.0
  0
LINE
  8
ITTEN
 10
2187.055317
 20
4472.693136
 30
0.0
 11
2187.055317
 21
4422.693136
 31
0.0
  0
CIRCLE
  8
TEXT
 10
2187.055317
 20
4447.693136
 30
0.0
 40
15.0
  0
CIRCLE
  8
TEXT
 10
2998.344194
 20
4447.693136
 30
0.0
 40
15.0
  0
LINE
  8
ITTEN
 10
2998.344194
 20
4472.693136
 30
0.0
 11
2998.344194
 21
4422.693136
 31
0.0
  0
LINE
  8
ITTEN
 10
3023.344194
 20
4447.693136
 30
0.0
 11
2973.344194
 21
4447.693136
 31
0.0
  0
LINE
  8
ITTEN
 10
3367.232943
 20
4447.693136
 30
0.0
 11
3317.232943
 21
4447.693136
 31
0.0
  0
LINE
  8
ITTEN
 10
3342.232943
 20
4472.693136
 30
0.0
 11
3342.232943
 21
4422.693136
 31
0.0
  0
CIRCLE
  8
TEXT
 10
3342.232943
 20
4447.693136
 30
0.0
 40
15.0
  0
LINE
  8
SUNPOU
 10
3726.264223
 20
2086.663428
 30
0.0
 11
4236.27293
 21
2086.663428
 31
0.0
  0
TEXT
  8
SUNPOU
 10
3726.264223
 20
2106.663428
 30
0.0
 40
60.0
  1
埋込みアンカー
  7
K
  0
LINE
  8
SUNPOU
 10
2990.79518
 20
1618.582491
 30
0.0
 11
3726.264223
 21
2086.663428
 31
0.0
  0
INSERT
  8
SUNPOU
  2
ARROWANG
 10
2990.79518
 20
1618.582491
 30
0.0
 41
30.0
 42
30.0
 50
212.474252
 43
30.0
  0
LINE
  8
SUNPOU
 10
3318.09388
 20
1848.373738
 30
0.0
 11
3726.264223
 21
2086.663428
 31
0.0
  0
INSERT
  8
SUNPOU
  2
ARROWANG
 10
3318.09388
 20
1848.373738
 30
0.0
 41
30.0
 42
30.0
 50
210.276366
 43
30.0
  0
POINT
  8
SUNPOU
 10
2593.406862
 20
2571.281906
 30
0.0
  0
TEXT
  8
SUNPOU
 10
2614.214652
 20
2659.393892
 30
0.0
 40
60.0
  1
%%C800
 50
56.279853
  7
K
 72
     1
 11
2674.486662
 21
2749.699151
 31
0.0
  0
INSERT
  8
SUNPOU
  2
ARROWANG
 10
2370.644982
 20
2237.871212
 30
0.0
 41
30.0
 42
30.0
 50
236.279853
 43
30.0
  0
INSERT
  8
SUNPOU
  2
ARROWANG
 10
2814.754529
 20
2903.278388
 30
0.0
 41
30.0
 42
30.0
 50
56.279853
 43
30.0
  0
LINE
  8
SUNPOU
 10
2814.754529
 20
2903.278388
 30
0.0
 11
2370.644982
 21
2237.871212
 31
0.0
  0
TEXT
  8
SUNPOU
 10
2846.737618
 20
2693.633575
 30
0.0
 40
60.0
  1
%%C2120
 50
21.457606
  7
K
 72
     1
 11
2974.374897
 21
2743.802175
 31
0.0
  0
INSERT
  8
SUNPOU
  2
ARROWANG
 10
1606.169956
 20
2182.813333
 30
0.0
 41
30.0
 42
30.0
 50
201.457606
 43
30.0
  0
INSERT
  8
SUNPOU
  2
ARROWANG
 10
3579.229555
 20
2958.336266
 30
0.0
 41
30.0
 42
30.0
 50
21.457606
 43
30.0
  0
LINE
  8
SUNPOU
 10
3579.229555
 20
2958.336266
 30
0.0
 11
1606.169956
 21
2182.813333
 31
0.0
  0
TEXT
  8
SUNPOU
 10
2506.985479
 20
4207.385134
 30
0.0
 40
60.0
  1
800
  7
K
 72
     1
 11
2592.699765
 21
4207.385134
 31
0.0
  0
INSERT
  8
SUNPOU
  2
ARROWANG
 10
2992.699755
 20
4177.385134
 30
0.0
 41
30.0
 42
30.0
 43
30.0
  0
INSERT
  8
SUNPOU
  2
ARROWANG
 10
2192.699755
 20
4177.385134
 30
0.0
 41
30.0
 42
30.0
 50
180.0
 43
30.0
  0
LINE
  8
SUNPOU
 10
2192.699755
 20
4177.385134
 30
0.0
 11
2992.699755
 21
4177.385134
 31
0.0
  0
LINE
  8
SUNPOU
 10
2992.699755
 20
4295.693136
 30
0.0
 11
2992.699755
 21
4157.385134
 31
0.0
  0
LINE
  8
SUNPOU
 10
2192.699755
 20
4295.693136
 30
0.0
 11
2192.699755
 21
4157.385134
 31
0.0
  0
TEXT
  8
SUNPOU
 10
3841.669802
 20
4354.97885
 30
0.0
 40
60.0
  1
250
 50
90.0
  7
K
 72
     1
 11
3841.669802
 21
4440.693136
 31
0.0
  0
INSERT
  8
SUNPOU
  2
ARROWANG
 10
3871.669802
 20
4565.693136
 30
0.0
 41
30.0
 42
30.0
 50
90.0
 43
30.0
  0
INSERT
  8
SUNPOU
  2
ARROWANG
 10
3871.669802
 20
4315.693136
 30
0.0
 41
30.0
 42
30.0
 50
270.0
 43
30.0
  0
LINE
  8
SUNPOU
 10
3871.669802
 20
4315.693136
 30
0.0
 11
3871.669802
 21
4565.693136
 31
0.0
  0
LINE
  8
SUNPOU
 10
3565.699755
 20
4565.693136
 30
0.0
 11
3891.669802
 21
4565.693136
 31
0.0
  0
LINE
  8
SUNPOU
 10
3672.699755
 20
4315.693136
 30
0.0
 11
3891.669802
 21
4315.693136
 31
0.0
  0
TEXT
  8
SUNPOU
 10
2474.128337
 20
4818.773158
 30
0.0
 40
60.0
  1
1906
  7
K
 72
     1
 11
2592.699765
 21
4818.773158
 31
0.0
  0
INSERT
  8
SUNPOU
  2
ARROWANG
 10
3545.699755
 20
4788.773158
 30
0.0
 41
30.0
 42
30.0
 43
30.0
  0
INSERT
  8
SUNPOU
  2
ARROWANG
 10
1639.699755
 20
4788.773158
 30
0.0
 41
30.0
 42
30.0
 50
180.0
 43
30.0
  0
LINE
  8
SUNPOU
 10
1639.699755
 20
4788.773158
 30
0.0
 11
3545.699755
 21
4788.773158
 31
0.0
  0
LINE
  8
SUNPOU
 10
3545.699755
 20
4585.693136
 30
0.0
 11
3545.699755
 21
4808.773158
 31
0.0
  0
LINE
  8
SUNPOU
 10
1639.699755
 20
4585.693136
 30
0.0
 11
1639.699755
 21
4808.773158
 31
0.0
  0
TEXT
  8
SUNPOU
 10
2472.699765
 20
4948.082808
 30
0.0
 40
60.0
  1
1924
  7
K
 72
     1
 11
2592.699765
 21
4948.082808
 31
0.0
  0
INSERT
  8
SUNPOU
  2
ARROWANG
 10
3554.699755
 20
4918.082808
 30
0.0
 41
30.0
 42
30.0
 43
30.0
  0
INSERT
  8
SUNPOU
  2
ARROWANG
 10
1630.699755
 20
4918.082808
 30
0.0
 41
30.0
 42
30.0
 50
180.0
 43
30.0
  0
LINE
  8
SUNPOU
 10
1630.699755
 20
4918.082808
 30
0.0
 11
3554.699755
 21
4918.082808
 31
0.0
  0
LINE
  8
SUNPOU
 10
3554.699755
 20
4617.693136
 30
0.0
 11
3554.699755
 21
4938.082808
 31
0.0
  0
LINE
  8
SUNPOU
 10
1630.699755
 20
4617.693136
 30
0.0
 11
1630.699755
 21
4938.082808
 31
0.0
  0
TEXT
  8
SUNPOU
 10
2469.156008
 20
4043.415165
 30
0.0
 40
60.0
  1
2120
  7
K
 72
     1
 11
2583.441722
 21
4043.415165
 31
0.0
  0
INSERT
  8
SUNPOU
  2
ARROWANG
 10
1532.699755
 20
4013.415165
 30
0.0
 41
30.0
 42
30.0
 50
180.0
 43
30.0
  0
INSERT
  8
SUNPOU
  2
ARROWANG
 10
3652.699755
 20
4013.415165
 30
0.0
 41
30.0
 42
30.0
 43
30.0
  0
LINE
  8
SUNPOU
 10
1532.699755
 20
4013.415165
 30
0.0
 11
3652.699755
 21
4013.415165
 31
0.0
  0
LINE
  8
SUNPOU
 10
3652.699755
 20
4295.693136
 30
0.0
 11
3652.699755
 21
3993.415165
 31
0.0
  0
LINE
  8
SUNPOU
 10
1532.699755
 20
4295.693136
 30
0.0
 11
1532.699755
 21
3993.415165
 31
0.0
  0
CIRCLE
  8
JISSEN
 10
2592.699755
 20
2570.5748
 30
0.0
 40
953.0
  0
CIRCLE
  8
JISSEN
 10
2592.699755
 20
2570.5748
 30
0.0
 40
962.0
  0
LINE
  8
JISSEN
 10
3545.699755
 20
4565.693136
 30
0.0
 11
2992.699755
 21
4565.693136
 31
0.0
  0
LINE
  8
JISSEN
 10
2192.699755
 20
4565.693136
 30
0.0
 11
2992.699755
 21
4565.693136
 31
0.0
  0
LINE
  8
ITTEN
 10
2592.699755
 20
4615.693136
 30
0.0
 11
2592.699755
 21
4265.693136
 31
0.0
  0
LINE
  8
JISSEN
 10
1639.699755
 20
4565.693136
 30
0.0
 11
2192.699755
 21
4565.693136
 31
0.0
  0
LINE
  8
JISSEN
 10
3652.699755
 20
4315.693136
 30
0.0
 11
3652.699755
 21
4597.693136
 31
0.0
  0
LINE
  8
JISSEN
 10
1532.699755
 20
4315.693136
 30
0.0
 11
1532.699755
 21
4597.693136
 31
0.0
  0
LINE
  8
JISSEN
 10
2992.699755
 20
4565.693136
 30
0.0
 11
2992.699755
 21
4315.693136
 31
0.0
  0
LINE
  8
JISSEN
 10
2192.699755
 20
4565.693136
 30
0.0
 11
2192.699755
 21
4315.693136
 31
0.0
  0
LINE
  8
JISSEN
 10
1532.699755
 20
4315.693136
 30
0.0
 11
3652.699755
 21
4315.693136
 31
0.0
  0
CIRCLE
  8
JISSEN
 10
2592.699755
 20
2570.5748
 30
0.0
 40
400.0
  0
LINE
  8
ITTEN
 10
3702.699755
 20
2570.5748
 30
0.0
 11
1482.699755
 21
2570.5748
 31
0.0
  0
LINE
  8
ITTEN
 10
2592.699755
 20
3680.5748
 30
0.0
 11
2592.699755
 21
1460.5748
 31
0.0
  0
CIRCLE
  8
JISSEN
 10
2592.699755
 20
2570.5748
 30
0.0
 40
1060.0
  0
TEXT
  8
TEXT
 10
3742.053644
 20
2007.339429
 30
0.0
 40
60.0
  1
M20 8ケ所
  7
K
  0
LINE
  8
JISSEN
 10
1532.699755
 20
4597.693136
 30
0.0
 11
2592.699755
 21
4597.693136
 31
0.0
  0
LINE
  8
JISSEN
 10
1630.699755
 20
4597.693136
 30
0.0
 11
1639.699755
 21
4565.693136
 31
0.0
  0
LINE
  8
JISSEN
 10
3652.699755
 20
4597.693136
 30
0.0
 11
2592.699755
 21
4597.693136
 31
0.0
  0
LINE
  8
JISSEN
 10
3554.699755
 20
4597.693136
 30
0.0
 11
3545.699755
 21
4565.693136
 31
0.0
  0
LINE
  8
SUNPOU
 10
3911.669802
 20
4315.693136
 30
0.0
 11
4072.708759
 21
4315.693136
 31
0.0
  0
LINE
  8
SUNPOU
 10
3672.699755
 20
4597.693136
 30
0.0
 11
4072.708759
 21
4597.693136
 31
0.0
  0
LINE
  8
SUNPOU
 10
4052.708759
 20
4315.693136
 30
0.0
 11
4052.708759
 21
4597.693136
 31
0.0
  0
INSERT
  8
SUNPOU
  2
ARROWANG
 10
4052.708759
 20
4315.693136
 30
0.0
 41
30.0
 42
30.0
 50
270.0
 43
30.0
  0
INSERT
  8
SUNPOU
  2
ARROWANG
 10
4052.708759
 20
4597.693136
 30
0.0
 41
30.0
 42
30.0
 50
90.0
 43
30.0
  0
TEXT
  8
SUNPOU
 10
4022.708759
 20
4370.97885
 30
0.0
 40
60.0
  1
282
 50
90.0
  7
K
 72
     1
 11
4022.708759
 21
4456.693136
 31
0.0
  0
LINE
  8
SUNPOU
 10
1823.166567
 20
4447.693136
 30
0.0
 11
1312.232615
 21
4447.693136
 31
0.0
  0
LINE
  8
SUNPOU
 10
1512.699755
 20
4597.693136
 30
0.0
 11
1312.232615
 21
4597.693136
 31
0.0
  0
LINE
  8
SUNPOU
 10
1332.232615
 20
4447.693136
 30
0.0
 11
1332.232615
 21
4597.693136
 31
0.0
  0
INSERT
  8
SUNPOU
  2
ARROWANG
 10
1332.232615
 20
4447.693136
 30
0.0
 41
30.0
 42
30.0
 50
270.0
 43
30.0
  0
INSERT
  8
SUNPOU
  2
ARROWANG
 10
1332.232615
 20
4597.693136
 30
0.0
 41
30.0
 42
30.0
 50
90.0
 43
30.0
  0
TEXT
  8
SUNPOU
 10
1302.232615
 20
4432.693136
 30
0.0
 40
60.0
  1
150
 50
90.0
  7
K
 72
     1
 11
1302.232615
 21
4522.693136
 31
0.0
  0
TEXT
  8
SUNPOU
 10
5529.06611
 20
4432.693136
 30
0.0
 40
60.0
  1
150
 50
90.0
  7
K
 72
     1
 11
5529.06611
 21
4522.693136
 31
0.0
  0
INSERT
  8
SUNPOU
  2
ARROWANG
 10
5559.06611
 20
4597.693136
 30
0.0
 41
30.0
 42
30.0
 50
90.0
 43
30.0
  0
INSERT
  8
SUNPOU
  2
ARROWANG
 10
5559.06611
 20
4447.693136
 30
0.0
 41
30.0
 42
30.0
 50
270.0
 43
30.0
  0
LINE
  8
SUNPOU
 10
5559.06611
 20
4447.693136
 30
0.0
 11
5559.06611
 21
4597.693136
 31
0.0
  0
LINE
  8
SUNPOU
 10
5739.53325
 20
4597.693136
 30
0.0
 11
5539.06611
 21
4597.693136
 31
0.0
  0
LINE
  8
SUNPOU
 10
6050.000062
 20
4447.693136
 30
0.0
 11
5539.06611
 21
4447.693136
 31
0.0
  0
TEXT
  8
SUNPOU
 10
8249.542253
 20
4370.97885
 30
0.0
 40
60.0
  1
282
 50
90.0
  7
K
 72
     1
 11
8249.542253
 21
4456.693136
 31
0.0
  0
INSERT
  8
SUNPOU
  2
ARROWANG
 10
8279.542253
 20
4597.693136
 30
0.0
 41
30.0
 42
30.0
 50
90.0
 43
30.0
  0
INSERT
  8
SUNPOU
  2
ARROWANG
 10
8279.542253
 20
4315.693136
 30
0.0
 41
30.0
 42
30.0
 50
270.0
 43
30.0
  0
LINE
  8
SUNPOU
 10
8279.542253
 20
4315.693136
 30
0.0
 11
8279.542253
 21
4597.693136
 31
0.0
  0
LINE
  8
SUNPOU
 10
7899.53325
 20
4597.693136
 30
0.0
 11
8299.542253
 21
4597.693136
 31
0.0
  0
LINE
  8
SUNPOU
 10
8138.503297
 20
4315.693136
 30
0.0
 11
8299.542253
 21
4315.693136
 31
0.0
  0
LINE
  8
JISSEN
 10
7781.53325
 20
4597.693136
 30
0.0
 11
7772.53325
 21
4565.693136
 31
0.0
  0
LINE
  8
JISSEN
 10
7879.53325
 20
4597.693136
 30
0.0
 11
6819.53325
 21
4597.693136
 31
0.0
  0
LINE
  8
JISSEN
 10
5857.53325
 20
4597.693136
 30
0.0
 11
5866.53325
 21
4565.693136
 31
0.0
  0
LINE
  8
JISSEN
 10
5759.53325
 20
4597.693136
 30
0.0
 11
6819.53325
 21
4597.693136
 31
0.0
  0
TEXT
  8
TEXT
 10
7968.887139
 20
2007.339429
 30
0.0
 40
60.0
  1
M20 8ケ所
  7
K
  0
CIRCLE
  8
JISSEN
 10
6819.53325
 20
2570.5748
 30
0.0
 40
1060.0
  0
LINE
  8
ITTEN
 10
6819.53325
 20
3680.5748
 30
0.0
 11
6819.53325
 21
1460.5748
 31
0.0
  0
LINE
  8
ITTEN
 10
7929.53325
 20
2570.5748
 30
0.0
 11
5709.53325
 21
2570.5748
 31
0.0
  0
LINE
  8
JISSEN
 10
5759.53325
 20
4315.693136
 30
0.0
 11
7879.53325
 21
4315.693136
 31
0.0
  0
LINE
  8
JISSEN
 10
5759.53325
 20
4315.693136
 30
0.0
 11
5759.53325
 21
4597.693136
 31
0.0
  0
LINE
  8
JISSEN
 10
7879.53325
 20
4315.693136
 30
0.0
 11
7879.53325
 21
4597.693136
 31
0.0
  0
LINE
  8
JISSEN
 10
5866.53325
 20
4565.693136
 30
0.0
 11
6419.53325
 21
4565.693136
 31
0.0
  0
LINE
  8
ITTEN
 10
6819.53325
 20
4615.693136
 30
0.0
 11
6819.53325
 21
4265.693136
 31
0.0
  0
LINE
  8
JISSEN
 10
6419.53325
 20
4565.693136
 30
0.0
 11
7219.53325
 21
4565.693136
 31
0.0
  0
LINE
  8
JISSEN
 10
7772.53325
 20
4565.693136
 30
0.0
 11
7219.53325
 21
4565.693136
 31
0.0
  0
CIRCLE
  8
JISSEN
 10
6819.53325
 20
2570.5748
 30
0.0
 40
962.0
  0
CIRCLE
  8
JISSEN
 10
6819.53325
 20
2570.5748
 30
0.0
 40
953.0
  0
LINE
  8
SUNPOU
 10
5759.53325
 20
4295.693136
 30
0.0
 11
5759.53325
 21
3993.415165
 31
0.0
  0
LINE
  8
SUNPOU
 10
7879.53325
 20
4295.693136
 30
0.0
 11
7879.53325
 21
3993.415165
 31
0.0
  0
LINE
  8
SUNPOU
 10
5759.53325
 20
4013.415165
 30
0.0
 11
7879.53325
 21
4013.415165
 31
0.0
  0
INSERT
  8
SUNPOU
  2
ARROWANG
 10
7879.53325
 20
4013.415165
 30
0.0
 41
30.0
 42
30.0
 43
30.0
  0
INSERT
  8
SUNPOU
  2
ARROWANG
 10
5759.53325
 20
4013.415165
 30
0.0
 41
30.0
 42
30.0
 50
180.0
 43
30.0
  0
TEXT
  8
SUNPOU
 10
6695.989502
 20
4043.415165
 30
0.0
 40
60.0
  1
2120
  7
K
 72
     1
 11
6810.275217
 21
4043.415165
 31
0.0
  0
LINE
  8
SUNPOU
 10
5857.53325
 20
4617.693136
 30
0.0
 11
5857.53325
 21
4938.082808
 31
0.0
  0
LINE
  8
SUNPOU
 10
7781.53325
 20
4617.693136
 30
0.0
 11
7781.53325
 21
4938.082808
 31
0.0
  0
LINE
  8
SUNPOU
 10
5857.53325
 20
4918.082808
 30
0.0
 11
7781.53325
 21
4918.082808
 31
0.0
  0
INSERT
  8
SUNPOU
  2
ARROWANG
 10
5857.53325
 20
4918.082808
 30
0.0
 41
30.0
 42
30.0
 50
180.0
 43
30.0
  0
INSERT
  8
SUNPOU
  2
ARROWANG
 10
7781.53325
 20
4918.082808
 30
0.0
 41
30.0
 42
30.0
 43
30.0
  0
TEXT
  8
SUNPOU
 10
6699.53326
 20
4948.082808
 30
0.0
 40
60.0
  1
1924
  7
K
 72
     1
 11
6819.53326
 21
4948.082808
 31
0.0
  0
LINE
  8
SUNPOU
 10
5866.53325
 20
4585.693136
 30
0.0
 11
5866.53325
 21
4808.773158
 31
0.0
  0
LINE
  8
SUNPOU
 10
7772.53325
 20
4585.693136
 30
0.0
 11
7772.53325
 21
4808.773158
 31
0.0
  0
LINE
  8
SUNPOU
 10
5866.53325
 20
4788.773158
 30
0.0
 11
7772.53325
 21
4788.773158
 31
0.0
  0
INSERT
  8
SUNPOU
  2
ARROWANG
 10
5866.53325
 20
4788.773158
 30
0.0
 41
30.0
 42
30.0
 50
180.0
 43
30.0
  0
INSERT
  8
SUNPOU
  2
ARROWANG
 10
7772.53325
 20
4788.773158
 30
0.0
 41
30.0
 42
30.0
 43
30.0
  0
TEXT
  8
SUNPOU
 10
6700.961831
 20
4818.773158
 30
0.0
 40
60.0
  1
1906
  7
K
 72
     1
 11
6819.53326
 21
4818.773158
 31
0.0
  0
LINE
  8
SUNPOU
 10
7899.53325
 20
4315.693136
 30
0.0
 11
8118.503297
 21
4315.693136
 31
0.0
  0
LINE
  8
SUNPOU
 10
7792.53325
 20
4565.693136
 30
0.0
 11
8118.503297
 21
4565.693136
 31
0.0
  0
LINE
  8
SUNPOU
 10
8098.503297
 20
4315.693136
 30
0.0
 11
8098.503297
 21
4565.693136
 31
0.0
  0
INSERT
  8
SUNPOU
  2
ARROWANG
 10
8098.503297
 20
4315.693136
 30
0.0
 41
30.0
 42
30.0
 50
270.0
 43
30.0
  0
INSERT
  8
SUNPOU
  2
ARROWANG
 10
8098.503297
 20
4565.693136
 30
0.0
 41
30.0
 42
30.0
 50
90.0
 43
30.0
  0
TEXT
  8
SUNPOU
 10
8068.503297
 20
4354.97885
 30
0.0
 40
60.0
  1
250
 50
90.0
  7
K
 72
     1
 11
8068.503297
 21
4440.693136
 31
0.0
  0
LINE
  8
SUNPOU
 10
7806.063049
 20
2958.336266
 30
0.0
 11
5833.00345
 21
2182.813333
 31
0.0
  0
INSERT
  8
SUNPOU
  2
ARROWANG
 10
7806.063049
 20
2958.336266
 30
0.0
 41
30.0
 42
30.0
 50
21.457606
 43
30.0
  0
INSERT
  8
SUNPOU
  2
ARROWANG
 10
5833.00345
 20
2182.813333
 30
0.0
 41
30.0
 42
30.0
 50
201.457606
 43
30.0
  0
TEXT
  8
SUNPOU
 10
7073.571113
 20
2693.633575
 30
0.0
 40
60.0
  1
%%C2120
 50
21.457606
  7
K
 72
     1
 11
7201.208391
 21
2743.802175
 31
0.0
  0
INSERT
  8
SUNPOU
  2
ARROWANG
 10
7544.927375
 20
1848.373738
 30
0.0
 41
30.0
 42
30.0
 50
210.276366
 43
30.0
  0
LINE
  8
SUNPOU
 10
7544.927375
 20
1848.373738
 30
0.0
 11
7953.097717
 21
2086.663428
 31
0.0
  0
INSERT
  8
SUNPOU
  2
ARROWANG
 10
7217.628674
 20
1618.582491
 30
0.0
 41
30.0
 42
30.0
 50
212.474252
 43
30.0
  0
LINE
  8
SUNPOU
 10
7217.628674
 20
1618.582491
 30
0.0
 11
7953.097717
 21
2086.663428
 31
0.0
  0
TEXT
  8
SUNPOU
 10
7953.097717
 20
2106.663428
 30
0.0
 40
60.0
  1
埋込みアンカー
  7
K
  0
LINE
  8
SUNPOU
 10
7953.097717
 20
2086.663428
 30
0.0
 11
8463.106425
 21
2086.663428
 31
0.0
  0
CIRCLE
  8
TEXT
 10
7569.066438
 20
4447.693136
 30
0.0
 40
15.0
  0
LINE
  8
ITTEN
 10
7569.066438
 20
4472.693136
 30
0.0
 11
7569.066438
 21
4422.693136
 31
0.0
  0
LINE
  8
ITTEN
 10
7594.066438
 20
4447.693136
 30
0.0
 11
7544.066438
 21
4447.693136
 31
0.0
  0
LINE
  8
ITTEN
 10
7250.177688
 20
4447.693136
 30
0.0
 11
7200.177688
 21
4447.693136
 31
0.0
  0
LINE
  8
ITTEN
 10
7225.177688
 20
4472.693136
 30
0.0
 11
7225.177688
 21
4422.693136
 31
0.0
  0
CIRCLE
  8
TEXT
 10
7225.177688
 20
4447.693136
 30
0.0
 40
15.0
  0
CIRCLE
  8
TEXT
 10
6413.888811
 20
4447.693136
 30
0.0
 40
15.0
  0
LINE
  8
ITTEN
 10
6413.888811
 20
4472.693136
 30
0.0
 11
6413.888811
 21
4422.693136
 31
0.0
  0
LINE
  8
ITTEN
 10
6388.888811
 20
4447.693136
 30
0.0
 11
6438.888811
 21
4447.693136
 31
0.0
  0
LINE
  8
ITTEN
 10
6045.000062
 20
4447.693136
 30
0.0
 11
6095.000062
 21
4447.693136
 31
0.0
  0
LINE
  8
ITTEN
 10
6070.000062
 20
4472.693136
 30
0.0
 11
6070.000062
 21
4422.693136
 31
0.0
  0
CIRCLE
  8
TEXT
 10
6070.000062
 20
4447.693136
 30
0.0
 40
15.0
  0
LINE
  8
HASEN
 10
6080.606663
 20
3330.714589
 30
0.0
 11
6151.317342
 21
3260.003911
 31
0.0
  0
LINE
  8
HASEN
 10
6130.104138
 20
3238.790708
 30
0.0
 11
6151.317342
 21
3260.003911
 31
0.0
  0
LINE
  8
HASEN
 10
6059.39346
 20
3309.501386
 30
0.0
 11
6130.104138
 21
3238.790708
 31
0.0
  0
LINE
  8
HASEN
 10
6427.747004
 20
3555.627356
 30
0.0
 11
6466.015348
 21
3463.239402
 31
0.0
  0
LINE
  8
HASEN
 10
6438.298962
 20
3451.758899
 30
0.0
 11
6466.015348
 21
3463.239402
 31
0.0
  0
LINE
  8
HASEN
 10
6400.030618
 20
3544.146853
 30
0.0
 11
6438.298962
 21
3451.758899
 31
0.0
  0
LINE
  8
HASEN
 10
7239.035881
 20
3544.146853
 30
0.0
 11
7200.767538
 21
3451.758899
 31
0.0
  0
LINE
  8
HASEN
 10
7173.051152
 20
3463.239402
 30
0.0
 11
7200.767538
 21
3451.758899
 31
0.0
  0
LINE
  8
HASEN
 10
7211.319495
 20
3555.627356
 30
0.0
 11
7173.051152
 21
3463.239402
 31
0.0
  0
LINE
  8
HASEN
 10
7579.673039
 20
3309.501386
 30
0.0
 11
7508.962361
 21
3238.790708
 31
0.0
  0
LINE
  8
HASEN
 10
7487.749158
 20
3260.003911
 30
0.0
 11
7508.962361
 21
3238.790708
 31
0.0
  0
LINE
  8
HASEN
 10
7558.459836
 20
3330.714589
 30
0.0
 11
7487.749158
 21
3260.003911
 31
0.0
  0
LINE
  8
HASEN
 10
7558.459836
 20
1810.43501
 30
0.0
 11
7487.749158
 21
1881.145688
 31
0.0
  0
LINE
  8
HASEN
 10
7508.962361
 20
1902.358891
 30
0.0
 11
7487.749158
 21
1881.145688
 31
0.0
  0
LINE
  8
HASEN
 10
7579.673039
 20
1831.648213
 30
0.0
 11
7508.962361
 21
1902.358891
 31
0.0
  0
LINE
  8
HASEN
 10
7211.319495
 20
1585.522244
 30
0.0
 11
7173.051152
 21
1677.910197
 31
0.0
  0
LINE
  8
HASEN
 10
7200.767538
 20
1689.3907
 30
0.0
 11
7173.051152
 21
1677.910197
 31
0.0
  0
LINE
  8
HASEN
 10
7239.035881
 20
1597.002747
 30
0.0
 11
7200.767538
 21
1689.3907
 31
0.0
  0
LINE
  8
HASEN
 10
6400.030618
 20
1597.002747
 30
0.0
 11
6438.298962
 21
1689.3907
 31
0.0
  0
LINE
  8
HASEN
 10
6466.015348
 20
1677.910197
 30
0.0
 11
6438.298962
 21
1689.3907
 31
0.0
  0
LINE
  8
HASEN
 10
6427.747004
 20
1585.522244
 30
0.0
 11
6466.015348
 21
1677.910197
 31
0.0
  0
LINE
  8
HASEN
 10
6059.39346
 20
1831.648213
 30
0.0
 11
6130.104138
 21
1902.358891
 31
0.0
  0
LINE
  8
HASEN
 10
6151.317342
 20
1881.145688
 30
0.0
 11
6130.104138
 21
1902.358891
 31
0.0
  0
LINE
  8
HASEN
 10
6080.606663
 20
1810.43501
 30
0.0
 11
6151.317342
 21
1881.145688
 31
0.0
  0
TEXT
  8
TEXT
 10
6754.321627
 20
5138.672642
 30
0.0
 40
72.0
  1
M4PF
  7
K
  0
POLYLINE
  8
WAKU
 66
     1
 10
0.0
 20
0.0
 30
0.0
 70
     1
  0
VERTEX
  8
WAKU
 10
0.0
 20
0.0
 30
0.0
  0
VERTEX
  8
WAKU
 10
9875.0
 20
0.0
 30
0.0
  0
VERTEX
  8
WAKU
 10
9875.0
 20
6825.0
 30
0.0
  0
VERTEX
  8
WAKU
 10
0.0
 20
6825.0
 30
0.0
  0
SEQEND
  8
WAKU
  0
TEXT
  8
TEXT
 10
9304.909839
 20
861.86901
 30
0.0
 40
120.0
  1
1/25
  7
K
  0
ENDSEC
  0
EOF
