  0
SECTION
  2
HEADER
  9
$ACADVER
  1
AC1009
  9
$INSBASE
 10
0.0
 20
0.0
 30
0.0
  9
$EXTMIN
 10
0.0
 20
0.0
 30
0.0
  9
$EXTMAX
 10
9875.0
 20
6825.0
 30
0.0
  9
$LIMMIN
 10
0.0
 20
0.0
  9
$LIMMAX
 10
9875.0
 20
6825.0
  9
$ORTHOMODE
 70
     0
  9
$REGENMODE
 70
     1
  9
$FILLMODE
 70
     1
  9
$QTEXTMODE
 70
     0
  9
$MIRRTEXT
 70
     0
  9
$DRAGMODE
 70
     2
  9
$LTSCALE
 40
125.0
  9
$OSMODE
 70
    33
  9
$ATTMODE
 70
     1
  9
$TEXTSIZE
 40
60.0
  9
$TRACEWID
 40
0.05
  9
$TEXTSTYLE
  7
K
  9
$CLAYER
  8
SUNPOU
  9
$CELTYPE
  6
BYLAYER
  9
$CECOLOR
 62
   256
  9
$DIMSCALE
 40
25.0
  9
$DIMASZ
 40
1.5
  9
$DIMEXO
 40
1.0
  9
$DIMDLI
 40
6.0
  9
$DIMRND
 40
0.0
  9
$DIMDLE
 40
0.0
  9
$DIMEXE
 40
1.0
  9
$DIMTP
 40
495.0
  9
$DIMTM
 40
0.0
  9
$DIMTXT
 40
3.0
  9
$DIMCEN
 40
0.0
  9
$DIMTSZ
 40
0.0
  9
$DIMTOL
 70
     0
  9
$DIMLIM
 70
     0
  9
$DIMTIH
 70
     0
  9
$DIMTOH
 70
     0
  9
$DIMSE1
 70
     0
  9
$DIMSE2
 70
     0
  9
$DIMTAD
 70
     1
  9
$DIMZIN
 70
     8
  9
$DIMBLK
  1
ARROW
  9
$DIMASO
 70
     0
  9
$DIMSHO
 70
     0
  9
$DIMPOST
  1

  9
$DIMAPOST
  1

  9
$DIMALT
 70
     0
  9
$DIMALTD
 70
     2
  9
$DIMALTF
 40
25.4
  9
$DIMLFAC
 40
1.0
  9
$DIMTOFL
 70
     1
  9
$DIMTVP
 40
0.0
  9
$DIMTIX
 70
     1
  9
$DIMSOXD
 70
     0
  9
$DIMSAH
 70
     0
  9
$DIMBLK1
  1

  9
$DIMBLK2
  1

  9
$DIMSTYLE
  2
*UNNAMED
  9
$DIMCLRD
 70
     0
  9
$DIMCLRE
 70
     0
  9
$DIMCLRT
 70
     0
  9
$DIMTFAC
 40
1.0
  9
$DIMGAP
 40
0.09
  9
$LUNITS
 70
     2
  9
$LUPREC
 70
     2
  9
$AXISMODE
 70
     1
  9
$AXISUNIT
 10
100.0
 20
100.0
  9
$SKETCHINC
 40
0.1
  9
$FILLETRAD
 40
10.0
  9
$AUNITS
 70
     0
  9
$AUPREC
 70
     2
  9
$MENU
  1
d:stdgx5
  9
$ELEVATION
 40
0.0
  9
$PELEVATION
 40
0.0
  9
$THICKNESS
 40
0.0
  9
$LIMCHECK
 70
     0
  9
$BLIPMODE
 70
     1
  9
$CHAMFERA
 40
0.0
  9
$CHAMFERB
 40
0.0
  9
$SKPOLY
 70
     0
  9
$TDCREATE
 40
2450248.663611111
  9
$TDUPDATE
 40
2450248.667500000
  9
$TDINDWG
 40
0.0036111111
  9
$TDUSRTIMER
 40
0.0036111111
  9
$USRTIMER
 70
     1
  9
$ANGBASE
 50
0.0
  9
$ANGDIR
 70
     0
  9
$PDMODE
 70
     0
  9
$PDSIZE
 40
0.0
  9
$PLINEWID
 40
0.0
  9
$COORDS
 70
     2
  9
$SPLFRAME
 70
     0
  9
$SPLINETYPE
 70
     6
  9
$SPLINESEGS
 70
     8
  9
$ATTDIA
 70
     0
  9
$ATTREQ
 70
     1
  9
$HANDLING
 70
     0
  9
$HANDSEED
  5
0
  9
$SURFTAB1
 70
     6
  9
$SURFTAB2
 70
     6
  9
$SURFTYPE
 70
     6
  9
$SURFU
 70
     6
  9
$SURFV
 70
     6
  9
$UCSNAME
  2

  9
$UCSORG
 10
0.0
 20
0.0
 30
0.0
  9
$UCSXDIR
 10
1.0
 20
0.0
 30
0.0
  9
$UCSYDIR
 10
0.0
 20
1.0
 30
0.0
  9
$PUCSNAME
  2

  9
$PUCSORG
 10
0.0
 20
0.0
 30
0.0
  9
$PUCSXDIR
 10
1.0
 20
0.0
 30
0.0
  9
$PUCSYDIR
 10
0.0
 20
1.0
 30
0.0
  9
$USERI1
 70
     3
  9
$USERI2
 70
    33
  9
$USERI3
 70
     0
  9
$USERI4
 70
     1
  9
$USERI5
 70
     0
  9
$USERR1
 40
25.0
  9
$USERR2
 40
3.0
  9
$USERR3
 40
3.0
  9
$USERR4
 40
1.5
  9
$USERR5
 40
10.0
  9
$WORLDVIEW
 70
     1
  9
$SHADEDGE
 70
     3
  9
$SHADEDIF
 70
    70
  9
$TILEMODE
 70
     1
  9
$MAXACTVP
 70
    16
  9
$PINSBASE
 10
0.0
 20
0.0
 30
0.0
  9
$PLIMCHECK
 70
     0
  9
$PEXTMIN
 10
1.000000E+20
 20
1.000000E+20
 30
1.000000E+20
  9
$PEXTMAX
 10
-1.000000E+20
 20
-1.000000E+20
 30
-1.000000E+20
  9
$PLIMMIN
 10
0.0
 20
0.0
  9
$PLIMMAX
 10
12.0
 20
9.0
  9
$UNITMODE
 70
     0
  9
$VISRETAIN
 70
     0
  0
ENDSEC
  0
SECTION
  2
TABLES
  0
TABLE
  2
VPORT
 70
    10
  0
VPORT
  2
*ACTIVE
 70
     0
 10
0.0
 20
0.0
 11
1.0
 21
1.0
 12
5576.263114
 22
3412.5
 13
0.0
 23
0.0
 14
1.0
 24
1.0
 15
10.0
 25
10.0
 16
0.0
 26
0.0
 36
1.0
 17
0.0
 27
0.0
 37
0.0
 40
6825.0
 41
1.63407
 42
50.0
 43
0.0
 44
0.0
 50
0.0
 51
0.0
 71
     0
 72
   500
 73
     1
 74
     0
 75
     0
 76
     0
 77
     0
 78
     0
  0
VPORT
  2
2
 70
     0
 10
0.5
 20
0.0
 11
1.0
 21
1.0
 12
0.924031
 22
1.052651
 13
0.0
 23
0.0
 14
1.0
 24
1.0
 15
10.0
 25
10.0
 16
0.0
 26
0.0
 36
1.0
 17
0.0
 27
0.0
 37
0.0
 40
2.105302
 41
0.877814
 42
50.0
 43
0.0
 44
0.0
 50
0.0
 51
0.0
 71
     0
 72
   500
 73
     1
 74
     1
 75
     0
 76
     0
 77
     0
 78
     0
  0
VPORT
  2
2
 70
     0
 10
0.0
 20
0.0
 11
0.5
 21
1.0
 12
0.924031
 22
1.052651
 13
0.0
 23
0.0
 14
1.0
 24
1.0
 15
10.0
 25
10.0
 16
0.0
 26
0.0
 36
1.0
 17
0.0
 27
0.0
 37
0.0
 40
2.105302
 41
0.877814
 42
50.0
 43
0.0
 44
0.0
 50
0.0
 51
0.0
 71
     0
 72
   500
 73
     1
 74
     1
 75
     0
 76
     0
 77
     0
 78
     0
  0
VPORT
  2
3
 70
     0
 10
0.0
 20
0.5
 11
1.0
 21
1.0
 12
2.83217
 22
1.052651
 13
0.0
 23
0.0
 14
1.0
 24
1.0
 15
10.0
 25
10.0
 16
0.0
 26
0.0
 36
1.0
 17
0.0
 27
0.0
 37
0.0
 40
2.105302
 41
3.571429
 42
50.0
 43
0.0
 44
0.0
 50
0.0
 51
0.0
 71
     0
 72
   500
 73
     1
 74
     1
 75
     0
 76
     0
 77
     0
 78
     0
  0
VPORT
  2
3
 70
     0
 10
0.0
 20
0.0
 11
1.0
 21
0.5
 12
2.856742
 22
1.052651
 13
0.0
 23
0.0
 14
1.0
 24
1.0
 15
10.0
 25
10.0
 16
0.0
 26
0.0
 36
1.0
 17
0.0
 27
0.0
 37
0.0
 40
2.105302
 41
3.594771
 42
50.0
 43
0.0
 44
0.0
 50
0.0
 51
0.0
 71
     0
 72
   500
 73
     1
 74
     1
 75
     0
 76
     0
 77
     0
 78
     0
  0
VPORT
  2
4
 70
     0
 10
0.5
 20
0.0
 11
1.0
 21
0.5
 12
2.886858
 22
1.052651
 13
0.0
 23
0.0
 14
1.0
 24
1.0
 15
10.0
 25
10.0
 16
0.0
 26
0.0
 36
1.0
 17
0.0
 27
0.0
 37
0.0
 40
4.275207
 41
1.784314
 42
50.0
 43
0.0
 44
0.0
 50
0.0
 51
0.0
 71
     0
 72
   500
 73
     1
 74
     1
 75
     0
 76
     0
 77
     0
 78
     0
  0
VPORT
  2
4
 70
     0
 10
0.5
 20
0.5
 11
1.0
 21
1.0
 12
2.86209
 22
1.052651
 13
0.0
 23
0.0
 14
1.0
 24
1.0
 15
10.0
 25
10.0
 16
0.0
 26
0.0
 36
1.0
 17
0.0
 27
0.0
 37
0.0
 40
4.275207
 41
1.772727
 42
50.0
 43
0.0
 44
0.0
 50
0.0
 51
0.0
 71
     0
 72
   500
 73
     1
 74
     1
 75
     0
 76
     0
 77
     0
 78
     0
  0
VPORT
  2
4
 70
     0
 10
0.0
 20
0.5
 11
0.5
 21
1.0
 12
2.86209
 22
1.052651
 13
0.0
 23
0.0
 14
1.0
 24
1.0
 15
10.0
 25
10.0
 16
0.0
 26
0.0
 36
1.0
 17
0.0
 27
0.0
 37
0.0
 40
4.275207
 41
1.772727
 42
50.0
 43
0.0
 44
0.0
 50
0.0
 51
0.0
 71
     0
 72
   500
 73
     1
 74
     1
 75
     0
 76
     0
 77
     0
 78
     0
  0
VPORT
  2
4
 70
     0
 10
0.0
 20
0.0
 11
0.5
 21
0.5
 12
2.886858
 22
1.052651
 13
0.0
 23
0.0
 14
1.0
 24
1.0
 15
10.0
 25
10.0
 16
0.0
 26
0.0
 36
1.0
 17
0.0
 27
0.0
 37
0.0
 40
4.275207
 41
1.784314
 42
50.0
 43
0.0
 44
0.0
 50
0.0
 51
0.0
 71
     0
 72
   500
 73
     1
 74
     1
 75
     0
 76
     0
 77
     0
 78
     0
  0
ENDTAB
  0
TABLE
  2
LTYPE
 70
     5
  0
LTYPE
  2
CONTINUOUS
 70
    64
  3
実線
 72
    65
 73
     0
 40
0.0
  0
LTYPE
  2
DASHED
 70
    64
  3
__ __ __ __ __ __ __ __ __ __ __ __ __ __ __
 72
    65
 73
     2
 40
0.75
 49
0.5
 49
-0.25
  0
LTYPE
  2
CENTER
 70
    64
  3
____ _ ____ _ ____ _ ____ _ ____ _ ____ _ ____
 72
    65
 73
     4
 40
2.0
 49
1.25
 49
-0.25
 49
0.25
 49
-0.25
  0
LTYPE
  2
PHANTOM
 70
    64
  3
_____ _ _ _____ _ _ _____ _ _ _____ _ _ ____
 72
    65
 73
     6
 40
2.5
 49
1.25
 49
-0.25
 49
0.25
 49
-0.25
 49
0.25
 49
-0.25
  0
LTYPE
  2
HIDDEN
 70
    64
  3
_ _ _ _ _ _ _ _ _ _ _ _ _ _ _ _ _ _ _ _ _ _ _
 72
    65
 73
     2
 40
0.375
 49
0.25
 49
-0.125
  0
ENDTAB
  0
TABLE
  2
LAYER
 70
    14
  0
LAYER
  2
0
 70
    64
 62
     7
  6
CONTINUOUS
  0
LAYER
  2
HASEN
 70
    64
 62
     2
  6
DASHED
  0
LAYER
  2
ITTEN
 70
    64
 62
     1
  6
CENTER
  0
LAYER
  2
NITEN
 70
    64
 62
     2
  6
PHANTOM
  0
LAYER
  2
HATCH
 70
    64
 62
     4
  6
CONTINUOUS
  0
LAYER
  2
SUNPOU
 70
    64
 62
     3
  6
CONTINUOUS
  0
LAYER
  2
TEXT
 70
    64
 62
     3
  6
CONTINUOUS
  0
LAYER
  2
JISSEN
 70
    64
 62
     7
  6
CONTINUOUS
  0
LAYER
  2
WAKU
 70
    64
 62
    -5
  6
CONTINUOUS
  0
ENDTAB
  0
TABLE
  2
STYLE
 70
     2
  0
STYLE
  2
STANDARD
 70
     0
 40
0.0
 41
1.0
 50
0.0
 71
     0
 42
0.2
  3
ROMANS
  4
EXTFONT
  0
STYLE
  2
K
 70
    64
 40
0.0
 41
1.0
 50
0.0
 71
     0
 42
60.0
  3
ROMANS
  4
EXTFONT
  0
ENDTAB
  0
TABLE
  2
VIEW
 70
     0
  0
ENDTAB
  0
TABLE
  2
UCS
 70
     0
  0
ENDTAB
  0
TABLE
  2
APPID
 70
     1
  0
APPID
  2
ACAD
 70
    64
  0
ENDTAB
  0
TABLE
  2
DIMSTYLE
 70
     0
  0
ENDTAB
  0
ENDSEC
  0
SECTION
  2
BLOCKS
  0
BLOCK
  8
SUNPOU
  2
ARROWANG
 70
    64
 10
0.0
 20
0.0
 30
0.0
  3
ARROWANG
  0
LINE
  8
SUNPOU
 10
0.0
 20
0.0
 30
0.0
 11
-1.5
 21
0.401924
 31
0.0
  0
LINE
  8
SUNPOU
 10
0.0
 20
0.0
 30
0.0
 11
-1.5
 21
-0.401924
 31
0.0
  0
ENDBLK
  8
SUNPOU
  0
ENDSEC
  0
SECTION
  2
ENTITIES
  0
TEXT
  8
TEXT
 10
4775.55087
 20
4792.374007
 30
0.0
 40
90.0
  1
M4T
  7
K
  0
TEXT
  8
TEXT
 10
4699.408243
 20
5029.014032
 30
0.0
 40
120.0
  1
斜  壁
  7
K
  0
TEXT
  8
JISSEN
 10
2478.076301
 20
6314.20069
 30
0.0
 40
250.0
  1
４号マンホール（内径１８００ｍｍ）
  7
K
  0
LINE
  8
HASEN
 10
4468.892461
 20
963.366155
 30
0.0
 11
4507.160805
 21
1055.754108
 31
0.0
  0
LINE
  8
HASEN
 10
4534.877191
 20
1044.273605
 30
0.0
 11
4507.160805
 21
1055.754108
 31
0.0
  0
LINE
  8
HASEN
 10
4496.608847
 20
951.885652
 30
0.0
 11
4534.877191
 21
1044.273605
 31
0.0
  0
LINE
  8
HASEN
 10
5307.897724
 20
2910.510261
 30
0.0
 11
5269.629381
 21
2818.122308
 31
0.0
  0
LINE
  8
HASEN
 10
5241.912995
 20
2829.602811
 30
0.0
 11
5269.629381
 21
2818.122308
 31
0.0
  0
LINE
  8
HASEN
 10
5280.181338
 20
2921.990764
 30
0.0
 11
5241.912995
 21
2829.602811
 31
0.0
  0
POINT
  8
SUNPOU
 10
4889.395093
 20
1936.938208
 30
0.0
  0
LINE
  8
HASEN
 10
4128.255303
 20
2675.864794
 30
0.0
 11
4198.965981
 21
2605.154116
 31
0.0
  0
LINE
  8
HASEN
 10
4198.965981
 20
2605.154116
 30
0.0
 11
4220.179185
 21
2626.367319
 31
0.0
  0
LINE
  8
HASEN
 10
4149.468506
 20
2697.077998
 30
0.0
 11
4220.179185
 21
2626.367319
 31
0.0
  0
LINE
  8
HASEN
 10
4149.468506
 20
1176.798418
 30
0.0
 11
4220.179185
 21
1247.509096
 31
0.0
  0
LINE
  8
HASEN
 10
4220.179185
 20
1247.509096
 30
0.0
 11
4198.965981
 21
1268.7223
 31
0.0
  0
LINE
  8
HASEN
 10
4128.255303
 20
1198.011622
 30
0.0
 11
4198.965981
 21
1268.7223
 31
0.0
  0
LINE
  8
HASEN
 10
5307.897724
 20
963.366155
 30
0.0
 11
5269.629381
 21
1055.754108
 31
0.0
  0
LINE
  8
HASEN
 10
5269.629381
 20
1055.754108
 30
0.0
 11
5241.912995
 21
1044.273605
 31
0.0
  0
LINE
  8
HASEN
 10
5280.181338
 20
951.885652
 30
0.0
 11
5241.912995
 21
1044.273605
 31
0.0
  0
LINE
  8
HASEN
 10
5648.534883
 20
1198.011622
 30
0.0
 11
5577.824204
 21
1268.7223
 31
0.0
  0
LINE
  8
HASEN
 10
5577.824204
 20
1268.7223
 30
0.0
 11
5556.611001
 21
1247.509096
 31
0.0
  0
LINE
  8
HASEN
 10
5627.321679
 20
1176.798418
 30
0.0
 11
5556.611001
 21
1247.509096
 31
0.0
  0
LINE
  8
HASEN
 10
5627.321679
 20
2697.077998
 30
0.0
 11
5556.611001
 21
2626.367319
 31
0.0
  0
LINE
  8
HASEN
 10
5556.611001
 20
2626.367319
 30
0.0
 11
5577.824204
 21
2605.154116
 31
0.0
  0
LINE
  8
HASEN
 10
5648.534883
 20
2675.864794
 30
0.0
 11
5577.824204
 21
2605.154116
 31
0.0
  0
LINE
  8
HASEN
 10
4468.892461
 20
2910.510261
 30
0.0
 11
4507.160805
 21
2818.122308
 31
0.0
  0
LINE
  8
HASEN
 10
4507.160805
 20
2818.122308
 30
0.0
 11
4534.877191
 21
2829.602811
 31
0.0
  0
LINE
  8
HASEN
 10
4496.608847
 20
2921.990764
 30
0.0
 11
4534.877191
 21
2829.602811
 31
0.0
  0
LINE
  8
SUNPOU
 10
5295.74855
 20
4058.92541
 30
0.0
 11
6027.269315
 21
4291.382836
 31
0.0
  0
INSERT
  8
SUNPOU
  2
ARROWANG
 10
5295.74855
 20
4058.92541
 30
0.0
 41
30.0
 42
30.0
 50
197.628843
 43
30.0
  0
LINE
  8
ITTEN
 10
5318.952931
 20
4058.289996
 30
0.0
 11
5268.952931
 21
4058.289996
 31
0.0
  0
LINE
  8
ITTEN
 10
5293.952931
 20
4083.289996
 30
0.0
 11
5293.952931
 21
4033.289996
 31
0.0
  0
CIRCLE
  8
HASEN
 10
5293.952931
 20
4058.289996
 30
0.0
 40
15.0
  0
TEXT
  8
SUNPOU
 10
6027.269315
 20
4311.382836
 30
0.0
 40
60.0
  1
埋込みアンカー
  7
K
  0
LINE
  8
SUNPOU
 10
6037.199025
 20
2227.738488
 30
0.0
 11
6575.723574
 21
2227.738488
 31
0.0
  0
TEXT
  8
SUNPOU
 10
6037.199025
 20
2247.738488
 30
0.0
 40
60.0
  1
埋込みアンカー
  7
K
  0
LINE
  8
SUNPOU
 10
5602.816629
 20
2643.5044
 30
0.0
 11
6037.199025
 21
2227.738488
 31
0.0
  0
INSERT
  8
SUNPOU
  2
ARROWANG
 10
5602.816629
 20
2643.5044
 30
0.0
 41
30.0
 42
30.0
 50
136.254458
 43
30.0
  0
TEXT
  8
SUNPOU
 10
4566.720723
 20
2232.949161
 30
0.0
 40
60.0
  1
1100
 50
315.0
  7
K
 72
     1
 11
4650.563385
 21
2149.1065
 31
0.0
  0
INSERT
  8
SUNPOU
  2
ARROWANG
 10
5018.258911
 20
1738.984567
 30
0.0
 41
30.0
 42
30.0
 50
315.0
 43
30.0
  0
INSERT
  8
SUNPOU
  2
ARROWANG
 10
4240.441451
 20
2516.802026
 30
0.0
 41
30.0
 42
30.0
 50
135.0
 43
30.0
  0
LINE
  8
SUNPOU
 10
4240.441451
 20
2516.802026
 30
0.0
 11
5018.258911
 21
1738.984567
 31
0.0
  0
LINE
  8
SUNPOU
 10
4841.445958
 20
1562.171614
 30
0.0
 11
5032.401046
 21
1753.126702
 31
0.0
  0
LINE
  8
SUNPOU
 10
4063.628499
 20
2339.989073
 30
0.0
 11
4254.583587
 21
2530.944162
 31
0.0
  0
LINE
  8
ITTEN
 10
4026.986363
 20
2325.846937
 30
0.0
 11
4071.986363
 21
2325.846937
 31
0.0
  0
LINE
  8
ITTEN
 10
4049.486363
 20
2303.346937
 30
0.0
 11
4049.486363
 21
2348.346937
 31
0.0
  0
CIRCLE
  8
NITEN
 10
4049.486363
 20
2325.846937
 30
0.0
 40
12.5
  0
TEXT
  8
TEXT
 10
5053.499043
 20
1391.509622
 30
0.0
 40
60.0
  1
緊結用アンカー
  7
K
  0
LINE
  8
SUNPOU
 10
5022.59355
 20
1359.848754
 30
0.0
 11
5585.972095
 21
1359.848754
 31
0.0
  0
TEXT
  8
SUNPOU
 10
5046.010928
 20
1279.70043
 30
0.0
 40
60.0
  1
M16 2ケ所
  7
K
  0
LINE
  8
SUNPOU
 10
4827.303822
 20
1548.029478
 30
0.0
 11
5022.59355
 21
1359.848754
 31
0.0
  0
INSERT
  8
SUNPOU
  2
ARROWANG
 10
4827.303822
 20
1548.029478
 30
0.0
 41
30.0
 42
30.0
 50
136.062062
 43
30.0
  0
LINE
  8
ITTEN
 10
4849.803822
 20
1548.029478
 30
0.0
 11
4804.803822
 21
1548.029478
 31
0.0
  0
LINE
  8
ITTEN
 10
4827.303822
 20
1570.529478
 30
0.0
 11
4827.303822
 21
1525.529478
 31
0.0
  0
POINT
  8
NITEN
 10
4439.1022
 20
1936.231101
 30
0.0
  0
CIRCLE
  8
NITEN
 10
4827.303822
 20
1548.029478
 30
0.0
 40
12.5
  0
LINE
  8
SUNPOU
 10
6027.269315
 20
4291.382836
 30
0.0
 11
6631.219829
 21
4291.382836
 31
0.0
  0
LINE
  8
SUNPOU
 10
5652.928281
 20
4058.289996
 30
0.0
 11
6027.269315
 21
4291.382836
 31
0.0
  0
INSERT
  8
SUNPOU
  2
ARROWANG
 10
5652.928281
 20
4058.289996
 30
0.0
 41
30.0
 42
30.0
 50
211.909494
 43
30.0
  0
LINE
  8
ITTEN
 10
5662.928281
 20
4058.289996
 30
0.0
 11
5612.928281
 21
4058.289996
 31
0.0
  0
LINE
  8
ITTEN
 10
5637.928281
 20
4083.289996
 30
0.0
 11
5637.928281
 21
4033.289996
 31
0.0
  0
TEXT
  8
SUNPOU
 10
5712.720944
 20
3893.289996
 30
0.0
 40
60.0
  1
150
 50
90.0
  7
K
 72
     1
 11
5712.720944
 21
3983.289996
 31
0.0
  0
INSERT
  8
SUNPOU
  2
ARROWANG
 10
5742.720944
 20
4058.289996
 30
0.0
 41
30.0
 42
30.0
 50
90.0
 43
30.0
  0
INSERT
  8
SUNPOU
  2
ARROWANG
 10
5742.720944
 20
3908.289996
 30
0.0
 41
30.0
 42
30.0
 50
270.0
 43
30.0
  0
LINE
  8
SUNPOU
 10
5742.720944
 20
3908.289996
 30
0.0
 11
5742.720944
 21
4058.289996
 31
0.0
  0
LINE
  8
SUNPOU
 10
5657.928281
 20
4058.289996
 30
0.0
 11
5762.720944
 21
4058.289996
 31
0.0
  0
LINE
  8
SUNPOU
 10
5828.395093
 20
3908.289996
 30
0.0
 11
5722.720944
 21
3908.289996
 31
0.0
  0
CIRCLE
  8
HASEN
 10
5637.928281
 20
4058.289996
 30
0.0
 40
15.0
  0
POINT
  8
TEXT
 10
4889.1022
 20
1937.645315
 30
0.0
  0
TEXT
  8
SUNPOU
 10
4213.32802
 20
3873.289996
 30
0.0
 40
60.0
  1
150
 50
90.0
  7
K
 72
     1
 11
4213.32802
 21
3963.289996
 31
0.0
  0
INSERT
  8
SUNPOU
  2
ARROWANG
 10
4243.32802
 20
4038.289996
 30
0.0
 41
30.0
 42
30.0
 50
90.0
 43
30.0
  0
INSERT
  8
SUNPOU
  2
ARROWANG
 10
4243.32802
 20
3888.289996
 30
0.0
 41
30.0
 42
30.0
 50
270.0
 43
30.0
  0
LINE
  8
SUNPOU
 10
4243.32802
 20
3888.289996
 30
0.0
 11
4243.32802
 21
4038.289996
 31
0.0
  0
LINE
  8
SUNPOU
 10
4198.395093
 20
4038.289996
 30
0.0
 11
4263.32802
 21
4038.289996
 31
0.0
  0
LINE
  8
SUNPOU
 10
4168.395093
 20
3888.289996
 30
0.0
 11
4263.32802
 21
3888.289996
 31
0.0
  0
LINE
  8
ITTEN
 10
4178.395093
 20
4038.289996
 30
0.0
 11
3958.395093
 21
4038.289996
 31
0.0
  0
LINE
  8
JISSEN
 10
3988.395093
 20
4028.289996
 30
0.0
 11
4138.395093
 21
4028.289996
 31
0.0
  0
LINE
  8
JISSEN
 10
3988.395093
 20
4048.289996
 30
0.0
 11
4138.395093
 21
4048.289996
 31
0.0
  0
ARC
  8
JISSEN
 10
4138.395093
 20
4038.289996
 30
0.0
 40
10.0
 50
270.0
 51
90.0
  0
TEXT
  8
SUNPOU
 10
3818.395103
 20
4020.437954
 30
0.0
 40
60.0
  1
160
  7
K
 72
     1
 11
3908.395103
 21
4020.437954
 31
0.0
  0
INSERT
  8
SUNPOU
  2
ARROWANG
 10
3988.395093
 20
3990.437954
 30
0.0
 41
30.0
 42
30.0
 43
30.0
  0
INSERT
  8
SUNPOU
  2
ARROWANG
 10
3828.395093
 20
3990.437954
 30
0.0
 41
30.0
 42
30.0
 50
180.0
 43
30.0
  0
LINE
  8
SUNPOU
 10
3828.395093
 20
3990.437954
 30
0.0
 11
3988.395093
 21
3990.437954
 31
0.0
  0
LINE
  8
SUNPOU
 10
3988.395093
 20
3908.289996
 30
0.0
 11
3988.395093
 21
4010.437954
 31
0.0
  0
LINE
  8
SUNPOU
 10
3828.395093
 20
3928.289996
 30
0.0
 11
3828.395093
 21
4010.437954
 31
0.0
  0
TEXT
  8
SUNPOU
 10
5115.713955
 20
4212.147139
 30
0.0
 40
60.0
  1
23
 50
90.0
  7
K
 72
     1
 11
5115.713955
 21
4269.289996
 31
0.0
  0
LINE
  8
SUNPOU
 10
5145.713955
 20
4180.289996
 30
0.0
 11
5145.713956
 21
4120.289996
 31
0.0
  0
LINE
  8
SUNPOU
 10
5145.713955
 20
4203.289996
 30
0.0
 11
5145.713955
 21
4329.289996
 31
0.0
  0
INSERT
  8
SUNPOU
  2
ARROWANG
 10
5145.713955
 20
4203.289996
 30
0.0
 41
30.0
 42
30.0
 50
270.0
 43
30.0
  0
INSERT
  8
SUNPOU
  2
ARROWANG
 10
5145.713955
 20
4180.289996
 30
0.0
 41
30.0
 42
30.0
 50
90.0
 43
30.0
  0
LINE
  8
SUNPOU
 10
5145.713955
 20
4180.289996
 30
0.0
 11
5145.713955
 21
4203.289996
 31
0.0
  0
LINE
  8
SUNPOU
 10
4936.395093
 20
4203.289996
 30
0.0
 11
5165.713955
 21
4203.289996
 31
0.0
  0
LINE
  8
SUNPOU
 10
4936.395093
 20
4180.289996
 30
0.0
 11
5165.713955
 21
4180.289996
 31
0.0
  0
TEXT
  8
SUNPOU
 10
6176.575633
 20
3765.147139
 30
0.0
 40
60.0
  1
20
 50
90.0
  7
K
 72
     1
 11
6176.575633
 21
3822.289996
 31
0.0
  0
LINE
  8
SUNPOU
 10
6206.575633
 20
3908.289996
 30
0.0
 11
6206.575633
 21
3968.289996
 31
0.0
  0
LINE
  8
SUNPOU
 10
6206.575633
 20
3888.289996
 30
0.0
 11
6206.575633
 21
3762.289996
 31
0.0
  0
INSERT
  8
SUNPOU
  2
ARROWANG
 10
6206.575633
 20
3908.289996
 30
0.0
 41
30.0
 42
30.0
 50
270.0
 43
30.0
  0
INSERT
  8
SUNPOU
  2
ARROWANG
 10
6206.575633
 20
3888.289996
 30
0.0
 41
30.0
 42
30.0
 50
90.0
 43
30.0
  0
LINE
  8
SUNPOU
 10
6206.575633
 20
3888.289996
 30
0.0
 11
6206.575633
 21
3908.289996
 31
0.0
  0
LINE
  8
SUNPOU
 10
6226.575633
 20
3908.289996
 30
0.0
 11
6226.575633
 21
3908.289996
 31
0.0
  0
LINE
  8
SUNPOU
 10
5968.395093
 20
3888.289996
 30
0.0
 11
6226.575633
 21
3888.289996
 31
0.0
  0
TEXT
  8
SUNPOU
 10
6176.575633
 20
3970.07571
 30
0.0
 40
60.0
  1
295
 50
90.0
  7
K
 72
     1
 11
6176.575633
 21
4055.789996
 31
0.0
  0
INSERT
  8
SUNPOU
  2
ARROWANG
 10
6206.575633
 20
4203.289996
 30
0.0
 41
30.0
 42
30.0
 50
90.0
 43
30.0
  0
INSERT
  8
SUNPOU
  2
ARROWANG
 10
6206.575633
 20
3908.289996
 30
0.0
 41
30.0
 42
30.0
 50
270.0
 43
30.0
  0
LINE
  8
SUNPOU
 10
6206.575633
 20
3908.289996
 30
0.0
 11
6206.575633
 21
4203.289996
 31
0.0
  0
LINE
  8
SUNPOU
 10
5968.395093
 20
4203.289996
 30
0.0
 11
6226.575633
 21
4203.289996
 31
0.0
  0
LINE
  8
SUNPOU
 10
5968.395093
 20
3908.289996
 30
0.0
 11
6226.575633
 21
3908.289996
 31
0.0
  0
TEXT
  8
SUNPOU
 10
6372.628099
 20
3960.07571
 30
0.0
 40
60.0
  1
315
 50
90.0
  7
K
 72
     1
 11
6372.628099
 21
4045.789996
 31
0.0
  0
INSERT
  8
SUNPOU
  2
ARROWANG
 10
6402.628099
 20
4203.289996
 30
0.0
 41
30.0
 42
30.0
 50
90.0
 43
30.0
  0
INSERT
  8
SUNPOU
  2
ARROWANG
 10
6402.628099
 20
3888.289996
 30
0.0
 41
30.0
 42
30.0
 50
270.0
 43
30.0
  0
LINE
  8
SUNPOU
 10
6402.628099
 20
3888.289996
 30
0.0
 11
6402.628099
 21
4203.289996
 31
0.0
  0
LINE
  8
SUNPOU
 10
5968.395093
 20
4203.289996
 30
0.0
 11
6422.628099
 21
4203.289996
 31
0.0
  0
LINE
  8
SUNPOU
 10
5856.395093
 20
3888.289996
 30
0.0
 11
6422.628099
 21
3888.289996
 31
0.0
  0
TEXT
  8
SUNPOU
 10
4352.680817
 20
4352.043887
 30
0.0
 40
60.0
  1
900
  7
K
 72
     1
 11
4438.395103
 21
4352.043887
 31
0.0
  0
INSERT
  8
SUNPOU
  2
ARROWANG
 10
4888.395093
 20
4322.043887
 30
0.0
 41
30.0
 42
30.0
 43
30.0
  0
INSERT
  8
SUNPOU
  2
ARROWANG
 10
3988.395093
 20
4322.043887
 30
0.0
 41
30.0
 42
30.0
 50
180.0
 43
30.0
  0
LINE
  8
SUNPOU
 10
3988.395093
 20
4322.043887
 30
0.0
 11
4888.395093
 21
4322.043887
 31
0.0
  0
LINE
  8
SUNPOU
 10
4888.395093
 20
4223.289996
 30
0.0
 11
4888.395093
 21
4342.043887
 31
0.0
  0
LINE
  8
SUNPOU
 10
3988.395093
 20
4200.289996
 30
0.0
 11
3988.395093
 21
4342.043887
 31
0.0
  0
TEXT
  8
SUNPOU
 10
4352.680817
 20
4490.685161
 30
0.0
 40
60.0
  1
956
  7
K
 72
     1
 11
4438.395103
 21
4490.685161
 31
0.0
  0
INSERT
  8
SUNPOU
  2
ARROWANG
 10
4916.395093
 20
4460.685161
 30
0.0
 41
30.0
 42
30.0
 43
30.0
  0
INSERT
  8
SUNPOU
  2
ARROWANG
 10
3960.395093
 20
4460.685161
 30
0.0
 41
30.0
 42
30.0
 50
180.0
 43
30.0
  0
LINE
  8
SUNPOU
 10
3960.395093
 20
4460.685161
 30
0.0
 11
4916.395093
 21
4460.685161
 31
0.0
  0
LINE
  8
SUNPOU
 10
4916.395093
 20
4200.289996
 30
0.0
 11
4916.395093
 21
4480.685161
 31
0.0
  0
LINE
  8
SUNPOU
 10
3960.395093
 20
4200.289996
 30
0.0
 11
3960.395093
 21
4480.685161
 31
0.0
  0
TEXT
  8
SUNPOU
 10
4352.680817
 20
4625.993713
 30
0.0
 40
60.0
  1
970
  7
K
 72
     1
 11
4438.395103
 21
4625.993713
 31
0.0
  0
INSERT
  8
SUNPOU
  2
ARROWANG
 10
4923.395093
 20
4595.993713
 30
0.0
 41
30.0
 42
30.0
 43
30.0
  0
INSERT
  8
SUNPOU
  2
ARROWANG
 10
3953.395093
 20
4595.993713
 30
0.0
 41
30.0
 42
30.0
 50
180.0
 43
30.0
  0
LINE
  8
SUNPOU
 10
3953.395093
 20
4595.993713
 30
0.0
 11
4923.395093
 21
4595.993713
 31
0.0
  0
LINE
  8
SUNPOU
 10
4923.395093
 20
4223.289996
 30
0.0
 11
4923.395093
 21
4615.993713
 31
0.0
  0
LINE
  8
SUNPOU
 10
3953.395093
 20
4223.289996
 30
0.0
 11
3953.395093
 21
4615.993713
 31
0.0
  0
TEXT
  8
SUNPOU
 10
4769.823674
 20
3739.656046
 30
0.0
 40
60.0
  1
1896
  7
K
 72
     1
 11
4888.395103
 21
3739.656046
 31
0.0
  0
INSERT
  8
SUNPOU
  2
ARROWANG
 10
5836.395093
 20
3709.656046
 30
0.0
 41
30.0
 42
30.0
 43
30.0
  0
INSERT
  8
SUNPOU
  2
ARROWANG
 10
3940.395093
 20
3709.656046
 30
0.0
 41
30.0
 42
30.0
 50
180.0
 43
30.0
  0
LINE
  8
SUNPOU
 10
3940.395093
 20
3709.656046
 30
0.0
 11
5836.395093
 21
3709.656046
 31
0.0
  0
LINE
  8
SUNPOU
 10
5836.395093
 20
3868.289996
 30
0.0
 11
5836.395093
 21
3689.656046
 31
0.0
  0
LINE
  8
SUNPOU
 10
3940.395093
 20
3868.289996
 30
0.0
 11
3940.395093
 21
3689.656046
 31
0.0
  0
TEXT
  8
SUNPOU
 10
4769.823674
 20
3563.854911
 30
0.0
 40
60.0
  1
1920
  7
K
 72
     1
 11
4888.395103
 21
3563.854911
 31
0.0
  0
INSERT
  8
SUNPOU
  2
ARROWANG
 10
5848.395093
 20
3533.854911
 30
0.0
 41
30.0
 42
30.0
 43
30.0
  0
INSERT
  8
SUNPOU
  2
ARROWANG
 10
3928.395093
 20
3533.854911
 30
0.0
 41
30.0
 42
30.0
 50
180.0
 43
30.0
  0
LINE
  8
SUNPOU
 10
3928.395093
 20
3533.854911
 30
0.0
 11
5848.395093
 21
3533.854911
 31
0.0
  0
LINE
  8
SUNPOU
 10
5848.395093
 20
3888.289996
 30
0.0
 11
5848.395093
 21
3513.854911
 31
0.0
  0
LINE
  8
SUNPOU
 10
3928.395093
 20
3888.289996
 30
0.0
 11
3928.395093
 21
3513.854911
 31
0.0
  0
TEXT
  8
SUNPOU
 10
4774.109388
 20
3371.056888
 30
0.0
 40
60.0
  1
2120
  7
K
 72
     1
 11
4888.395103
 21
3371.056888
 31
0.0
  0
INSERT
  8
SUNPOU
  2
ARROWANG
 10
5948.395093
 20
3341.056888
 30
0.0
 41
30.0
 42
30.0
 43
30.0
  0
INSERT
  8
SUNPOU
  2
ARROWANG
 10
3828.395093
 20
3341.056888
 30
0.0
 41
30.0
 42
30.0
 50
180.0
 43
30.0
  0
LINE
  8
SUNPOU
 10
3828.395093
 20
3341.056888
 30
0.0
 11
5948.395093
 21
3341.056888
 31
0.0
  0
LINE
  8
SUNPOU
 10
5948.395093
 20
3888.289996
 30
0.0
 11
5948.395093
 21
3321.056888
 31
0.0
  0
LINE
  8
SUNPOU
 10
3828.395093
 20
3888.289996
 30
0.0
 11
3828.395093
 21
3321.056888
 31
0.0
  0
LINE
  8
JISSEN
 10
4888.395093
 20
4180.289996
 30
0.0
 11
4888.395093
 21
3888.289996
 31
0.0
  0
LINE
  8
JISSEN
 10
3988.395093
 20
4180.289996
 30
0.0
 11
4888.395093
 21
4180.289996
 31
0.0
  0
LINE
  8
JISSEN
 10
3953.395093
 20
4203.289996
 30
0.0
 11
4923.395093
 21
4203.289996
 31
0.0
  0
LINE
  8
JISSEN
 10
3988.395093
 20
4180.289996
 30
0.0
 11
3988.395093
 21
3888.289996
 31
0.0
  0
LINE
  8
JISSEN
 10
4916.395093
 20
4180.289996
 30
0.0
 11
4888.395093
 21
4180.289996
 31
0.0
  0
LINE
  8
JISSEN
 10
4923.395093
 20
4203.289996
 30
0.0
 11
4916.395093
 21
4180.289996
 31
0.0
  0
LINE
  8
JISSEN
 10
5948.395093
 20
4203.289996
 30
0.0
 11
4923.395093
 21
4203.289996
 31
0.0
  0
LINE
  8
ITTEN
 10
4438.395093
 20
4230.289996
 30
0.0
 11
4438.395093
 21
3838.289996
 31
0.0
  0
LINE
  8
JISSEN
 10
3960.395093
 20
4180.289996
 30
0.0
 11
3988.395093
 21
4180.289996
 31
0.0
  0
LINE
  8
JISSEN
 10
3953.395093
 20
4203.289996
 30
0.0
 11
3960.395093
 21
4180.289996
 31
0.0
  0
LINE
  8
JISSEN
 10
3828.395093
 20
4203.289996
 30
0.0
 11
3953.395093
 21
4203.289996
 31
0.0
  0
LINE
  8
JISSEN
 10
5848.395093
 20
3908.289996
 30
0.0
 11
5836.395093
 21
3888.289996
 31
0.0
  0
LINE
  8
JISSEN
 10
5948.395093
 20
3908.289996
 30
0.0
 11
5848.395093
 21
3908.289996
 31
0.0
  0
LINE
  8
ITTEN
 10
4888.395093
 20
4253.289996
 30
0.0
 11
4888.395093
 21
3838.289996
 31
0.0
  0
LINE
  8
JISSEN
 10
3928.395093
 20
3908.289996
 30
0.0
 11
3940.395093
 21
3888.289996
 31
0.0
  0
LINE
  8
JISSEN
 10
3828.395093
 20
3908.289996
 30
0.0
 11
3928.395093
 21
3908.289996
 31
0.0
  0
CIRCLE
  8
HASEN
 10
4888.395093
 20
1936.938208
 30
0.0
 40
960.0
  0
CIRCLE
  8
HASEN
 10
4888.395093
 20
1936.938208
 30
0.0
 40
948.0
  0
TEXT
  8
SUNPOU
 10
4127.680807
 20
774.489938
 30
0.0
 40
60.0
  1
450
  7
K
 72
     1
 11
4213.395093
 21
774.489938
 31
0.0
  0
INSERT
  8
SUNPOU
  2
ARROWANG
 10
4438.395093
 20
744.489938
 30
0.0
 41
30.0
 42
30.0
 43
30.0
  0
INSERT
  8
SUNPOU
  2
ARROWANG
 10
3988.395093
 20
744.489938
 30
0.0
 41
30.0
 42
30.0
 50
180.0
 43
30.0
  0
LINE
  8
SUNPOU
 10
4438.395093
 20
1466.938208
 30
0.0
 11
4438.395093
 21
724.489938
 31
0.0
  0
LINE
  8
SUNPOU
 10
3988.395093
 20
744.489938
 30
0.0
 11
4438.395093
 21
744.489938
 31
0.0
  0
TEXT
  8
SUNPOU
 10
3818.395103
 20
774.489938
 30
0.0
 40
60.0
  1
160
  7
K
 72
     1
 11
3908.395103
 21
774.489938
 31
0.0
  0
INSERT
  8
SUNPOU
  2
ARROWANG
 10
3988.395093
 20
744.489938
 30
0.0
 41
30.0
 42
30.0
 43
30.0
  0
INSERT
  8
SUNPOU
  2
ARROWANG
 10
3828.395093
 20
744.489938
 30
0.0
 41
30.0
 42
30.0
 50
180.0
 43
30.0
  0
LINE
  8
SUNPOU
 10
3828.395093
 20
744.489938
 30
0.0
 11
3988.395093
 21
744.489938
 31
0.0
  0
LINE
  8
SUNPOU
 10
3988.395093
 20
1916.938208
 30
0.0
 11
3988.395093
 21
724.489938
 31
0.0
  0
LINE
  8
SUNPOU
 10
3828.395093
 20
1916.938208
 30
0.0
 11
3828.395093
 21
724.489938
 31
0.0
  0
TEXT
  8
SUNPOU
 10
4336.426192
 20
1889.083235
 30
0.0
 40
60.0
  1
%%C900
 50
40.587427
  7
K
 72
     1
 11
4418.876865
 21
1959.720631
 31
0.0
  0
INSERT
  8
SUNPOU
  2
ARROWANG
 10
4096.65875
 20
1644.164794
 30
0.0
 41
30.0
 42
30.0
 50
220.587427
 43
30.0
  0
INSERT
  8
SUNPOU
  2
ARROWANG
 10
4780.131435
 20
2229.711622
 30
0.0
 41
30.0
 42
30.0
 50
40.587427
 43
30.0
  0
LINE
  8
SUNPOU
 10
4780.131435
 20
2229.711622
 30
0.0
 11
4096.65875
 21
1644.164794
 31
0.0
  0
LINE
  8
ITTEN
 10
4438.395093
 20
2436.938208
 30
0.0
 11
4438.395093
 21
1436.938208
 31
0.0
  0
CIRCLE
  8
JISSEN
 10
4438.395093
 20
1936.938208
 30
0.0
 40
450.0
  0
TEXT
  8
SUNPOU
 10
5142.432956
 20
2059.996984
 30
0.0
 40
60.0
  1
%%C2120
 50
21.457606
  7
K
 72
     1
 11
5270.070234
 21
2110.165583
 31
0.0
  0
INSERT
  8
SUNPOU
  2
ARROWANG
 10
3901.865293
 20
1549.176742
 30
0.0
 41
30.0
 42
30.0
 50
201.457606
 43
30.0
  0
INSERT
  8
SUNPOU
  2
ARROWANG
 10
5874.924892
 20
2324.699674
 30
0.0
 41
30.0
 42
30.0
 50
21.457606
 43
30.0
  0
LINE
  8
SUNPOU
 10
5874.924892
 20
2324.699674
 30
0.0
 11
3901.865293
 21
1549.176742
 31
0.0
  0
LINE
  8
ITTEN
 10
4888.395093
 20
4188.289996
 30
0.0
 11
4888.395093
 21
3838.289996
 31
0.0
  0
LINE
  8
JISSEN
 10
5948.395093
 20
3908.289996
 30
0.0
 11
5948.395093
 21
4203.289996
 31
0.0
  0
LINE
  8
JISSEN
 10
3828.395093
 20
3908.289996
 30
0.0
 11
3828.395093
 21
4203.289996
 31
0.0
  0
LINE
  8
JISSEN
 10
3940.395093
 20
3888.289996
 30
0.0
 11
5836.395093
 21
3888.289996
 31
0.0
  0
LINE
  8
ITTEN
 10
5998.395093
 20
1936.938208
 30
0.0
 11
3778.395093
 21
1936.938208
 31
0.0
  0
LINE
  8
ITTEN
 10
4888.395093
 20
3046.938208
 30
0.0
 11
4888.395093
 21
826.938208
 31
0.0
  0
CIRCLE
  8
JISSEN
 10
4888.395093
 20
1936.938208
 30
0.0
 40
1060.0
  0
TEXT
  8
TEXT
 10
6075.832167
 20
2130.026302
 30
0.0
 40
60.0
  1
M20 8ケ所
  7
K
  0
TEXT
  8
TEXT
 10
6067.088503
 20
4220.240354
 30
0.0
 40
60.0
  1
M20 8ケ所
  7
K
  0
LINE
  8
JISSEN
 10
4035.282205
 20
1736.938208
 30
0.0
 11
4113.395093
 21
1736.938208
 31
0.0
  0
LINE
  8
JISSEN
 10
4123.395093
 20
1746.938208
 30
0.0
 11
4123.395093
 21
2126.938208
 31
0.0
  0
LINE
  8
JISSEN
 10
4113.395093
 20
2136.938208
 30
0.0
 11
4035.282205
 21
2136.938208
 31
0.0
  0
LINE
  8
JISSEN
 10
4025.96328
 20
1756.938208
 30
0.0
 11
4093.395093
 21
1756.938208
 31
0.0
  0
LINE
  8
JISSEN
 10
4103.395093
 20
1766.938208
 30
0.0
 11
4103.395093
 21
2106.938208
 31
0.0
  0
LINE
  8
JISSEN
 10
4093.395093
 20
2116.938208
 30
0.0
 11
4025.96328
 21
2116.938208
 31
0.0
  0
ARC
  8
JISSEN
 10
4113.395093
 20
1746.938208
 30
0.0
 40
10.0
 50
270.0
 51
0.0
  0
ARC
  8
JISSEN
 10
4113.395093
 20
2126.938208
 30
0.0
 40
10.0
 50
0.0
 51
90.0
  0
ARC
  8
JISSEN
 10
4093.395093
 20
2106.938208
 30
0.0
 40
10.0
 50
0.0
 51
90.0
  0
ARC
  8
JISSEN
 10
4093.395093
 20
1766.938208
 30
0.0
 40
10.0
 50
270.0
 51
0.0
  0
LINE
  8
SUNPOU
 10
4133.395093
 20
1736.938208
 30
0.0
 11
4254.744319
 21
1736.938208
 31
0.0
  0
LINE
  8
SUNPOU
 10
4133.395093
 20
2136.938208
 30
0.0
 11
4254.744319
 21
2136.938208
 31
0.0
  0
LINE
  8
SUNPOU
 10
4234.744319
 20
1736.938208
 30
0.0
 11
4234.744319
 21
2136.938208
 31
0.0
  0
INSERT
  8
SUNPOU
  2
ARROWANG
 10
4234.744319
 20
1736.938208
 30
0.0
 41
30.0
 42
30.0
 50
270.0
 43
30.0
  0
INSERT
  8
SUNPOU
  2
ARROWANG
 10
4234.744319
 20
2136.938208
 30
0.0
 41
30.0
 42
30.0
 50
90.0
 43
30.0
  0
TEXT
  8
SUNPOU
 10
4204.744319
 20
1851.223922
 30
0.0
 40
60.0
  1
400
 50
90.0
  7
K
 72
     1
 11
4204.744319
 21
1936.938208
 31
0.0
  0
POLYLINE
  8
WAKU
 66
     1
 10
0.0
 20
0.0
 30
0.0
 70
     1
  0
VERTEX
  8
WAKU
 10
0.0
 20
0.0
 30
0.0
  0
VERTEX
  8
WAKU
 10
9875.0
 20
0.0
 30
0.0
  0
VERTEX
  8
WAKU
 10
9875.0
 20
6825.0
 30
0.0
  0
VERTEX
  8
WAKU
 10
0.0
 20
6825.0
 30
0.0
  0
SEQEND
  8
WAKU
  0
TEXT
  8
TEXT
 10
9297.857495
 20
562.973535
 30
0.0
 40
120.0
  1
1/25
  7
K
  0
ENDSEC
  0
EOF
