  0
SECTION
  2
HEADER
  9
$ACADVER
  1
AC1009
  9
$INSBASE
 10
0.0
 20
0.0
 30
0.0
  9
$EXTMIN
 10
0.0
 20
0.0
 30
0.0
  9
$EXTMAX
 10
10020.709264
 20
6825.0
 30
0.0
  9
$LIMMIN
 10
0.0
 20
0.0
  9
$LIMMAX
 10
9875.0
 20
6825.0
  9
$ORTHOMODE
 70
     0
  9
$REGENMODE
 70
     1
  9
$FILLMODE
 70
     1
  9
$QTEXTMODE
 70
     0
  9
$MIRRTEXT
 70
     0
  9
$DRAGMODE
 70
     2
  9
$LTSCALE
 40
125.0
  9
$OSMODE
 70
    33
  9
$ATTMODE
 70
     1
  9
$TEXTSIZE
 40
60.0
  9
$TRACEWID
 40
0.05
  9
$TEXTSTYLE
  7
K
  9
$CLAYER
  8
SUNPOU
  9
$CELTYPE
  6
BYLAYER
  9
$CECOLOR
 62
   256
  9
$DIMSCALE
 40
25.0
  9
$DIMASZ
 40
1.5
  9
$DIMEXO
 40
1.0
  9
$DIMDLI
 40
6.0
  9
$DIMRND
 40
0.0
  9
$DIMDLE
 40
0.0
  9
$DIMEXE
 40
1.0
  9
$DIMTP
 40
495.0
  9
$DIMTM
 40
0.0
  9
$DIMTXT
 40
3.0
  9
$DIMCEN
 40
0.0
  9
$DIMTSZ
 40
0.0
  9
$DIMTOL
 70
     0
  9
$DIMLIM
 70
     0
  9
$DIMTIH
 70
     0
  9
$DIMTOH
 70
     0
  9
$DIMSE1
 70
     0
  9
$DIMSE2
 70
     0
  9
$DIMTAD
 70
     1
  9
$DIMZIN
 70
     8
  9
$DIMBLK
  1
ARROW
  9
$DIMASO
 70
     0
  9
$DIMSHO
 70
     0
  9
$DIMPOST
  1

  9
$DIMAPOST
  1

  9
$DIMALT
 70
     0
  9
$DIMALTD
 70
     2
  9
$DIMALTF
 40
25.4
  9
$DIMLFAC
 40
1.0
  9
$DIMTOFL
 70
     1
  9
$DIMTVP
 40
0.0
  9
$DIMTIX
 70
     1
  9
$DIMSOXD
 70
     0
  9
$DIMSAH
 70
     0
  9
$DIMBLK1
  1

  9
$DIMBLK2
  1

  9
$DIMSTYLE
  2
*UNNAMED
  9
$DIMCLRD
 70
     0
  9
$DIMCLRE
 70
     0
  9
$DIMCLRT
 70
     0
  9
$DIMTFAC
 40
1.0
  9
$DIMGAP
 40
0.09
  9
$LUNITS
 70
     2
  9
$LUPREC
 70
     2
  9
$AXISMODE
 70
     1
  9
$AXISUNIT
 10
100.0
 20
100.0
  9
$SKETCHINC
 40
0.1
  9
$FILLETRAD
 40
10.0
  9
$AUNITS
 70
     0
  9
$AUPREC
 70
     2
  9
$MENU
  1
d:stdgx5
  9
$ELEVATION
 40
0.0
  9
$PELEVATION
 40
0.0
  9
$THICKNESS
 40
0.0
  9
$LIMCHECK
 70
     0
  9
$BLIPMODE
 70
     1
  9
$CHAMFERA
 40
0.0
  9
$CHAMFERB
 40
0.0
  9
$SKPOLY
 70
     0
  9
$TDCREATE
 40
2450248.718518518
  9
$TDUPDATE
 40
2450248.743819444
  9
$TDINDWG
 40
0.0076388889
  9
$TDUSRTIMER
 40
0.0076388889
  9
$USRTIMER
 70
     1
  9
$ANGBASE
 50
0.0
  9
$ANGDIR
 70
     0
  9
$PDMODE
 70
     0
  9
$PDSIZE
 40
0.0
  9
$PLINEWID
 40
0.0
  9
$COORDS
 70
     2
  9
$SPLFRAME
 70
     0
  9
$SPLINETYPE
 70
     6
  9
$SPLINESEGS
 70
     8
  9
$ATTDIA
 70
     0
  9
$ATTREQ
 70
     1
  9
$HANDLING
 70
     0
  9
$HANDSEED
  5
0
  9
$SURFTAB1
 70
     6
  9
$SURFTAB2
 70
     6
  9
$SURFTYPE
 70
     6
  9
$SURFU
 70
     6
  9
$SURFV
 70
     6
  9
$UCSNAME
  2

  9
$UCSORG
 10
0.0
 20
0.0
 30
0.0
  9
$UCSXDIR
 10
1.0
 20
0.0
 30
0.0
  9
$UCSYDIR
 10
0.0
 20
1.0
 30
0.0
  9
$PUCSNAME
  2

  9
$PUCSORG
 10
0.0
 20
0.0
 30
0.0
  9
$PUCSXDIR
 10
1.0
 20
0.0
 30
0.0
  9
$PUCSYDIR
 10
0.0
 20
1.0
 30
0.0
  9
$USERI1
 70
     3
  9
$USERI2
 70
    33
  9
$USERI3
 70
     0
  9
$USERI4
 70
     1
  9
$USERI5
 70
     0
  9
$USERR1
 40
25.0
  9
$USERR2
 40
3.0
  9
$USERR3
 40
3.0
  9
$USERR4
 40
1.5
  9
$USERR5
 40
10.0
  9
$WORLDVIEW
 70
     1
  9
$SHADEDGE
 70
     3
  9
$SHADEDIF
 70
    70
  9
$TILEMODE
 70
     1
  9
$MAXACTVP
 70
    16
  9
$PINSBASE
 10
0.0
 20
0.0
 30
0.0
  9
$PLIMCHECK
 70
     0
  9
$PEXTMIN
 10
1.000000E+20
 20
1.000000E+20
 30
1.000000E+20
  9
$PEXTMAX
 10
-1.000000E+20
 20
-1.000000E+20
 30
-1.000000E+20
  9
$PLIMMIN
 10
0.0
 20
0.0
  9
$PLIMMAX
 10
12.0
 20
9.0
  9
$UNITMODE
 70
     0
  9
$VISRETAIN
 70
     0
  0
ENDSEC
  0
SECTION
  2
TABLES
  0
TABLE
  2
VPORT
 70
    10
  0
VPORT
  2
*ACTIVE
 70
     0
 10
0.0
 20
0.0
 11
1.0
 21
1.0
 12
5576.263114
 22
3412.5
 13
0.0
 23
0.0
 14
1.0
 24
1.0
 15
10.0
 25
10.0
 16
0.0
 26
0.0
 36
1.0
 17
0.0
 27
0.0
 37
0.0
 40
6825.0
 41
1.63407
 42
50.0
 43
0.0
 44
0.0
 50
0.0
 51
0.0
 71
     0
 72
   500
 73
     1
 74
     0
 75
     0
 76
     0
 77
     0
 78
     0
  0
VPORT
  2
2
 70
     0
 10
0.5
 20
0.0
 11
1.0
 21
1.0
 12
0.924031
 22
1.052651
 13
0.0
 23
0.0
 14
1.0
 24
1.0
 15
10.0
 25
10.0
 16
0.0
 26
0.0
 36
1.0
 17
0.0
 27
0.0
 37
0.0
 40
2.105302
 41
0.877814
 42
50.0
 43
0.0
 44
0.0
 50
0.0
 51
0.0
 71
     0
 72
   500
 73
     1
 74
     1
 75
     0
 76
     0
 77
     0
 78
     0
  0
VPORT
  2
2
 70
     0
 10
0.0
 20
0.0
 11
0.5
 21
1.0
 12
0.924031
 22
1.052651
 13
0.0
 23
0.0
 14
1.0
 24
1.0
 15
10.0
 25
10.0
 16
0.0
 26
0.0
 36
1.0
 17
0.0
 27
0.0
 37
0.0
 40
2.105302
 41
0.877814
 42
50.0
 43
0.0
 44
0.0
 50
0.0
 51
0.0
 71
     0
 72
   500
 73
     1
 74
     1
 75
     0
 76
     0
 77
     0
 78
     0
  0
VPORT
  2
3
 70
     0
 10
0.0
 20
0.5
 11
1.0
 21
1.0
 12
2.83217
 22
1.052651
 13
0.0
 23
0.0
 14
1.0
 24
1.0
 15
10.0
 25
10.0
 16
0.0
 26
0.0
 36
1.0
 17
0.0
 27
0.0
 37
0.0
 40
2.105302
 41
3.571429
 42
50.0
 43
0.0
 44
0.0
 50
0.0
 51
0.0
 71
     0
 72
   500
 73
     1
 74
     1
 75
     0
 76
     0
 77
     0
 78
     0
  0
VPORT
  2
3
 70
     0
 10
0.0
 20
0.0
 11
1.0
 21
0.5
 12
2.856742
 22
1.052651
 13
0.0
 23
0.0
 14
1.0
 24
1.0
 15
10.0
 25
10.0
 16
0.0
 26
0.0
 36
1.0
 17
0.0
 27
0.0
 37
0.0
 40
2.105302
 41
3.594771
 42
50.0
 43
0.0
 44
0.0
 50
0.0
 51
0.0
 71
     0
 72
   500
 73
     1
 74
     1
 75
     0
 76
     0
 77
     0
 78
     0
  0
VPORT
  2
4
 70
     0
 10
0.5
 20
0.0
 11
1.0
 21
0.5
 12
2.886858
 22
1.052651
 13
0.0
 23
0.0
 14
1.0
 24
1.0
 15
10.0
 25
10.0
 16
0.0
 26
0.0
 36
1.0
 17
0.0
 27
0.0
 37
0.0
 40
4.275207
 41
1.784314
 42
50.0
 43
0.0
 44
0.0
 50
0.0
 51
0.0
 71
     0
 72
   500
 73
     1
 74
     1
 75
     0
 76
     0
 77
     0
 78
     0
  0
VPORT
  2
4
 70
     0
 10
0.5
 20
0.5
 11
1.0
 21
1.0
 12
2.86209
 22
1.052651
 13
0.0
 23
0.0
 14
1.0
 24
1.0
 15
10.0
 25
10.0
 16
0.0
 26
0.0
 36
1.0
 17
0.0
 27
0.0
 37
0.0
 40
4.275207
 41
1.772727
 42
50.0
 43
0.0
 44
0.0
 50
0.0
 51
0.0
 71
     0
 72
   500
 73
     1
 74
     1
 75
     0
 76
     0
 77
     0
 78
     0
  0
VPORT
  2
4
 70
     0
 10
0.0
 20
0.5
 11
0.5
 21
1.0
 12
2.86209
 22
1.052651
 13
0.0
 23
0.0
 14
1.0
 24
1.0
 15
10.0
 25
10.0
 16
0.0
 26
0.0
 36
1.0
 17
0.0
 27
0.0
 37
0.0
 40
4.275207
 41
1.772727
 42
50.0
 43
0.0
 44
0.0
 50
0.0
 51
0.0
 71
     0
 72
   500
 73
     1
 74
     1
 75
     0
 76
     0
 77
     0
 78
     0
  0
VPORT
  2
4
 70
     0
 10
0.0
 20
0.0
 11
0.5
 21
0.5
 12
2.886858
 22
1.052651
 13
0.0
 23
0.0
 14
1.0
 24
1.0
 15
10.0
 25
10.0
 16
0.0
 26
0.0
 36
1.0
 17
0.0
 27
0.0
 37
0.0
 40
4.275207
 41
1.784314
 42
50.0
 43
0.0
 44
0.0
 50
0.0
 51
0.0
 71
     0
 72
   500
 73
     1
 74
     1
 75
     0
 76
     0
 77
     0
 78
     0
  0
ENDTAB
  0
TABLE
  2
LTYPE
 70
     5
  0
LTYPE
  2
CONTINUOUS
 70
    64
  3
実線
 72
    65
 73
     0
 40
0.0
  0
LTYPE
  2
DASHED
 70
    64
  3
__ __ __ __ __ __ __ __ __ __ __ __ __ __ __
 72
    65
 73
     2
 40
0.75
 49
0.5
 49
-0.25
  0
LTYPE
  2
CENTER
 70
    64
  3
____ _ ____ _ ____ _ ____ _ ____ _ ____ _ ____
 72
    65
 73
     4
 40
2.0
 49
1.25
 49
-0.25
 49
0.25
 49
-0.25
  0
LTYPE
  2
PHANTOM
 70
    64
  3
_____ _ _ _____ _ _ _____ _ _ _____ _ _ ____
 72
    65
 73
     6
 40
2.5
 49
1.25
 49
-0.25
 49
0.25
 49
-0.25
 49
0.25
 49
-0.25
  0
LTYPE
  2
HIDDEN
 70
    64
  3
_ _ _ _ _ _ _ _ _ _ _ _ _ _ _ _ _ _ _ _ _ _ _
 72
    65
 73
     2
 40
0.375
 49
0.25
 49
-0.125
  0
ENDTAB
  0
TABLE
  2
LAYER
 70
    14
  0
LAYER
  2
0
 70
     0
 62
     7
  6
CONTINUOUS
  0
LAYER
  2
HASEN
 70
    64
 62
     2
  6
DASHED
  0
LAYER
  2
ITTEN
 70
    64
 62
     1
  6
CENTER
  0
LAYER
  2
SUNPOU
 70
    64
 62
     3
  6
CONTINUOUS
  0
LAYER
  2
TEXT
 70
    64
 62
     3
  6
CONTINUOUS
  0
LAYER
  2
JISSEN
 70
    64
 62
     7
  6
CONTINUOUS
  0
LAYER
  2
TENSEN
 70
    64
 62
     2
  6
HIDDEN
  0
LAYER
  2
WAKU
 70
    64
 62
    -5
  6
CONTINUOUS
  0
ENDTAB
  0
TABLE
  2
STYLE
 70
     2
  0
STYLE
  2
STANDARD
 70
     0
 40
0.0
 41
1.0
 50
0.0
 71
     0
 42
0.2
  3
ROMANS
  4
EXTFONT
  0
STYLE
  2
K
 70
    64
 40
0.0
 41
1.0
 50
0.0
 71
     0
 42
60.0
  3
ROMANS
  4
EXTFONT
  0
ENDTAB
  0
TABLE
  2
VIEW
 70
     0
  0
ENDTAB
  0
TABLE
  2
UCS
 70
     0
  0
ENDTAB
  0
TABLE
  2
APPID
 70
     1
  0
APPID
  2
ACAD
 70
    64
  0
ENDTAB
  0
TABLE
  2
DIMSTYLE
 70
     0
  0
ENDTAB
  0
ENDSEC
  0
SECTION
  2
BLOCKS
  0
BLOCK
  8
SUNPOU
  2
ARROWANG
 70
    64
 10
0.0
 20
0.0
 30
0.0
  3
ARROWANG
  0
LINE
  8
SUNPOU
 10
0.0
 20
0.0
 30
0.0
 11
-1.5
 21
0.401924
 31
0.0
  0
LINE
  8
SUNPOU
 10
0.0
 20
0.0
 30
0.0
 11
-1.5
 21
-0.401924
 31
0.0
  0
ENDBLK
  8
SUNPOU
  0
ENDSEC
  0
SECTION
  2
ENTITIES
  0
TEXT
  8
JISSEN
 10
188.031979
 20
6459.509603
 30
0.0
 40
250.0
  1
５号マンホール
  7
K
  0
TEXT
  8
TEXT
 10
5417.474051
 20
6566.4616
 30
0.0
 40
126.72
  1
管取付壁
  7
K
  0
TEXT
  8
TEXT
 10
1858.156289
 20
594.771509
 30
0.0
 40
115.2
  1
M5B150
  7
K
  0
LINE
  8
SUNPOU
 10
4950.029043
 20
5362.903542
 30
0.0
 11
5472.836879
 21
5362.903542
 31
0.0
  0
LINE
  8
SUNPOU
 10
5140.029043
 20
5982.903542
 30
0.0
 11
5472.836879
 21
5982.903542
 31
0.0
  0
LINE
  8
SUNPOU
 10
5452.836879
 20
5362.903542
 30
0.0
 11
5452.836879
 21
5982.903542
 31
0.0
  0
INSERT
  8
SUNPOU
  2
ARROWANG
 10
5452.836879
 20
5362.903542
 30
0.0
 41
30.0
 42
30.0
 50
270.0
 43
30.0
  0
INSERT
  8
SUNPOU
  2
ARROWANG
 10
5452.836879
 20
5982.903542
 30
0.0
 41
30.0
 42
30.0
 50
90.0
 43
30.0
  0
TEXT
  8
SUNPOU
 10
5422.836879
 20
5585.760685
 30
0.0
 40
60.0
  1
620
 50
90.0
  7
K
 72
     1
 11
5422.836879
 21
5672.903542
 31
0.0
  0
TEXT
  8
SUNPOU
 10
5422.836879
 20
2093.268032
 30
0.0
 40
60.0
  1
620
 50
90.0
  7
K
 72
     1
 11
5422.836879
 21
2180.410889
 31
0.0
  0
INSERT
  8
SUNPOU
  2
ARROWANG
 10
5452.836879
 20
2490.410889
 30
0.0
 41
30.0
 42
30.0
 50
90.0
 43
30.0
  0
INSERT
  8
SUNPOU
  2
ARROWANG
 10
5452.836879
 20
1870.410889
 30
0.0
 41
30.0
 42
30.0
 50
270.0
 43
30.0
  0
LINE
  8
SUNPOU
 10
5452.836879
 20
1870.410889
 30
0.0
 11
5452.836879
 21
2490.410889
 31
0.0
  0
LINE
  8
SUNPOU
 10
5140.029043
 20
2490.410889
 30
0.0
 11
5472.836879
 21
2490.410889
 31
0.0
  0
LINE
  8
SUNPOU
 10
4950.029043
 20
1870.410889
 30
0.0
 11
5472.836879
 21
1870.410889
 31
0.0
  0
TEXT
  8
SUNPOU
 10
5285.053937
 20
3867.903542
 30
0.0
 40
60.0
  1
150
 50
90.0
  7
K
 72
     1
 11
5285.053937
 21
3957.903542
 31
0.0
  0
INSERT
  8
SUNPOU
  2
ARROWANG
 10
5315.053937
 20
4032.903542
 30
0.0
 41
30.0
 42
30.0
 50
90.0
 43
30.0
  0
INSERT
  8
SUNPOU
  2
ARROWANG
 10
5315.053937
 20
3882.903542
 30
0.0
 41
30.0
 42
30.0
 50
270.0
 43
30.0
  0
LINE
  8
SUNPOU
 10
5315.053937
 20
3882.903542
 30
0.0
 11
5315.053937
 21
4032.903542
 31
0.0
  0
LINE
  8
SUNPOU
 10
4762.196791
 20
4032.903542
 30
0.0
 11
5335.053937
 21
4032.903542
 31
0.0
  0
LINE
  8
SUNPOU
 10
5140.029043
 20
3882.903542
 30
0.0
 11
5335.053937
 21
3882.903542
 31
0.0
  0
TEXT
  8
SUNPOU
 10
5275.837854
 20
5817.903542
 30
0.0
 40
60.0
  1
150
 50
90.0
  7
K
 72
     1
 11
5275.837854
 21
5907.903542
 31
0.0
  0
INSERT
  8
SUNPOU
  2
ARROWANG
 10
5305.837854
 20
5982.903542
 30
0.0
 41
30.0
 42
30.0
 50
90.0
 43
30.0
  0
INSERT
  8
SUNPOU
  2
ARROWANG
 10
5305.837854
 20
5832.903542
 30
0.0
 41
30.0
 42
30.0
 50
270.0
 43
30.0
  0
LINE
  8
SUNPOU
 10
5305.837854
 20
5832.903542
 30
0.0
 11
5305.837854
 21
5982.903542
 31
0.0
  0
LINE
  8
SUNPOU
 10
5140.029043
 20
5982.903542
 30
0.0
 11
5325.837854
 21
5982.903542
 31
0.0
  0
LINE
  8
SUNPOU
 10
4762.196791
 20
5832.903542
 30
0.0
 11
5325.837854
 21
5832.903542
 31
0.0
  0
TEXT
  8
SUNPOU
 10
5221.004661
 20
975.410889
 30
0.0
 40
60.0
  1
150
 50
90.0
  7
K
 72
     1
 11
5221.004661
 21
1065.410889
 31
0.0
  0
INSERT
  8
SUNPOU
  2
ARROWANG
 10
5251.004661
 20
1140.410889
 30
0.0
 41
30.0
 42
30.0
 50
90.0
 43
30.0
  0
INSERT
  8
SUNPOU
  2
ARROWANG
 10
5251.004661
 20
990.410889
 30
0.0
 41
30.0
 42
30.0
 50
270.0
 43
30.0
  0
LINE
  8
SUNPOU
 10
5251.004661
 20
990.410889
 30
0.0
 11
5251.004661
 21
1140.410889
 31
0.0
  0
LINE
  8
SUNPOU
 10
4762.196791
 20
1140.410889
 30
0.0
 11
5271.004661
 21
1140.410889
 31
0.0
  0
LINE
  8
SUNPOU
 10
5140.029043
 20
990.410889
 30
0.0
 11
5271.004661
 21
990.410889
 31
0.0
  0
TEXT
  8
SUNPOU
 10
5221.004661
 20
2325.410889
 30
0.0
 40
60.0
  1
150
 50
90.0
  7
K
 72
     1
 11
5221.004661
 21
2415.410889
 31
0.0
  0
INSERT
  8
SUNPOU
  2
ARROWANG
 10
5251.004661
 20
2490.410889
 30
0.0
 41
30.0
 42
30.0
 50
90.0
 43
30.0
  0
INSERT
  8
SUNPOU
  2
ARROWANG
 10
5251.004661
 20
2340.410889
 30
0.0
 41
30.0
 42
30.0
 50
270.0
 43
30.0
  0
LINE
  8
SUNPOU
 10
5251.004661
 20
2340.410889
 30
0.0
 11
5251.004661
 21
2490.410889
 31
0.0
  0
LINE
  8
SUNPOU
 10
5140.029043
 20
2490.410889
 30
0.0
 11
5271.004661
 21
2490.410889
 31
0.0
  0
LINE
  8
SUNPOU
 10
4762.196791
 20
2340.410889
 30
0.0
 11
5271.004661
 21
2340.410889
 31
0.0
  0
LINE
  8
SUNPOU
 10
8411.432482
 20
852.111153
 30
0.0
 11
8833.529084
 21
832.9353
 31
0.0
  0
INSERT
  8
SUNPOU
  2
ARROWANG
 10
8411.432482
 20
852.111153
 30
0.0
 41
30.0
 42
30.0
 50
177.398841
 43
30.0
  0
LINE
  8
SUNPOU
 10
8833.529084
 20
832.9353
 30
0.0
 11
9659.842934
 21
832.9353
 31
0.0
  0
LINE
  8
SUNPOU
 10
8016.523326
 20
571.805298
 30
0.0
 11
8833.529084
 21
832.9353
 31
0.0
  0
INSERT
  8
SUNPOU
  2
ARROWANG
 10
8016.523326
 20
571.805298
 30
0.0
 41
30.0
 42
30.0
 50
197.724832
 43
30.0
  0
CIRCLE
  8
HASEN
 10
2917.861295
 20
5832.903542
 30
0.0
 40
15.0
  0
LINE
  8
ITTEN
 10
2917.861295
 20
5857.903542
 30
0.0
 11
2917.861295
 21
5807.903542
 31
0.0
  0
LINE
  8
ITTEN
 10
2942.861295
 20
5832.903542
 30
0.0
 11
2892.861295
 21
5832.903542
 31
0.0
  0
TEXT
  8
SUNPOU
 10
3307.685335
 20
5486.437047
 30
0.0
 40
60.0
  1
埋込みアンカー
  7
K
  0
CIRCLE
  8
HASEN
 10
3336.367415
 20
5832.903542
 30
0.0
 40
15.0
  0
LINE
  8
ITTEN
 10
3361.367415
 20
5832.903542
 30
0.0
 11
3311.367415
 21
5832.903542
 31
0.0
  0
LINE
  8
ITTEN
 10
3336.367415
 20
5857.903542
 30
0.0
 11
3336.367415
 21
5807.903542
 31
0.0
  0
LINE
  8
ITTEN
 10
4323.690671
 20
5857.903542
 30
0.0
 11
4323.690671
 21
5807.903542
 31
0.0
  0
LINE
  8
ITTEN
 10
4298.690671
 20
5832.903542
 30
0.0
 11
4348.690671
 21
5832.903542
 31
0.0
  0
CIRCLE
  8
HASEN
 10
4323.690671
 20
5832.903542
 30
0.0
 40
15.0
  0
LINE
  8
ITTEN
 10
4717.196791
 20
5832.903542
 30
0.0
 11
4767.196791
 21
5832.903542
 31
0.0
  0
LINE
  8
ITTEN
 10
4742.196791
 20
5857.903542
 30
0.0
 11
4742.196791
 21
5807.903542
 31
0.0
  0
CIRCLE
  8
HASEN
 10
4742.196791
 20
5832.903542
 30
0.0
 40
15.0
  0
INSERT
  8
SUNPOU
  2
ARROWANG
 10
2920.916949
 20
5824.383206
 30
0.0
 41
30.0
 42
30.0
 50
135.503997
 43
30.0
  0
LINE
  8
SUNPOU
 10
2920.916949
 20
5824.383206
 30
0.0
 11
3290.783543
 21
5460.967029
 31
0.0
  0
LINE
  8
SUNPOU
 10
3290.783543
 20
5460.967029
 30
0.0
 11
3797.858713
 21
5460.967029
 31
0.0
  0
INSERT
  8
SUNPOU
  2
ARROWANG
 10
3339.592918
 20
5827.702076
 30
0.0
 41
30.0
 42
30.0
 50
82.418962
 43
30.0
  0
LINE
  8
SUNPOU
 10
3339.592918
 20
5827.702076
 30
0.0
 11
3290.783543
 21
5460.967029
 31
0.0
  0
LINE
  8
ITTEN
 10
3830.029043
 20
5407.903542
 30
0.0
 11
3830.029043
 21
5317.903542
 31
0.0
  0
LINE
  8
HASEN
 10
2698.639081
 20
5397.903542
 30
0.0
 11
2730.029043
 21
5412.903542
 31
0.0
  0
LINE
  8
HASEN
 10
2638.639081
 20
5397.903542
 30
0.0
 11
2698.639081
 21
5397.903542
 31
0.0
  0
LINE
  8
HASEN
 10
2540.998399
 20
5412.903542
 30
0.0
 11
2638.639081
 21
5397.903542
 31
0.0
  0
LINE
  8
HASEN
 10
2638.639081
 20
5327.903542
 30
0.0
 11
2540.998399
 21
5312.903542
 31
0.0
  0
LINE
  8
HASEN
 10
2638.639081
 20
5327.903542
 30
0.0
 11
2698.639081
 21
5327.903542
 31
0.0
  0
LINE
  8
HASEN
 10
2698.639081
 20
5327.903542
 30
0.0
 11
2730.029043
 21
5312.903542
 31
0.0
  0
LINE
  8
HASEN
 10
5021.419005
 20
5397.903542
 30
0.0
 11
5119.059686
 21
5412.903542
 31
0.0
  0
LINE
  8
HASEN
 10
5119.059686
 20
5312.903542
 30
0.0
 11
5021.419005
 21
5327.903542
 31
0.0
  0
LINE
  8
HASEN
 10
4961.419005
 20
5327.903542
 30
0.0
 11
4930.029043
 21
5312.903542
 31
0.0
  0
LINE
  8
HASEN
 10
5021.419005
 20
5327.903542
 30
0.0
 11
4961.419005
 21
5327.903542
 31
0.0
  0
LINE
  8
HASEN
 10
4961.419005
 20
5397.903542
 30
0.0
 11
4930.029043
 21
5412.903542
 31
0.0
  0
LINE
  8
HASEN
 10
5021.419005
 20
5397.903542
 30
0.0
 11
4961.419005
 21
5397.903542
 31
0.0
  0
LINE
  8
ITTEN
 10
2942.861295
 20
4032.903542
 30
0.0
 11
2892.861295
 21
4032.903542
 31
0.0
  0
LINE
  8
ITTEN
 10
2917.861295
 20
4057.903542
 30
0.0
 11
2917.861295
 21
4007.903542
 31
0.0
  0
CIRCLE
  8
HASEN
 10
2917.861295
 20
4032.903542
 30
0.0
 40
15.0
  0
TEXT
  8
SUNPOU
 10
3011.500383
 20
4178.12698
 30
0.0
 40
60.0
  1
埋込みアンカー
  7
K
  0
LINE
  8
SUNPOU
 10
2999.519399
 20
4158.12698
 30
0.0
 11
3468.411547
 21
4158.12698
 31
0.0
  0
LINE
  8
SUNPOU
 10
2915.588454
 20
4036.061369
 30
0.0
 11
2999.519399
 21
4158.12698
 31
0.0
  0
INSERT
  8
SUNPOU
  2
ARROWANG
 10
2915.588454
 20
4036.061369
 30
0.0
 41
30.0
 42
30.0
 50
235.488023
 43
30.0
  0
CIRCLE
  8
HASEN
 10
4742.196791
 20
4032.903542
 30
0.0
 40
15.0
  0
LINE
  8
ITTEN
 10
4742.196791
 20
4057.903542
 30
0.0
 11
4742.196791
 21
4007.903542
 31
0.0
  0
LINE
  8
ITTEN
 10
4717.196791
 20
4032.903542
 30
0.0
 11
4767.196791
 21
4032.903542
 31
0.0
  0
LINE
  8
HASEN
 10
5021.419005
 20
1905.410889
 30
0.0
 11
4961.419005
 21
1905.410889
 31
0.0
  0
LINE
  8
HASEN
 10
4961.419005
 20
1905.410889
 30
0.0
 11
4930.029043
 21
1920.410889
 31
0.0
  0
LINE
  8
HASEN
 10
5021.419005
 20
1835.410889
 30
0.0
 11
4961.419005
 21
1835.410889
 31
0.0
  0
LINE
  8
HASEN
 10
4961.419005
 20
1835.410889
 30
0.0
 11
4930.029043
 21
1820.410889
 31
0.0
  0
LINE
  8
HASEN
 10
5119.059686
 20
1820.410889
 30
0.0
 11
5021.419005
 21
1835.410889
 31
0.0
  0
LINE
  8
HASEN
 10
5021.419005
 20
1905.410889
 30
0.0
 11
5119.059686
 21
1920.410889
 31
0.0
  0
LINE
  8
HASEN
 10
2698.639081
 20
1835.410889
 30
0.0
 11
2730.029043
 21
1820.410889
 31
0.0
  0
LINE
  8
HASEN
 10
2638.639081
 20
1835.410889
 30
0.0
 11
2698.639081
 21
1835.410889
 31
0.0
  0
LINE
  8
HASEN
 10
2638.639081
 20
1835.410889
 30
0.0
 11
2540.998399
 21
1820.410889
 31
0.0
  0
LINE
  8
HASEN
 10
2540.998399
 20
1920.410889
 30
0.0
 11
2638.639081
 21
1905.410889
 31
0.0
  0
LINE
  8
HASEN
 10
2638.639081
 20
1905.410889
 30
0.0
 11
2698.639081
 21
1905.410889
 31
0.0
  0
LINE
  8
HASEN
 10
2698.639081
 20
1905.410889
 30
0.0
 11
2730.029043
 21
1920.410889
 31
0.0
  0
LINE
  8
SUNPOU
 10
3339.592918
 20
2335.209423
 30
0.0
 11
3290.783543
 21
1968.474376
 31
0.0
  0
INSERT
  8
SUNPOU
  2
ARROWANG
 10
3339.592918
 20
2335.209423
 30
0.0
 41
30.0
 42
30.0
 50
82.418962
 43
30.0
  0
LINE
  8
SUNPOU
 10
3290.783543
 20
1968.474376
 30
0.0
 11
3797.858713
 21
1968.474376
 31
0.0
  0
LINE
  8
SUNPOU
 10
2920.916949
 20
2331.890554
 30
0.0
 11
3290.783543
 21
1968.474376
 31
0.0
  0
INSERT
  8
SUNPOU
  2
ARROWANG
 10
2920.916949
 20
2331.890554
 30
0.0
 41
30.0
 42
30.0
 50
135.503997
 43
30.0
  0
CIRCLE
  8
HASEN
 10
4742.196791
 20
2340.410889
 30
0.0
 40
15.0
  0
LINE
  8
ITTEN
 10
4742.196791
 20
2365.410889
 30
0.0
 11
4742.196791
 21
2315.410889
 31
0.0
  0
LINE
  8
ITTEN
 10
4717.196791
 20
2340.410889
 30
0.0
 11
4767.196791
 21
2340.410889
 31
0.0
  0
CIRCLE
  8
HASEN
 10
4323.690671
 20
2340.410889
 30
0.0
 40
15.0
  0
LINE
  8
ITTEN
 10
4298.690671
 20
2340.410889
 30
0.0
 11
4348.690671
 21
2340.410889
 31
0.0
  0
LINE
  8
ITTEN
 10
4323.690671
 20
2365.410889
 30
0.0
 11
4323.690671
 21
2315.410889
 31
0.0
  0
LINE
  8
ITTEN
 10
4717.196791
 20
1140.410889
 30
0.0
 11
4767.196791
 21
1140.410889
 31
0.0
  0
LINE
  8
ITTEN
 10
4742.196791
 20
1165.410889
 30
0.0
 11
4742.196791
 21
1115.410889
 31
0.0
  0
CIRCLE
  8
HASEN
 10
4742.196791
 20
1140.410889
 30
0.0
 40
15.0
  0
LINE
  8
HASEN
 10
6517.619413
 20
2243.112879
 30
0.0
 11
6552.407654
 21
2243.441525
 31
0.0
  0
LINE
  8
HASEN
 10
6463.240946
 20
2268.469975
 30
0.0
 11
6517.619413
 21
2243.112879
 31
0.0
  0
LINE
  8
HASEN
 10
6381.08771
 20
2323.329327
 30
0.0
 11
6463.240946
 21
2268.469975
 31
0.0
  0
LINE
  8
HASEN
 10
6433.657667
 20
2205.02843
 30
0.0
 11
6338.825884
 21
2232.698548
 31
0.0
  0
LINE
  8
HASEN
 10
6433.657667
 20
2205.02843
 30
0.0
 11
6488.036135
 21
2179.671334
 31
0.0
  0
LINE
  8
HASEN
 10
6488.036135
 20
2179.671334
 30
0.0
 11
6510.145828
 21
2152.810746
 31
0.0
  0
LINE
  8
HASEN
 10
8622.772946
 20
1261.463665
 30
0.0
 11
8717.60473
 21
1233.793547
 31
0.0
  0
LINE
  8
HASEN
 10
8675.342904
 20
1143.162768
 30
0.0
 11
8593.189668
 21
1198.02212
 31
0.0
  0
LINE
  8
HASEN
 10
8538.811201
 20
1223.379216
 30
0.0
 11
8504.022959
 21
1223.05057
 31
0.0
  0
LINE
  8
HASEN
 10
8593.189668
 20
1198.02212
 30
0.0
 11
8538.811201
 21
1223.379216
 31
0.0
  0
LINE
  8
HASEN
 10
8568.394479
 20
1286.820761
 30
0.0
 11
8546.284786
 21
1313.681349
 31
0.0
  0
LINE
  8
HASEN
 10
8622.772946
 20
1261.463665
 30
0.0
 11
8568.394479
 21
1286.820761
 31
0.0
  0
LINE
  8
HASEN
 10
7020.695486
 20
547.181702
 30
0.0
 11
7058.963829
 21
639.569656
 31
0.0
  0
LINE
  8
HASEN
 10
7048.411872
 20
535.701199
 30
0.0
 11
7086.680215
 21
628.089153
 31
0.0
  0
LINE
  8
HASEN
 10
7058.963829
 20
639.569656
 30
0.0
 11
7086.680215
 21
628.089153
 31
0.0
  0
LINE
  8
HASEN
 10
6605.440957
 20
831.684902
 30
0.0
 11
6676.151635
 21
902.39558
 31
0.0
  0
LINE
  8
HASEN
 10
6676.151635
 20
902.39558
 30
0.0
 11
6697.364839
 21
881.182376
 31
0.0
  0
LINE
  8
HASEN
 10
6626.654161
 20
810.471698
 30
0.0
 11
6697.364839
 21
881.182376
 31
0.0
  0
LINE
  8
HASEN
 10
7997.466784
 20
639.569656
 30
0.0
 11
7969.750398
 21
628.089153
 31
0.0
  0
LINE
  8
HASEN
 10
8008.018742
 20
535.701199
 30
0.0
 11
7969.750398
 21
628.089153
 31
0.0
  0
LINE
  8
HASEN
 10
8035.735128
 20
547.181702
 30
0.0
 11
7997.466784
 21
639.569656
 31
0.0
  0
LINE
  8
HASEN
 10
8429.776453
 20
810.471698
 30
0.0
 11
8359.065775
 21
881.182376
 31
0.0
  0
LINE
  8
HASEN
 10
8380.278978
 20
902.39558
 30
0.0
 11
8359.065775
 21
881.182376
 31
0.0
  0
LINE
  8
HASEN
 10
8450.989656
 20
831.684902
 30
0.0
 11
8380.278978
 21
902.39558
 31
0.0
  0
LINE
  8
HASEN
 10
8035.735128
 20
2919.310393
 30
0.0
 11
7997.466784
 21
2826.92244
 31
0.0
  0
LINE
  8
HASEN
 10
8008.018742
 20
2930.790896
 30
0.0
 11
7969.750398
 21
2838.402943
 31
0.0
  0
LINE
  8
HASEN
 10
7997.466784
 20
2826.92244
 30
0.0
 11
7969.750398
 21
2838.402943
 31
0.0
  0
LINE
  8
HASEN
 10
8450.989656
 20
2634.807194
 30
0.0
 11
8380.278978
 21
2564.096516
 31
0.0
  0
LINE
  8
HASEN
 10
8380.278978
 20
2564.096516
 30
0.0
 11
8359.065775
 21
2585.309719
 31
0.0
  0
LINE
  8
HASEN
 10
8429.776453
 20
2656.020397
 30
0.0
 11
8359.065775
 21
2585.309719
 31
0.0
  0
LINE
  8
HASEN
 10
7058.963829
 20
2826.92244
 30
0.0
 11
7086.680215
 21
2838.402943
 31
0.0
  0
LINE
  8
HASEN
 10
7048.411872
 20
2930.790896
 30
0.0
 11
7086.680215
 21
2838.402943
 31
0.0
  0
LINE
  8
HASEN
 10
7020.695486
 20
2919.310393
 30
0.0
 11
7058.963829
 21
2826.92244
 31
0.0
  0
LINE
  8
HASEN
 10
6626.654161
 20
2656.020397
 30
0.0
 11
6697.364839
 21
2585.309719
 31
0.0
  0
LINE
  8
HASEN
 10
6676.151635
 20
2564.096516
 30
0.0
 11
6697.364839
 21
2585.309719
 31
0.0
  0
LINE
  8
HASEN
 10
6605.440957
 20
2634.807194
 30
0.0
 11
6676.151635
 21
2564.096516
 31
0.0
  0
POINT
  8
SUNPOU
 10
7527.215307
 20
1733.246048
 30
0.0
  0
INSERT
  8
SUNPOU
  2
ARROWANG
 10
2915.588454
 20
1143.568716
 30
0.0
 41
30.0
 42
30.0
 50
235.488023
 43
30.0
  0
LINE
  8
SUNPOU
 10
2915.588454
 20
1143.568716
 30
0.0
 11
2999.519399
 21
1265.634327
 31
0.0
  0
LINE
  8
SUNPOU
 10
2999.519399
 20
1265.634327
 30
0.0
 11
3468.411547
 21
1265.634327
 31
0.0
  0
TEXT
  8
SUNPOU
 10
3011.500383
 20
1285.634327
 30
0.0
 40
60.0
  1
埋込みアンカー
  7
K
  0
LINE
  8
ITTEN
 10
3830.029043
 20
1915.410889
 30
0.0
 11
3830.029043
 21
1825.410889
 31
0.0
  0
TEXT
  8
SUNPOU
 10
9012.506913
 20
856.069337
 30
0.0
 40
60.0
  1
埋込みアンカー
  7
K
  0
LINE
  8
ITTEN
 10
3336.367415
 20
2365.410889
 30
0.0
 11
3336.367415
 21
2315.410889
 31
0.0
  0
LINE
  8
ITTEN
 10
3361.367415
 20
2340.410889
 30
0.0
 11
3311.367415
 21
2340.410889
 31
0.0
  0
CIRCLE
  8
HASEN
 10
3336.367415
 20
2340.410889
 30
0.0
 40
15.0
  0
LINE
  8
ITTEN
 10
2942.861295
 20
2340.410889
 30
0.0
 11
2892.861295
 21
2340.410889
 31
0.0
  0
LINE
  8
ITTEN
 10
2917.861295
 20
2365.410889
 30
0.0
 11
2917.861295
 21
2315.410889
 31
0.0
  0
CIRCLE
  8
HASEN
 10
2917.861295
 20
2340.410889
 30
0.0
 40
15.0
  0
TEXT
  8
SUNPOU
 10
3307.685335
 20
1993.944394
 30
0.0
 40
60.0
  1
埋込みアンカー
  7
K
  0
CIRCLE
  8
HASEN
 10
2917.861295
 20
1140.410889
 30
0.0
 40
15.0
  0
LINE
  8
ITTEN
 10
2917.861295
 20
1165.410889
 30
0.0
 11
2917.861295
 21
1115.410889
 31
0.0
  0
LINE
  8
ITTEN
 10
2942.861295
 20
1140.410889
 30
0.0
 11
2892.861295
 21
1140.410889
 31
0.0
  0
CIRCLE
  8
JISSEN
 10
7528.215307
 20
1733.246048
 30
0.0
 40
1153.0
  0
CIRCLE
  8
JISSEN
 10
7528.215307
 20
1733.246048
 30
0.0
 40
1162.0
  0
LINE
  8
JISSEN
 10
5120.029043
 20
5982.903542
 30
0.0
 11
4990.029043
 21
5982.903542
 31
0.0
  0
LINE
  8
JISSEN
 10
4992.029043
 20
5982.903542
 30
0.0
 11
4983.029043
 21
5950.903542
 31
0.0
  0
LINE
  8
JISSEN
 10
4983.029043
 20
5950.903542
 30
0.0
 11
4930.029043
 21
5950.903542
 31
0.0
  0
LINE
  8
JISSEN
 10
4730.029043
 20
5950.903542
 30
0.0
 11
3830.029043
 21
5950.903542
 31
0.0
  0
LINE
  8
JISSEN
 10
4930.029043
 20
5950.903542
 30
0.0
 11
4730.029043
 21
5950.903542
 31
0.0
  0
LINE
  8
JISSEN
 10
2730.029043
 20
5950.903542
 30
0.0
 11
2930.029043
 21
5950.903542
 31
0.0
  0
LINE
  8
JISSEN
 10
2930.029043
 20
5950.903542
 30
0.0
 11
3830.029043
 21
5950.903542
 31
0.0
  0
LINE
  8
JISSEN
 10
2677.029043
 20
5950.903542
 30
0.0
 11
2730.029043
 21
5950.903542
 31
0.0
  0
LINE
  8
JISSEN
 10
2668.029043
 20
5982.903542
 30
0.0
 11
2677.029043
 21
5950.903542
 31
0.0
  0
LINE
  8
JISSEN
 10
2540.029043
 20
5982.903542
 30
0.0
 11
2670.029043
 21
5982.903542
 31
0.0
  0
LINE
  8
JISSEN
 10
2540.029043
 20
3882.903542
 30
0.0
 11
2670.029043
 21
3882.903542
 31
0.0
  0
LINE
  8
JISSEN
 10
2670.029043
 20
3882.903542
 30
0.0
 11
2682.029043
 21
3862.903542
 31
0.0
  0
LINE
  8
JISSEN
 10
2682.029043
 20
3862.903542
 30
0.0
 11
3830.029043
 21
3862.903542
 31
0.0
  0
LINE
  8
ITTEN
 10
3830.029043
 20
3743.719021
 30
0.0
 11
3830.029043
 21
6245.330448
 31
0.0
  0
LINE
  8
JISSEN
 10
5120.029043
 20
3882.903542
 30
0.0
 11
4990.029043
 21
3882.903542
 31
0.0
  0
LINE
  8
JISSEN
 10
4990.029043
 20
3882.903542
 30
0.0
 11
4978.029043
 21
3862.903542
 31
0.0
  0
LINE
  8
JISSEN
 10
4978.029043
 20
3862.903542
 30
0.0
 11
3830.029043
 21
3862.903542
 31
0.0
  0
LINE
  8
JISSEN
 10
2540.029043
 20
5982.903542
 30
0.0
 11
2540.029043
 21
3882.903542
 31
0.0
  0
LINE
  8
JISSEN
 10
2730.029043
 20
5950.903542
 30
0.0
 11
2730.029043
 21
3862.903542
 31
0.0
  0
LINE
  8
JISSEN
 10
2668.029043
 20
5982.903542
 30
0.0
 11
4992.029043
 21
5982.903542
 31
0.0
  0
LINE
  8
JISSEN
 10
5120.029043
 20
5982.903542
 30
0.0
 11
5120.029043
 21
3882.903542
 31
0.0
  0
LINE
  8
JISSEN
 10
4930.029043
 20
5950.903542
 30
0.0
 11
4930.029043
 21
3862.903542
 31
0.0
  0
LINE
  8
JISSEN
 10
4930.029043
 20
2458.410889
 30
0.0
 11
4930.029043
 21
970.410889
 31
0.0
  0
LINE
  8
JISSEN
 10
5120.029043
 20
2490.410889
 30
0.0
 11
5120.029043
 21
990.410889
 31
0.0
  0
LINE
  8
JISSEN
 10
2668.029043
 20
2490.410889
 30
0.0
 11
4992.029043
 21
2490.410889
 31
0.0
  0
LINE
  8
JISSEN
 10
2730.029043
 20
2458.410889
 30
0.0
 11
2730.029043
 21
970.410889
 31
0.0
  0
LINE
  8
JISSEN
 10
2540.029043
 20
2490.410889
 30
0.0
 11
2540.029043
 21
990.410889
 31
0.0
  0
LINE
  8
JISSEN
 10
4978.029043
 20
970.410889
 30
0.0
 11
3830.029043
 21
970.410889
 31
0.0
  0
LINE
  8
JISSEN
 10
4990.029043
 20
990.410889
 30
0.0
 11
4978.029043
 21
970.410889
 31
0.0
  0
LINE
  8
JISSEN
 10
5120.029043
 20
990.410889
 30
0.0
 11
4990.029043
 21
990.410889
 31
0.0
  0
LINE
  8
ITTEN
 10
3830.029043
 20
870.410889
 30
0.0
 11
3830.029043
 21
2590.410889
 31
0.0
  0
LINE
  8
JISSEN
 10
2682.029043
 20
970.410889
 30
0.0
 11
3830.029043
 21
970.410889
 31
0.0
  0
LINE
  8
JISSEN
 10
2670.029043
 20
990.410889
 30
0.0
 11
2682.029043
 21
970.410889
 31
0.0
  0
LINE
  8
JISSEN
 10
2540.029043
 20
990.410889
 30
0.0
 11
2670.029043
 21
990.410889
 31
0.0
  0
LINE
  8
JISSEN
 10
2540.029043
 20
2490.410889
 30
0.0
 11
2670.029043
 21
2490.410889
 31
0.0
  0
LINE
  8
JISSEN
 10
2668.029043
 20
2490.410889
 30
0.0
 11
2677.029043
 21
2458.410889
 31
0.0
  0
LINE
  8
JISSEN
 10
2677.029043
 20
2458.410889
 30
0.0
 11
2730.029043
 21
2458.410889
 31
0.0
  0
LINE
  8
JISSEN
 10
2930.029043
 20
2458.410889
 30
0.0
 11
3830.029043
 21
2458.410889
 31
0.0
  0
LINE
  8
JISSEN
 10
2730.029043
 20
2458.410889
 30
0.0
 11
2930.029043
 21
2458.410889
 31
0.0
  0
LINE
  8
JISSEN
 10
4930.029043
 20
2458.410889
 30
0.0
 11
4730.029043
 21
2458.410889
 31
0.0
  0
LINE
  8
JISSEN
 10
4730.029043
 20
2458.410889
 30
0.0
 11
3830.029043
 21
2458.410889
 31
0.0
  0
LINE
  8
JISSEN
 10
4983.029043
 20
2458.410889
 30
0.0
 11
4930.029043
 21
2458.410889
 31
0.0
  0
LINE
  8
JISSEN
 10
4992.029043
 20
2490.410889
 30
0.0
 11
4983.029043
 21
2458.410889
 31
0.0
  0
LINE
  8
JISSEN
 10
5120.029043
 20
2490.410889
 30
0.0
 11
4990.029043
 21
2490.410889
 31
0.0
  0
LINE
  8
ITTEN
 10
8918.215307
 20
1733.246048
 30
0.0
 11
6138.215307
 21
1733.246048
 31
0.0
  0
LINE
  8
ITTEN
 10
7528.215307
 20
3123.246048
 30
0.0
 11
7528.215307
 21
343.246048
 31
0.0
  0
CIRCLE
  8
JISSEN
 10
7528.215307
 20
1733.246048
 30
0.0
 40
1290.0
  0
CIRCLE
  8
JISSEN
 10
7528.215307
 20
1733.246048
 30
0.0
 40
1100.0
  0
LINE
  8
SUNPOU
 10
2540.029043
 20
6002.903542
 30
0.0
 11
2540.029043
 21
6535.7387
 31
0.0
  0
LINE
  8
SUNPOU
 10
2730.029043
 20
5970.903542
 30
0.0
 11
2730.029043
 21
6535.7387
 31
0.0
  0
LINE
  8
SUNPOU
 10
2540.029043
 20
6515.7387
 30
0.0
 11
2730.029043
 21
6515.7387
 31
0.0
  0
INSERT
  8
SUNPOU
  2
ARROWANG
 10
2540.029043
 20
6515.7387
 30
0.0
 41
30.0
 42
30.0
 50
180.0
 43
30.0
  0
INSERT
  8
SUNPOU
  2
ARROWANG
 10
2730.029043
 20
6515.7387
 30
0.0
 41
30.0
 42
30.0
 43
30.0
  0
TEXT
  8
SUNPOU
 10
2545.029053
 20
6545.7387
 30
0.0
 40
60.0
  1
190
  7
K
 72
     1
 11
2635.029053
 21
6545.7387
 31
0.0
  0
LINE
  8
SUNPOU
 10
2730.029043
 20
6515.7387
 30
0.0
 11
4930.029043
 21
6515.7387
 31
0.0
  0
LINE
  8
SUNPOU
 10
4930.029043
 20
5970.903542
 30
0.0
 11
4930.029043
 21
6535.7387
 31
0.0
  0
INSERT
  8
SUNPOU
  2
ARROWANG
 10
2730.029043
 20
6515.7387
 30
0.0
 41
30.0
 42
30.0
 50
180.0
 43
30.0
  0
INSERT
  8
SUNPOU
  2
ARROWANG
 10
4930.029043
 20
6515.7387
 30
0.0
 41
30.0
 42
30.0
 43
30.0
  0
TEXT
  8
SUNPOU
 10
3715.743329
 20
6545.7387
 30
0.0
 40
60.0
  1
2200
  7
K
 72
     1
 11
3830.029043
 21
6545.7387
 31
0.0
  0
LINE
  8
SUNPOU
 10
4930.029043
 20
6515.7387
 30
0.0
 11
5120.029043
 21
6515.7387
 31
0.0
  0
LINE
  8
SUNPOU
 10
5120.029043
 20
6002.903542
 30
0.0
 11
5120.029043
 21
6535.7387
 31
0.0
  0
INSERT
  8
SUNPOU
  2
ARROWANG
 10
4930.029043
 20
6515.7387
 30
0.0
 41
30.0
 42
30.0
 50
180.0
 43
30.0
  0
INSERT
  8
SUNPOU
  2
ARROWANG
 10
5120.029043
 20
6515.7387
 30
0.0
 41
30.0
 42
30.0
 43
30.0
  0
TEXT
  8
SUNPOU
 10
4935.029043
 20
6545.7387
 30
0.0
 40
60.0
  1
190
  7
K
 72
     1
 11
5025.029043
 21
6545.7387
 31
0.0
  0
LINE
  8
SUNPOU
 10
2668.029043
 20
6002.903542
 30
0.0
 11
2668.029043
 21
6339.549818
 31
0.0
  0
LINE
  8
SUNPOU
 10
4992.029043
 20
6002.903542
 30
0.0
 11
4992.029043
 21
6339.549818
 31
0.0
  0
LINE
  8
SUNPOU
 10
2668.029043
 20
6319.549818
 30
0.0
 11
4992.029043
 21
6319.549818
 31
0.0
  0
INSERT
  8
SUNPOU
  2
ARROWANG
 10
2668.029043
 20
6319.549818
 30
0.0
 41
30.0
 42
30.0
 50
180.0
 43
30.0
  0
INSERT
  8
SUNPOU
  2
ARROWANG
 10
4992.029043
 20
6319.549818
 30
0.0
 41
30.0
 42
30.0
 43
30.0
  0
TEXT
  8
SUNPOU
 10
3714.314767
 20
6349.549818
 30
0.0
 40
60.0
  1
2324
  7
K
 72
     1
 11
3830.029053
 21
6349.549818
 31
0.0
  0
LINE
  8
SUNPOU
 10
2677.029043
 20
5970.903542
 30
0.0
 11
2677.029043
 21
6158.367921
 31
0.0
  0
LINE
  8
SUNPOU
 10
4983.029043
 20
5970.903542
 30
0.0
 11
4983.029043
 21
6158.367921
 31
0.0
  0
LINE
  8
SUNPOU
 10
2677.029043
 20
6138.367921
 30
0.0
 11
4983.029043
 21
6138.367921
 31
0.0
  0
INSERT
  8
SUNPOU
  2
ARROWANG
 10
2677.029043
 20
6138.367921
 30
0.0
 41
30.0
 42
30.0
 50
180.0
 43
30.0
  0
INSERT
  8
SUNPOU
  2
ARROWANG
 10
4983.029043
 20
6138.367921
 30
0.0
 41
30.0
 42
30.0
 43
30.0
  0
TEXT
  8
SUNPOU
 10
3715.743338
 20
6168.367921
 30
0.0
 40
60.0
  1
2306
  7
K
 72
     1
 11
3830.029053
 21
6168.367921
 31
0.0
  0
TEXT
  8
SUNPOU
 10
3715.743338
 20
2675.875269
 30
0.0
 40
60.0
  1
2306
  7
K
 72
     1
 11
3830.029053
 21
2675.875269
 31
0.0
  0
INSERT
  8
SUNPOU
  2
ARROWANG
 10
4983.029043
 20
2645.875269
 30
0.0
 41
30.0
 42
30.0
 43
30.0
  0
INSERT
  8
SUNPOU
  2
ARROWANG
 10
2677.029043
 20
2645.875269
 30
0.0
 41
30.0
 42
30.0
 50
180.0
 43
30.0
  0
LINE
  8
SUNPOU
 10
2677.029043
 20
2645.875269
 30
0.0
 11
4983.029043
 21
2645.875269
 31
0.0
  0
LINE
  8
SUNPOU
 10
4983.029043
 20
2478.410889
 30
0.0
 11
4983.029043
 21
2665.875269
 31
0.0
  0
LINE
  8
SUNPOU
 10
2677.029043
 20
2478.410889
 30
0.0
 11
2677.029043
 21
2665.875269
 31
0.0
  0
TEXT
  8
SUNPOU
 10
3714.314767
 20
2857.057165
 30
0.0
 40
60.0
  1
2324
  7
K
 72
     1
 11
3830.029053
 21
2857.057165
 31
0.0
  0
INSERT
  8
SUNPOU
  2
ARROWANG
 10
4992.029043
 20
2827.057165
 30
0.0
 41
30.0
 42
30.0
 43
30.0
  0
INSERT
  8
SUNPOU
  2
ARROWANG
 10
2668.029043
 20
2827.057165
 30
0.0
 41
30.0
 42
30.0
 50
180.0
 43
30.0
  0
LINE
  8
SUNPOU
 10
2668.029043
 20
2827.057165
 30
0.0
 11
4992.029043
 21
2827.057165
 31
0.0
  0
LINE
  8
SUNPOU
 10
4992.029043
 20
2510.410889
 30
0.0
 11
4992.029043
 21
2847.057165
 31
0.0
  0
LINE
  8
SUNPOU
 10
2668.029043
 20
2510.410889
 30
0.0
 11
2668.029043
 21
2847.057165
 31
0.0
  0
TEXT
  8
SUNPOU
 10
4935.029043
 20
3053.246048
 30
0.0
 40
60.0
  1
190
  7
K
 72
     1
 11
5025.029043
 21
3053.246048
 31
0.0
  0
INSERT
  8
SUNPOU
  2
ARROWANG
 10
5120.029043
 20
3023.246048
 30
0.0
 41
30.0
 42
30.0
 43
30.0
  0
INSERT
  8
SUNPOU
  2
ARROWANG
 10
4930.029043
 20
3023.246048
 30
0.0
 41
30.0
 42
30.0
 50
180.0
 43
30.0
  0
LINE
  8
SUNPOU
 10
5120.029043
 20
2510.410889
 30
0.0
 11
5120.029043
 21
3043.246048
 31
0.0
  0
LINE
  8
SUNPOU
 10
4930.029043
 20
3023.246048
 30
0.0
 11
5120.029043
 21
3023.246048
 31
0.0
  0
TEXT
  8
SUNPOU
 10
3715.743329
 20
3053.246048
 30
0.0
 40
60.0
  1
2200
  7
K
 72
     1
 11
3830.029043
 21
3053.246048
 31
0.0
  0
INSERT
  8
SUNPOU
  2
ARROWANG
 10
4930.029043
 20
3023.246048
 30
0.0
 41
30.0
 42
30.0
 43
30.0
  0
INSERT
  8
SUNPOU
  2
ARROWANG
 10
2730.029043
 20
3023.246048
 30
0.0
 41
30.0
 42
30.0
 50
180.0
 43
30.0
  0
LINE
  8
SUNPOU
 10
4930.029043
 20
2478.410889
 30
0.0
 11
4930.029043
 21
3043.246048
 31
0.0
  0
LINE
  8
SUNPOU
 10
2730.029043
 20
3023.246048
 30
0.0
 11
4930.029043
 21
3023.246048
 31
0.0
  0
TEXT
  8
SUNPOU
 10
2545.029053
 20
3053.246048
 30
0.0
 40
60.0
  1
190
  7
K
 72
     1
 11
2635.029053
 21
3053.246048
 31
0.0
  0
INSERT
  8
SUNPOU
  2
ARROWANG
 10
2730.029043
 20
3023.246048
 30
0.0
 41
30.0
 42
30.0
 43
30.0
  0
INSERT
  8
SUNPOU
  2
ARROWANG
 10
2540.029043
 20
3023.246048
 30
0.0
 41
30.0
 42
30.0
 50
180.0
 43
30.0
  0
LINE
  8
SUNPOU
 10
2540.029043
 20
3023.246048
 30
0.0
 11
2730.029043
 21
3023.246048
 31
0.0
  0
LINE
  8
SUNPOU
 10
2730.029043
 20
2478.410889
 30
0.0
 11
2730.029043
 21
3043.246048
 31
0.0
  0
LINE
  8
SUNPOU
 10
2540.029043
 20
2510.410889
 30
0.0
 11
2540.029043
 21
3043.246048
 31
0.0
  0
TEXT
  8
SUNPOU
 10
3715.743338
 20
814.277031
 30
0.0
 40
60.0
  1
2296
  7
K
 72
     1
 11
3830.029053
 21
814.277031
 31
0.0
  0
INSERT
  8
SUNPOU
  2
ARROWANG
 10
4978.029043
 20
784.277031
 30
0.0
 41
30.0
 42
30.0
 43
30.0
  0
INSERT
  8
SUNPOU
  2
ARROWANG
 10
2682.029043
 20
784.277031
 30
0.0
 41
30.0
 42
30.0
 50
180.0
 43
30.0
  0
LINE
  8
SUNPOU
 10
2682.029043
 20
784.277031
 30
0.0
 11
4978.029043
 21
784.277031
 31
0.0
  0
LINE
  8
SUNPOU
 10
4978.029043
 20
950.410889
 30
0.0
 11
4978.029043
 21
764.277031
 31
0.0
  0
LINE
  8
SUNPOU
 10
2682.029043
 20
950.410889
 30
0.0
 11
2682.029043
 21
764.277031
 31
0.0
  0
TEXT
  8
SUNPOU
 10
3713.130972
 20
633.095134
 30
0.0
 40
60.0
  1
2320
  7
K
 72
     1
 11
3827.416686
 21
633.095134
 31
0.0
  0
INSERT
  8
SUNPOU
  2
ARROWANG
 10
2670.029043
 20
603.095134
 30
0.0
 41
30.0
 42
30.0
 50
180.0
 43
30.0
  0
INSERT
  8
SUNPOU
  2
ARROWANG
 10
4990.029043
 20
603.095134
 30
0.0
 41
30.0
 42
30.0
 43
30.0
  0
LINE
  8
SUNPOU
 10
2670.029043
 20
603.095134
 30
0.0
 11
4990.029043
 21
603.095134
 31
0.0
  0
LINE
  8
SUNPOU
 10
4990.029043
 20
970.410889
 30
0.0
 11
4990.029043
 21
583.095134
 31
0.0
  0
LINE
  8
SUNPOU
 10
2670.029043
 20
970.410889
 30
0.0
 11
2670.029043
 21
583.095134
 31
0.0
  0
LINE
  8
SUNPOU
 10
2670.029043
 20
3862.903542
 30
0.0
 11
2670.029043
 21
3475.587787
 31
0.0
  0
LINE
  8
SUNPOU
 10
4990.029043
 20
3862.903542
 30
0.0
 11
4990.029043
 21
3475.587787
 31
0.0
  0
LINE
  8
SUNPOU
 10
2670.029043
 20
3495.587787
 30
0.0
 11
4990.029043
 21
3495.587787
 31
0.0
  0
INSERT
  8
SUNPOU
  2
ARROWANG
 10
4990.029043
 20
3495.587787
 30
0.0
 41
30.0
 42
30.0
 43
30.0
  0
INSERT
  8
SUNPOU
  2
ARROWANG
 10
2670.029043
 20
3495.587787
 30
0.0
 41
30.0
 42
30.0
 50
180.0
 43
30.0
  0
TEXT
  8
SUNPOU
 10
3713.130972
 20
3525.587787
 30
0.0
 40
60.0
  1
2320
  7
K
 72
     1
 11
3827.416686
 21
3525.587787
 31
0.0
  0
LINE
  8
SUNPOU
 10
2682.029043
 20
3842.903542
 30
0.0
 11
2682.029043
 21
3656.769684
 31
0.0
  0
LINE
  8
SUNPOU
 10
4978.029043
 20
3842.903542
 30
0.0
 11
4978.029043
 21
3656.769684
 31
0.0
  0
LINE
  8
SUNPOU
 10
2682.029043
 20
3676.769684
 30
0.0
 11
4978.029043
 21
3676.769684
 31
0.0
  0
INSERT
  8
SUNPOU
  2
ARROWANG
 10
2682.029043
 20
3676.769684
 30
0.0
 41
30.0
 42
30.0
 50
180.0
 43
30.0
  0
INSERT
  8
SUNPOU
  2
ARROWANG
 10
4978.029043
 20
3676.769684
 30
0.0
 41
30.0
 42
30.0
 43
30.0
  0
TEXT
  8
SUNPOU
 10
3715.743338
 20
3706.769684
 30
0.0
 40
60.0
  1
2296
  7
K
 72
     1
 11
3830.029053
 21
3706.769684
 31
0.0
  0
TEXT
  8
SUNPOU
 10
2303.791735
 20
3739.760685
 30
0.0
 40
60.0
  1
20
 50
90.0
  7
K
 72
     1
 11
2303.791735
 21
3796.903542
 31
0.0
  0
LINE
  8
SUNPOU
 10
2333.791735
 20
3882.903542
 30
0.0
 11
2333.791735
 21
3942.903542
 31
0.0
  0
LINE
  8
SUNPOU
 10
2333.791735
 20
3862.903542
 30
0.0
 11
2333.791735
 21
3730.903542
 31
0.0
  0
INSERT
  8
SUNPOU
  2
ARROWANG
 10
2333.791735
 20
3882.903542
 30
0.0
 41
30.0
 42
30.0
 50
270.0
 43
30.0
  0
INSERT
  8
SUNPOU
  2
ARROWANG
 10
2333.791735
 20
3862.903542
 30
0.0
 41
30.0
 42
30.0
 50
90.0
 43
30.0
  0
LINE
  8
SUNPOU
 10
2333.791735
 20
3862.903542
 30
0.0
 11
2333.791735
 21
3882.903542
 31
0.0
  0
LINE
  8
SUNPOU
 10
2520.029043
 20
3882.903542
 30
0.0
 11
2313.791735
 21
3882.903542
 31
0.0
  0
LINE
  8
SUNPOU
 10
2662.029043
 20
3862.903542
 30
0.0
 11
2313.791735
 21
3862.903542
 31
0.0
  0
TEXT
  8
SUNPOU
 10
2296.006559
 20
5991.760685
 30
0.0
 40
60.0
  1
32
 50
90.0
  7
K
 72
     1
 11
2296.006559
 21
6048.903542
 31
0.0
  0
LINE
  8
SUNPOU
 10
2326.006559
 20
5950.903542
 30
0.0
 11
2326.00656
 21
5890.903542
 31
0.0
  0
LINE
  8
SUNPOU
 10
2326.006559
 20
5982.903542
 30
0.0
 11
2326.006559
 21
6114.903542
 31
0.0
  0
INSERT
  8
SUNPOU
  2
ARROWANG
 10
2326.006559
 20
5982.903542
 30
0.0
 41
30.0
 42
30.0
 50
270.0
 43
30.0
  0
INSERT
  8
SUNPOU
  2
ARROWANG
 10
2326.006559
 20
5950.903542
 30
0.0
 41
30.0
 42
30.0
 50
90.0
 43
30.0
  0
LINE
  8
SUNPOU
 10
2326.006559
 20
5950.903542
 30
0.0
 11
2326.006559
 21
5982.903542
 31
0.0
  0
LINE
  8
SUNPOU
 10
2520.029043
 20
5982.903542
 30
0.0
 11
2306.006559
 21
5982.903542
 31
0.0
  0
LINE
  8
SUNPOU
 10
2710.029043
 20
5950.903542
 30
0.0
 11
2306.006559
 21
5950.903542
 31
0.0
  0
TEXT
  8
SUNPOU
 10
2022.327662
 20
4818.617828
 30
0.0
 40
60.0
  1
2100
 50
90.0
  7
K
 72
     1
 11
2022.327662
 21
4932.903542
 31
0.0
  0
INSERT
  8
SUNPOU
  2
ARROWANG
 10
2052.327662
 20
5982.903542
 30
0.0
 41
30.0
 42
30.0
 50
90.0
 43
30.0
  0
INSERT
  8
SUNPOU
  2
ARROWANG
 10
2052.327662
 20
3882.903542
 30
0.0
 41
30.0
 42
30.0
 50
270.0
 43
30.0
  0
LINE
  8
SUNPOU
 10
2052.327662
 20
3882.903542
 30
0.0
 11
2052.327662
 21
5982.903542
 31
0.0
  0
LINE
  8
SUNPOU
 10
2520.029043
 20
5982.903542
 30
0.0
 11
2032.327662
 21
5982.903542
 31
0.0
  0
LINE
  8
SUNPOU
 10
2520.029043
 20
3882.903542
 30
0.0
 11
2032.327662
 21
3882.903542
 31
0.0
  0
TEXT
  8
SUNPOU
 10
2309.920071
 20
847.268032
 30
0.0
 40
60.0
  1
20
 50
90.0
  7
K
 72
     1
 11
2309.920071
 21
904.410889
 31
0.0
  0
LINE
  8
SUNPOU
 10
2339.920071
 20
990.410889
 30
0.0
 11
2339.920071
 21
1050.410889
 31
0.0
  0
LINE
  8
SUNPOU
 10
2339.920071
 20
970.410889
 30
0.0
 11
2339.920071
 21
838.410889
 31
0.0
  0
INSERT
  8
SUNPOU
  2
ARROWANG
 10
2339.920071
 20
990.410889
 30
0.0
 41
30.0
 42
30.0
 50
270.0
 43
30.0
  0
INSERT
  8
SUNPOU
  2
ARROWANG
 10
2339.920071
 20
970.410889
 30
0.0
 41
30.0
 42
30.0
 50
90.0
 43
30.0
  0
LINE
  8
SUNPOU
 10
2339.920071
 20
970.410889
 30
0.0
 11
2339.920071
 21
990.410889
 31
0.0
  0
LINE
  8
SUNPOU
 10
2520.029043
 20
990.410889
 30
0.0
 11
2319.920071
 21
990.410889
 31
0.0
  0
LINE
  8
SUNPOU
 10
2662.029043
 20
970.410889
 30
0.0
 11
2319.920071
 21
970.410889
 31
0.0
  0
TEXT
  8
SUNPOU
 10
2304.537092
 20
2499.268032
 30
0.0
 40
60.0
  1
32
 50
90.0
  7
K
 72
     1
 11
2304.537092
 21
2556.410889
 31
0.0
  0
LINE
  8
SUNPOU
 10
2334.537092
 20
2458.410889
 30
0.0
 11
2334.537093
 21
2398.410889
 31
0.0
  0
LINE
  8
SUNPOU
 10
2334.537092
 20
2490.410889
 30
0.0
 11
2334.537092
 21
2622.410889
 31
0.0
  0
INSERT
  8
SUNPOU
  2
ARROWANG
 10
2334.537092
 20
2490.410889
 30
0.0
 41
30.0
 42
30.0
 50
270.0
 43
30.0
  0
INSERT
  8
SUNPOU
  2
ARROWANG
 10
2334.537092
 20
2458.410889
 30
0.0
 41
30.0
 42
30.0
 50
90.0
 43
30.0
  0
LINE
  8
SUNPOU
 10
2334.537092
 20
2458.410889
 30
0.0
 11
2334.537092
 21
2490.410889
 31
0.0
  0
LINE
  8
SUNPOU
 10
2520.029043
 20
2490.410889
 30
0.0
 11
2314.537092
 21
2490.410889
 31
0.0
  0
LINE
  8
SUNPOU
 10
2657.029043
 20
2458.410889
 30
0.0
 11
2314.537092
 21
2458.410889
 31
0.0
  0
TEXT
  8
SUNPOU
 10
2077.255743
 20
1621.839461
 30
0.0
 40
60.0
  1
1500
 50
90.0
  7
K
 72
     1
 11
2077.255743
 21
1740.410889
 31
0.0
  0
INSERT
  8
SUNPOU
  2
ARROWANG
 10
2107.255743
 20
2490.410889
 30
0.0
 41
30.0
 42
30.0
 50
90.0
 43
30.0
  0
INSERT
  8
SUNPOU
  2
ARROWANG
 10
2107.255743
 20
990.410889
 30
0.0
 41
30.0
 42
30.0
 50
270.0
 43
30.0
  0
LINE
  8
SUNPOU
 10
2107.255743
 20
990.410889
 30
0.0
 11
2107.255743
 21
2490.410889
 31
0.0
  0
LINE
  8
SUNPOU
 10
2520.029043
 20
2490.410889
 30
0.0
 11
2087.255743
 21
2490.410889
 31
0.0
  0
LINE
  8
SUNPOU
 10
2520.029043
 20
990.410889
 30
0.0
 11
2087.255743
 21
990.410889
 31
0.0
  0
POINT
  8
SUNPOU
 10
7527.215307
 20
1733.246048
 30
0.0
  0
TEXT
  8
SUNPOU
 10
7626.488379
 20
1841.804471
 30
0.0
 40
60.0
  1
%%C2580
 50
33.074149
  7
K
 72
     1
 11
7741.409297
 21
1916.646611
 31
0.0
  0
INSERT
  8
SUNPOU
  2
ARROWANG
 10
6447.240422
 20
1029.262171
 30
0.0
 41
30.0
 42
30.0
 50
213.074149
 43
30.0
  0
INSERT
  8
SUNPOU
  2
ARROWANG
 10
8609.190192
 20
2437.229924
 30
0.0
 41
30.0
 42
30.0
 50
33.074149
 43
30.0
  0
LINE
  8
SUNPOU
 10
8609.190192
 20
2437.229924
 30
0.0
 11
6447.240422
 21
1029.262171
 31
0.0
  0
TEXT
  8
SUNPOU
 10
7147.161211
 20
1976.506307
 30
0.0
 40
60.0
  1
%%C2200
 50
332.580614
  7
K
 72
     1
 11
7268.897388
 21
1913.352001
 31
0.0
  0
INSERT
  8
SUNPOU
  2
ARROWANG
 10
8504.640896
 20
1226.695884
 30
0.0
 41
30.0
 42
30.0
 50
332.580614
 43
30.0
  0
INSERT
  8
SUNPOU
  2
ARROWANG
 10
6551.789717
 20
2239.796211
 30
0.0
 41
30.0
 42
30.0
 50
152.580614
 43
30.0
  0
LINE
  8
SUNPOU
 10
6551.789717
 20
2239.796211
 30
0.0
 11
8504.640896
 21
1226.695884
 31
0.0
  0
ARC
  8
JISSEN
 10
6568.215307
 20
1923.246048
 30
0.0
 40
10.0
 50
0.0
 51
90.0
  0
ARC
  8
JISSEN
 10
6548.215307
 20
1903.246048
 30
0.0
 40
10.0
 50
0.0
 51
90.0
  0
ARC
  8
JISSEN
 10
6548.215307
 20
1563.246048
 30
0.0
 40
10.0
 50
270.0
 51
0.0
  0
ARC
  8
JISSEN
 10
6568.215307
 20
1543.246048
 30
0.0
 40
10.0
 50
270.0
 51
0.0
  0
LINE
  8
JISSEN
 10
6548.215307
 20
1913.246048
 30
0.0
 11
6443.042509
 21
1913.246048
 31
0.0
  0
LINE
  8
JISSEN
 10
6558.215307
 20
1563.246048
 30
0.0
 11
6558.215307
 21
1903.246048
 31
0.0
  0
LINE
  8
JISSEN
 10
6443.042509
 20
1553.246048
 30
0.0
 11
6548.215307
 21
1553.246048
 31
0.0
  0
LINE
  8
JISSEN
 10
6568.215307
 20
1933.246048
 30
0.0
 11
6446.549924
 21
1933.246048
 31
0.0
  0
LINE
  8
JISSEN
 10
6578.215307
 20
1543.246048
 30
0.0
 11
6578.215307
 21
1923.246048
 31
0.0
  0
LINE
  8
JISSEN
 10
6446.549924
 20
1533.246048
 30
0.0
 11
6568.215307
 21
1533.246048
 31
0.0
  0
POINT
  8
JISSEN
 10
7528.215307
 20
1734.246048
 30
0.0
  0
ARC
  8
JISSEN
 10
2870.029043
 20
5812.903542
 30
0.0
 40
10.0
 50
270.0
 51
90.0
  0
LINE
  8
JISSEN
 10
2730.029043
 20
5822.903542
 30
0.0
 11
2870.029043
 21
5822.903542
 31
0.0
  0
LINE
  8
JISSEN
 10
2730.029043
 20
5802.903542
 30
0.0
 11
2870.029043
 21
5802.903542
 31
0.0
  0
LINE
  8
ITTEN
 10
2730.029043
 20
5812.903542
 30
0.0
 11
2930.029043
 21
5812.903542
 31
0.0
  0
ARC
  8
JISSEN
 10
2870.029043
 20
5512.903542
 30
0.0
 40
10.0
 50
270.0
 51
90.0
  0
LINE
  8
JISSEN
 10
2730.029043
 20
5522.903542
 30
0.0
 11
2870.029043
 21
5522.903542
 31
0.0
  0
LINE
  8
JISSEN
 10
2730.029043
 20
5502.903542
 30
0.0
 11
2870.029043
 21
5502.903542
 31
0.0
  0
LINE
  8
ITTEN
 10
2730.029043
 20
5512.903542
 30
0.0
 11
2930.029043
 21
5512.903542
 31
0.0
  0
ARC
  8
JISSEN
 10
2867.779256
 20
5212.564776
 30
0.0
 40
10.0
 50
270.0
 51
90.0
  0
LINE
  8
JISSEN
 10
2730.029043
 20
5222.564776
 30
0.0
 11
2867.779256
 21
5222.564776
 31
0.0
  0
LINE
  8
JISSEN
 10
2730.029043
 20
5202.564776
 30
0.0
 11
2867.779256
 21
5202.564776
 31
0.0
  0
LINE
  8
ITTEN
 10
2727.779256
 20
5212.564776
 30
0.0
 11
2927.779256
 21
5212.564776
 31
0.0
  0
LINE
  8
SUNPOU
 10
4950.029043
 20
3862.903542
 30
0.0
 11
5495.529229
 21
3862.903542
 31
0.0
  0
LINE
  8
SUNPOU
 10
4950.029043
 20
4232.903542
 30
0.0
 11
5495.529229
 21
4232.903542
 31
0.0
  0
LINE
  8
SUNPOU
 10
5475.529229
 20
3862.903542
 30
0.0
 11
5475.529229
 21
4232.903542
 31
0.0
  0
INSERT
  8
SUNPOU
  2
ARROWANG
 10
5475.529229
 20
3862.903542
 30
0.0
 41
30.0
 42
30.0
 50
270.0
 43
30.0
  0
INSERT
  8
SUNPOU
  2
ARROWANG
 10
5475.529229
 20
4232.903542
 30
0.0
 41
30.0
 42
30.0
 50
90.0
 43
30.0
  0
TEXT
  8
SUNPOU
 10
5445.529229
 20
3962.189256
 30
0.0
 40
60.0
  1
370
 50
90.0
  7
K
 72
     1
 11
5445.529229
 21
4047.903542
 31
0.0
  0
CIRCLE
  8
JISSEN
 10
3830.029043
 20
4907.903542
 30
0.0
 40
818.0
  0
LINE
  8
ITTEN
 10
2730.029043
 20
2020.410889
 30
0.0
 11
2930.029043
 21
2020.410889
 31
0.0
  0
LINE
  8
JISSEN
 10
2730.029043
 20
2010.410889
 30
0.0
 11
2870.029043
 21
2010.410889
 31
0.0
  0
LINE
  8
JISSEN
 10
2730.029043
 20
2030.410889
 30
0.0
 11
2870.029043
 21
2030.410889
 31
0.0
  0
ARC
  8
JISSEN
 10
2870.029043
 20
2020.410889
 30
0.0
 40
10.0
 50
270.0
 51
90.0
  0
LINE
  8
ITTEN
 10
2730.029043
 20
2320.410889
 30
0.0
 11
2930.029043
 21
2320.410889
 31
0.0
  0
LINE
  8
JISSEN
 10
2730.029043
 20
2310.410889
 30
0.0
 11
2870.029043
 21
2310.410889
 31
0.0
  0
LINE
  8
JISSEN
 10
2730.029043
 20
2330.410889
 30
0.0
 11
2870.029043
 21
2330.410889
 31
0.0
  0
ARC
  8
JISSEN
 10
2870.029043
 20
2320.410889
 30
0.0
 40
10.0
 50
270.0
 51
90.0
  0
LINE
  8
SUNPOU
 10
4950.029043
 20
970.410889
 30
0.0
 11
5426.827083
 21
970.410889
 31
0.0
  0
LINE
  8
SUNPOU
 10
5140.029043
 20
1340.410889
 30
0.0
 11
5426.827083
 21
1340.410889
 31
0.0
  0
LINE
  8
SUNPOU
 10
5406.827083
 20
970.410889
 30
0.0
 11
5406.827083
 21
1340.410889
 31
0.0
  0
INSERT
  8
SUNPOU
  2
ARROWANG
 10
5406.827083
 20
970.410889
 30
0.0
 41
30.0
 42
30.0
 50
270.0
 43
30.0
  0
INSERT
  8
SUNPOU
  2
ARROWANG
 10
5406.827083
 20
1340.410889
 30
0.0
 41
30.0
 42
30.0
 50
90.0
 43
30.0
  0
TEXT
  8
SUNPOU
 10
5376.827083
 20
1069.696604
 30
0.0
 40
60.0
  1
370
 50
90.0
  7
K
 72
     1
 11
5376.827083
 21
1155.410889
 31
0.0
  0
CIRCLE
  8
JISSEN
 10
3830.029043
 20
1790.410889
 30
0.0
 40
560.0
  0
LINE
  8
TENSEN
 10
6968.215307
 20
2895.356197
 30
0.0
 11
6968.215307
 21
2680.030078
 31
0.0
  0
LINE
  8
TENSEN
 10
8088.215307
 20
2895.356197
 30
0.0
 11
8088.215307
 21
2680.030078
 31
0.0
  0
TEXT
  8
TEXT
 10
3015.512381
 20
1180.830807
 30
0.0
 40
60.0
  1
M20 4ケ所
  7
K
  0
TEXT
  8
TEXT
 10
3324.255671
 20
5361.895743
 30
0.0
 40
60.0
  1
M20 8ケ所
  7
K
  0
TEXT
  8
TEXT
 10
3026.394362
 20
4074.655009
 30
0.0
 40
60.0
  1
M20 4ケ所
  7
K
  0
POINT
  8
SUNPOU
 10
7529.121615
 20
1732.823429
 30
0.0
  0
TEXT
  8
TEXT
 10
6724.580626
 20
3774.655009
 30
0.0
 40
60.0
  1
M20 4ケ所
  7
K
  0
TEXT
  8
TEXT
 10
7022.441935
 20
5361.895743
 30
0.0
 40
60.0
  1
M20 8ケ所
  7
K
  0
CIRCLE
  8
JISSEN
 10
7528.215307
 20
4607.903542
 30
0.0
 40
818.0
  0
TEXT
  8
SUNPOU
 10
9143.715493
 20
3662.189256
 30
0.0
 40
60.0
  1
370
 50
90.0
  7
K
 72
     1
 11
9143.715493
 21
3747.903542
 31
0.0
  0
INSERT
  8
SUNPOU
  2
ARROWANG
 10
9173.715493
 20
3932.903542
 30
0.0
 41
30.0
 42
30.0
 50
90.0
 43
30.0
  0
INSERT
  8
SUNPOU
  2
ARROWANG
 10
9173.715493
 20
3562.903542
 30
0.0
 41
30.0
 42
30.0
 50
270.0
 43
30.0
  0
LINE
  8
SUNPOU
 10
9173.715493
 20
3562.903542
 30
0.0
 11
9173.715493
 21
3932.903542
 31
0.0
  0
LINE
  8
SUNPOU
 10
8648.215307
 20
3932.903542
 30
0.0
 11
9193.715493
 21
3932.903542
 31
0.0
  0
LINE
  8
SUNPOU
 10
8648.215307
 20
3562.903542
 30
0.0
 11
9193.715493
 21
3562.903542
 31
0.0
  0
LINE
  8
ITTEN
 10
6425.96552
 20
5212.564776
 30
0.0
 11
6625.96552
 21
5212.564776
 31
0.0
  0
LINE
  8
JISSEN
 10
6428.215307
 20
5202.564776
 30
0.0
 11
6565.96552
 21
5202.564776
 31
0.0
  0
LINE
  8
JISSEN
 10
6428.215307
 20
5222.564776
 30
0.0
 11
6565.96552
 21
5222.564776
 31
0.0
  0
ARC
  8
JISSEN
 10
6565.96552
 20
5212.564776
 30
0.0
 40
10.0
 50
270.0
 51
90.0
  0
LINE
  8
ITTEN
 10
6428.215307
 20
5512.903542
 30
0.0
 11
6628.215307
 21
5512.903542
 31
0.0
  0
LINE
  8
JISSEN
 10
6428.215307
 20
5502.903542
 30
0.0
 11
6568.215307
 21
5502.903542
 31
0.0
  0
LINE
  8
JISSEN
 10
6428.215307
 20
5522.903542
 30
0.0
 11
6568.215307
 21
5522.903542
 31
0.0
  0
ARC
  8
JISSEN
 10
6568.215307
 20
5512.903542
 30
0.0
 40
10.0
 50
270.0
 51
90.0
  0
LINE
  8
ITTEN
 10
6428.215307
 20
5812.903542
 30
0.0
 11
6628.215307
 21
5812.903542
 31
0.0
  0
LINE
  8
JISSEN
 10
6428.215307
 20
5802.903542
 30
0.0
 11
6568.215307
 21
5802.903542
 31
0.0
  0
LINE
  8
JISSEN
 10
6428.215307
 20
5822.903542
 30
0.0
 11
6568.215307
 21
5822.903542
 31
0.0
  0
ARC
  8
JISSEN
 10
6568.215307
 20
5812.903542
 30
0.0
 40
10.0
 50
270.0
 51
90.0
  0
LINE
  8
SUNPOU
 10
6218.215307
 20
3582.903542
 30
0.0
 11
5730.513926
 21
3582.903542
 31
0.0
  0
LINE
  8
SUNPOU
 10
6218.215307
 20
5982.903542
 30
0.0
 11
5730.513926
 21
5982.903542
 31
0.0
  0
LINE
  8
SUNPOU
 10
5750.513926
 20
3582.903542
 30
0.0
 11
5750.513926
 21
5982.903542
 31
0.0
  0
INSERT
  8
SUNPOU
  2
ARROWANG
 10
5750.513926
 20
3582.903542
 30
0.0
 41
30.0
 42
30.0
 50
270.0
 43
30.0
  0
INSERT
  8
SUNPOU
  2
ARROWANG
 10
5750.513926
 20
5982.903542
 30
0.0
 41
30.0
 42
30.0
 50
90.0
 43
30.0
  0
TEXT
  8
SUNPOU
 10
5712.798766
 20
4697.603263
 30
0.0
 40
60.0
  1
2400
 50
90.0
  7
K
 72
     1
 11
5712.798766
 21
4811.888978
 31
0.0
  0
LINE
  8
SUNPOU
 10
6408.215307
 20
5950.903542
 30
0.0
 11
6004.192823
 21
5950.903542
 31
0.0
  0
LINE
  8
SUNPOU
 10
6218.215307
 20
5982.903542
 30
0.0
 11
6004.192823
 21
5982.903542
 31
0.0
  0
LINE
  8
SUNPOU
 10
6024.192823
 20
5950.903542
 30
0.0
 11
6024.192823
 21
5982.903542
 31
0.0
  0
INSERT
  8
SUNPOU
  2
ARROWANG
 10
6024.192823
 20
5950.903542
 30
0.0
 41
30.0
 42
30.0
 50
90.0
 43
30.0
  0
INSERT
  8
SUNPOU
  2
ARROWANG
 10
6024.192823
 20
5982.903542
 30
0.0
 41
30.0
 42
30.0
 50
270.0
 43
30.0
  0
LINE
  8
SUNPOU
 10
6024.192823
 20
5982.903542
 30
0.0
 11
6024.192823
 21
6114.903542
 31
0.0
  0
LINE
  8
SUNPOU
 10
6024.192823
 20
5950.903542
 30
0.0
 11
6024.192824
 21
5890.903542
 31
0.0
  0
TEXT
  8
SUNPOU
 10
5994.192823
 20
5991.760685
 30
0.0
 40
60.0
  1
32
 50
90.0
  7
K
 72
     1
 11
5994.192823
 21
6048.903542
 31
0.0
  0
LINE
  8
SUNPOU
 10
6360.215307
 20
3562.903542
 30
0.0
 11
6011.977999
 21
3562.903542
 31
0.0
  0
LINE
  8
SUNPOU
 10
6218.215307
 20
3582.903542
 30
0.0
 11
6011.977999
 21
3582.903542
 31
0.0
  0
LINE
  8
SUNPOU
 10
6031.977999
 20
3562.903542
 30
0.0
 11
6031.977999
 21
3582.903542
 31
0.0
  0
INSERT
  8
SUNPOU
  2
ARROWANG
 10
6031.977999
 20
3562.903542
 30
0.0
 41
30.0
 42
30.0
 50
90.0
 43
30.0
  0
INSERT
  8
SUNPOU
  2
ARROWANG
 10
6031.977999
 20
3582.903542
 30
0.0
 41
30.0
 42
30.0
 50
270.0
 43
30.0
  0
LINE
  8
SUNPOU
 10
6031.977999
 20
3562.903542
 30
0.0
 11
6031.977999
 21
3430.903542
 31
0.0
  0
LINE
  8
SUNPOU
 10
6031.977999
 20
3582.903542
 30
0.0
 11
6031.977999
 21
3642.903542
 31
0.0
  0
TEXT
  8
SUNPOU
 10
6001.977999
 20
3439.760685
 30
0.0
 40
60.0
  1
20
 50
90.0
  7
K
 72
     1
 11
6001.977999
 21
3496.903542
 31
0.0
  0
TEXT
  8
SUNPOU
 10
7413.929602
 20
3406.769684
 30
0.0
 40
60.0
  1
2296
  7
K
 72
     1
 11
7528.215317
 21
3406.769684
 31
0.0
  0
INSERT
  8
SUNPOU
  2
ARROWANG
 10
8676.215307
 20
3376.769684
 30
0.0
 41
30.0
 42
30.0
 43
30.0
  0
INSERT
  8
SUNPOU
  2
ARROWANG
 10
6380.215307
 20
3376.769684
 30
0.0
 41
30.0
 42
30.0
 50
180.0
 43
30.0
  0
LINE
  8
SUNPOU
 10
6380.215307
 20
3376.769684
 30
0.0
 11
8676.215307
 21
3376.769684
 31
0.0
  0
LINE
  8
SUNPOU
 10
8676.215307
 20
3542.903542
 30
0.0
 11
8676.215307
 21
3356.769684
 31
0.0
  0
LINE
  8
SUNPOU
 10
6380.215307
 20
3542.903542
 30
0.0
 11
6380.215307
 21
3356.769684
 31
0.0
  0
TEXT
  8
SUNPOU
 10
7411.317236
 20
3225.587787
 30
0.0
 40
60.0
  1
2320
  7
K
 72
     1
 11
7525.60295
 21
3225.587787
 31
0.0
  0
INSERT
  8
SUNPOU
  2
ARROWANG
 10
6368.215307
 20
3195.587787
 30
0.0
 41
30.0
 42
30.0
 50
180.0
 43
30.0
  0
INSERT
  8
SUNPOU
  2
ARROWANG
 10
8688.215307
 20
3195.587787
 30
0.0
 41
30.0
 42
30.0
 43
30.0
  0
LINE
  8
SUNPOU
 10
6368.215307
 20
3195.587787
 30
0.0
 11
8688.215307
 21
3195.587787
 31
0.0
  0
LINE
  8
SUNPOU
 10
8688.215307
 20
3562.903542
 30
0.0
 11
8688.215307
 21
3175.587787
 31
0.0
  0
LINE
  8
SUNPOU
 10
6368.215307
 20
3562.903542
 30
0.0
 11
6368.215307
 21
3175.587787
 31
0.0
  0
TEXT
  8
SUNPOU
 10
7413.929602
 20
6168.367921
 30
0.0
 40
60.0
  1
2306
  7
K
 72
     1
 11
7528.215317
 21
6168.367921
 31
0.0
  0
INSERT
  8
SUNPOU
  2
ARROWANG
 10
8681.215307
 20
6138.367921
 30
0.0
 41
30.0
 42
30.0
 43
30.0
  0
INSERT
  8
SUNPOU
  2
ARROWANG
 10
6375.215307
 20
6138.367921
 30
0.0
 41
30.0
 42
30.0
 50
180.0
 43
30.0
  0
LINE
  8
SUNPOU
 10
6375.215307
 20
6138.367921
 30
0.0
 11
8681.215307
 21
6138.367921
 31
0.0
  0
LINE
  8
SUNPOU
 10
8681.215307
 20
5970.903542
 30
0.0
 11
8681.215307
 21
6158.367921
 31
0.0
  0
LINE
  8
SUNPOU
 10
6375.215307
 20
5970.903542
 30
0.0
 11
6375.215307
 21
6158.367921
 31
0.0
  0
TEXT
  8
SUNPOU
 10
7412.501031
 20
6349.549818
 30
0.0
 40
60.0
  1
2324
  7
K
 72
     1
 11
7528.215317
 21
6349.549818
 31
0.0
  0
INSERT
  8
SUNPOU
  2
ARROWANG
 10
8690.215307
 20
6319.549818
 30
0.0
 41
30.0
 42
30.0
 43
30.0
  0
INSERT
  8
SUNPOU
  2
ARROWANG
 10
6366.215307
 20
6319.549818
 30
0.0
 41
30.0
 42
30.0
 50
180.0
 43
30.0
  0
LINE
  8
SUNPOU
 10
6366.215307
 20
6319.549818
 30
0.0
 11
8690.215307
 21
6319.549818
 31
0.0
  0
LINE
  8
SUNPOU
 10
8690.215307
 20
6002.903542
 30
0.0
 11
8690.215307
 21
6339.549818
 31
0.0
  0
LINE
  8
SUNPOU
 10
6366.215307
 20
6002.903542
 30
0.0
 11
6366.215307
 21
6339.549818
 31
0.0
  0
TEXT
  8
SUNPOU
 10
8633.215307
 20
6545.7387
 30
0.0
 40
60.0
  1
190
  7
K
 72
     1
 11
8723.215307
 21
6545.7387
 31
0.0
  0
INSERT
  8
SUNPOU
  2
ARROWANG
 10
8818.215307
 20
6515.7387
 30
0.0
 41
30.0
 42
30.0
 43
30.0
  0
INSERT
  8
SUNPOU
  2
ARROWANG
 10
8628.215307
 20
6515.7387
 30
0.0
 41
30.0
 42
30.0
 50
180.0
 43
30.0
  0
LINE
  8
SUNPOU
 10
8818.215307
 20
6002.903542
 30
0.0
 11
8818.215307
 21
6535.7387
 31
0.0
  0
LINE
  8
SUNPOU
 10
8628.215307
 20
6515.7387
 30
0.0
 11
8818.215307
 21
6515.7387
 31
0.0
  0
TEXT
  8
SUNPOU
 10
7413.929593
 20
6545.7387
 30
0.0
 40
60.0
  1
2200
  7
K
 72
     1
 11
7528.215307
 21
6545.7387
 31
0.0
  0
INSERT
  8
SUNPOU
  2
ARROWANG
 10
8628.215307
 20
6515.7387
 30
0.0
 41
30.0
 42
30.0
 43
30.0
  0
INSERT
  8
SUNPOU
  2
ARROWANG
 10
6428.215307
 20
6515.7387
 30
0.0
 41
30.0
 42
30.0
 50
180.0
 43
30.0
  0
LINE
  8
SUNPOU
 10
8628.215307
 20
5970.903542
 30
0.0
 11
8628.215307
 21
6535.7387
 31
0.0
  0
LINE
  8
SUNPOU
 10
6428.215307
 20
6515.7387
 30
0.0
 11
8628.215307
 21
6515.7387
 31
0.0
  0
TEXT
  8
SUNPOU
 10
6243.215317
 20
6545.7387
 30
0.0
 40
60.0
  1
190
  7
K
 72
     1
 11
6333.215317
 21
6545.7387
 31
0.0
  0
INSERT
  8
SUNPOU
  2
ARROWANG
 10
6428.215307
 20
6515.7387
 30
0.0
 41
30.0
 42
30.0
 43
30.0
  0
INSERT
  8
SUNPOU
  2
ARROWANG
 10
6238.215307
 20
6515.7387
 30
0.0
 41
30.0
 42
30.0
 50
180.0
 43
30.0
  0
LINE
  8
SUNPOU
 10
6238.215307
 20
6515.7387
 30
0.0
 11
6428.215307
 21
6515.7387
 31
0.0
  0
LINE
  8
SUNPOU
 10
6428.215307
 20
5970.903542
 30
0.0
 11
6428.215307
 21
6535.7387
 31
0.0
  0
LINE
  8
SUNPOU
 10
6238.215307
 20
6002.903542
 30
0.0
 11
6238.215307
 21
6535.7387
 31
0.0
  0
LINE
  8
JISSEN
 10
8628.215307
 20
5950.903542
 30
0.0
 11
8628.215307
 21
3562.903542
 31
0.0
  0
LINE
  8
JISSEN
 10
8818.215307
 20
5982.903542
 30
0.0
 11
8818.215307
 21
3582.903542
 31
0.0
  0
LINE
  8
JISSEN
 10
6366.215307
 20
5982.903542
 30
0.0
 11
8690.215307
 21
5982.903542
 31
0.0
  0
LINE
  8
JISSEN
 10
6428.215307
 20
5950.903542
 30
0.0
 11
6428.215307
 21
3562.903542
 31
0.0
  0
LINE
  8
JISSEN
 10
6238.215307
 20
5982.903542
 30
0.0
 11
6238.215307
 21
3582.903542
 31
0.0
  0
LINE
  8
JISSEN
 10
8676.215307
 20
3562.903542
 30
0.0
 11
7528.215307
 21
3562.903542
 31
0.0
  0
LINE
  8
JISSEN
 10
8688.215307
 20
3582.903542
 30
0.0
 11
8676.215307
 21
3562.903542
 31
0.0
  0
LINE
  8
JISSEN
 10
8818.215307
 20
3582.903542
 30
0.0
 11
8688.215307
 21
3582.903542
 31
0.0
  0
LINE
  8
ITTEN
 10
7528.215307
 20
3443.719021
 30
0.0
 11
7528.215307
 21
6245.330448
 31
0.0
  0
LINE
  8
JISSEN
 10
6380.215307
 20
3562.903542
 30
0.0
 11
7528.215307
 21
3562.903542
 31
0.0
  0
LINE
  8
JISSEN
 10
6368.215307
 20
3582.903542
 30
0.0
 11
6380.215307
 21
3562.903542
 31
0.0
  0
LINE
  8
JISSEN
 10
6238.215307
 20
3582.903542
 30
0.0
 11
6368.215307
 21
3582.903542
 31
0.0
  0
LINE
  8
JISSEN
 10
6238.215307
 20
5982.903542
 30
0.0
 11
6368.215307
 21
5982.903542
 31
0.0
  0
LINE
  8
JISSEN
 10
6366.215307
 20
5982.903542
 30
0.0
 11
6375.215307
 21
5950.903542
 31
0.0
  0
LINE
  8
JISSEN
 10
6375.215307
 20
5950.903542
 30
0.0
 11
6428.215307
 21
5950.903542
 31
0.0
  0
LINE
  8
JISSEN
 10
6628.215307
 20
5950.903542
 30
0.0
 11
7528.215307
 21
5950.903542
 31
0.0
  0
LINE
  8
JISSEN
 10
6428.215307
 20
5950.903542
 30
0.0
 11
6628.215307
 21
5950.903542
 31
0.0
  0
LINE
  8
JISSEN
 10
8628.215307
 20
5950.903542
 30
0.0
 11
8428.215307
 21
5950.903542
 31
0.0
  0
LINE
  8
JISSEN
 10
8428.215307
 20
5950.903542
 30
0.0
 11
7528.215307
 21
5950.903542
 31
0.0
  0
LINE
  8
JISSEN
 10
8681.215307
 20
5950.903542
 30
0.0
 11
8628.215307
 21
5950.903542
 31
0.0
  0
LINE
  8
JISSEN
 10
8690.215307
 20
5982.903542
 30
0.0
 11
8681.215307
 21
5950.903542
 31
0.0
  0
LINE
  8
JISSEN
 10
8818.215307
 20
5982.903542
 30
0.0
 11
8688.215307
 21
5982.903542
 31
0.0
  0
LINE
  8
ITTEN
 10
8415.383055
 20
3732.903542
 30
0.0
 11
8465.383055
 21
3732.903542
 31
0.0
  0
LINE
  8
ITTEN
 10
8440.383055
 20
3757.903542
 30
0.0
 11
8440.383055
 21
3707.903542
 31
0.0
  0
CIRCLE
  8
HASEN
 10
8440.383055
 20
3732.903542
 30
0.0
 40
15.0
  0
INSERT
  8
SUNPOU
  2
ARROWANG
 10
6613.774718
 20
3736.061369
 30
0.0
 41
30.0
 42
30.0
 50
235.488023
 43
30.0
  0
LINE
  8
SUNPOU
 10
6613.774718
 20
3736.061369
 30
0.0
 11
6697.705663
 21
3858.12698
 31
0.0
  0
LINE
  8
SUNPOU
 10
6697.705663
 20
3858.12698
 30
0.0
 11
7166.597811
 21
3858.12698
 31
0.0
  0
TEXT
  8
SUNPOU
 10
6709.686647
 20
3878.12698
 30
0.0
 40
60.0
  1
埋込みアンカー
  7
K
  0
CIRCLE
  8
HASEN
 10
6616.047559
 20
3732.903542
 30
0.0
 40
15.0
  0
LINE
  8
ITTEN
 10
6616.047559
 20
3757.903542
 30
0.0
 11
6616.047559
 21
3707.903542
 31
0.0
  0
LINE
  8
ITTEN
 10
6641.047559
 20
3732.903542
 30
0.0
 11
6591.047559
 21
3732.903542
 31
0.0
  0
LINE
  8
HASEN
 10
8719.605269
 20
5397.903542
 30
0.0
 11
8659.605269
 21
5397.903542
 31
0.0
  0
LINE
  8
HASEN
 10
8659.605269
 20
5397.903542
 30
0.0
 11
8628.215307
 21
5412.903542
 31
0.0
  0
LINE
  8
HASEN
 10
8719.605269
 20
5327.903542
 30
0.0
 11
8659.605269
 21
5327.903542
 31
0.0
  0
LINE
  8
HASEN
 10
8659.605269
 20
5327.903542
 30
0.0
 11
8628.215307
 21
5312.903542
 31
0.0
  0
LINE
  8
HASEN
 10
8817.24595
 20
5312.903542
 30
0.0
 11
8719.605269
 21
5327.903542
 31
0.0
  0
LINE
  8
HASEN
 10
8719.605269
 20
5397.903542
 30
0.0
 11
8817.24595
 21
5412.903542
 31
0.0
  0
LINE
  8
HASEN
 10
6396.825345
 20
5327.903542
 30
0.0
 11
6428.215307
 21
5312.903542
 31
0.0
  0
LINE
  8
HASEN
 10
6336.825345
 20
5327.903542
 30
0.0
 11
6396.825345
 21
5327.903542
 31
0.0
  0
LINE
  8
HASEN
 10
6336.825345
 20
5327.903542
 30
0.0
 11
6239.184663
 21
5312.903542
 31
0.0
  0
LINE
  8
HASEN
 10
6239.184663
 20
5412.903542
 30
0.0
 11
6336.825345
 21
5397.903542
 31
0.0
  0
LINE
  8
HASEN
 10
6336.825345
 20
5397.903542
 30
0.0
 11
6396.825345
 21
5397.903542
 31
0.0
  0
LINE
  8
HASEN
 10
6396.825345
 20
5397.903542
 30
0.0
 11
6428.215307
 21
5412.903542
 31
0.0
  0
LINE
  8
ITTEN
 10
7528.215307
 20
5407.903542
 30
0.0
 11
7528.215307
 21
5317.903542
 31
0.0
  0
LINE
  8
SUNPOU
 10
7037.779182
 20
5827.702076
 30
0.0
 11
6988.969807
 21
5460.967029
 31
0.0
  0
INSERT
  8
SUNPOU
  2
ARROWANG
 10
7037.779182
 20
5827.702076
 30
0.0
 41
30.0
 42
30.0
 50
82.418962
 43
30.0
  0
LINE
  8
SUNPOU
 10
6988.969807
 20
5460.967029
 30
0.0
 11
7496.044977
 21
5460.967029
 31
0.0
  0
LINE
  8
SUNPOU
 10
6619.103213
 20
5824.383206
 30
0.0
 11
6988.969807
 21
5460.967029
 31
0.0
  0
INSERT
  8
SUNPOU
  2
ARROWANG
 10
6619.103213
 20
5824.383206
 30
0.0
 41
30.0
 42
30.0
 50
135.503997
 43
30.0
  0
CIRCLE
  8
HASEN
 10
8440.383055
 20
5832.903542
 30
0.0
 40
15.0
  0
LINE
  8
ITTEN
 10
8440.383055
 20
5857.903542
 30
0.0
 11
8440.383055
 21
5807.903542
 31
0.0
  0
LINE
  8
ITTEN
 10
8415.383055
 20
5832.903542
 30
0.0
 11
8465.383055
 21
5832.903542
 31
0.0
  0
CIRCLE
  8
HASEN
 10
8021.876935
 20
5832.903542
 30
0.0
 40
15.0
  0
LINE
  8
ITTEN
 10
7996.876935
 20
5832.903542
 30
0.0
 11
8046.876935
 21
5832.903542
 31
0.0
  0
LINE
  8
ITTEN
 10
8021.876935
 20
5857.903542
 30
0.0
 11
8021.876935
 21
5807.903542
 31
0.0
  0
LINE
  8
ITTEN
 10
7034.553679
 20
5857.903542
 30
0.0
 11
7034.553679
 21
5807.903542
 31
0.0
  0
LINE
  8
ITTEN
 10
7059.553679
 20
5832.903542
 30
0.0
 11
7009.553679
 21
5832.903542
 31
0.0
  0
CIRCLE
  8
HASEN
 10
7034.553679
 20
5832.903542
 30
0.0
 40
15.0
  0
TEXT
  8
SUNPOU
 10
7005.871599
 20
5486.437047
 30
0.0
 40
60.0
  1
埋込みアンカー
  7
K
  0
LINE
  8
ITTEN
 10
6641.047559
 20
5832.903542
 30
0.0
 11
6591.047559
 21
5832.903542
 31
0.0
  0
LINE
  8
ITTEN
 10
6616.047559
 20
5857.903542
 30
0.0
 11
6616.047559
 21
5807.903542
 31
0.0
  0
CIRCLE
  8
HASEN
 10
6616.047559
 20
5832.903542
 30
0.0
 40
15.0
  0
LINE
  8
SUNPOU
 10
8460.383055
 20
5832.903542
 30
0.0
 11
9024.024118
 21
5832.903542
 31
0.0
  0
LINE
  8
SUNPOU
 10
8838.215307
 20
5982.903542
 30
0.0
 11
9024.024118
 21
5982.903542
 31
0.0
  0
LINE
  8
SUNPOU
 10
9004.024118
 20
5832.903542
 30
0.0
 11
9004.024118
 21
5982.903542
 31
0.0
  0
INSERT
  8
SUNPOU
  2
ARROWANG
 10
9004.024118
 20
5832.903542
 30
0.0
 41
30.0
 42
30.0
 50
270.0
 43
30.0
  0
INSERT
  8
SUNPOU
  2
ARROWANG
 10
9004.024118
 20
5982.903542
 30
0.0
 41
30.0
 42
30.0
 50
90.0
 43
30.0
  0
TEXT
  8
SUNPOU
 10
8974.024118
 20
5817.903542
 30
0.0
 40
60.0
  1
150
 50
90.0
  7
K
 72
     1
 11
8974.024118
 21
5907.903542
 31
0.0
  0
LINE
  8
SUNPOU
 10
8838.215307
 20
3582.903542
 30
0.0
 11
9033.240201
 21
3582.903542
 31
0.0
  0
LINE
  8
SUNPOU
 10
8460.383055
 20
3732.903542
 30
0.0
 11
9033.240201
 21
3732.903542
 31
0.0
  0
LINE
  8
SUNPOU
 10
9013.240201
 20
3582.903542
 30
0.0
 11
9013.240201
 21
3732.903542
 31
0.0
  0
INSERT
  8
SUNPOU
  2
ARROWANG
 10
9013.240201
 20
3582.903542
 30
0.0
 41
30.0
 42
30.0
 50
270.0
 43
30.0
  0
INSERT
  8
SUNPOU
  2
ARROWANG
 10
9013.240201
 20
3732.903542
 30
0.0
 41
30.0
 42
30.0
 50
90.0
 43
30.0
  0
TEXT
  8
SUNPOU
 10
8983.240201
 20
3567.903542
 30
0.0
 40
60.0
  1
150
 50
90.0
  7
K
 72
     1
 11
8983.240201
 21
3657.903542
 31
0.0
  0
TEXT
  8
SUNPOU
 10
9121.023143
 20
5585.760685
 30
0.0
 40
60.0
  1
620
 50
90.0
  7
K
 72
     1
 11
9121.023143
 21
5672.903542
 31
0.0
  0
INSERT
  8
SUNPOU
  2
ARROWANG
 10
9151.023143
 20
5982.903542
 30
0.0
 41
30.0
 42
30.0
 50
90.0
 43
30.0
  0
INSERT
  8
SUNPOU
  2
ARROWANG
 10
9151.023143
 20
5362.903542
 30
0.0
 41
30.0
 42
30.0
 50
270.0
 43
30.0
  0
LINE
  8
SUNPOU
 10
9151.023143
 20
5362.903542
 30
0.0
 11
9151.023143
 21
5982.903542
 31
0.0
  0
LINE
  8
SUNPOU
 10
8838.215307
 20
5982.903542
 30
0.0
 11
9171.023143
 21
5982.903542
 31
0.0
  0
LINE
  8
SUNPOU
 10
8648.215307
 20
5362.903542
 30
0.0
 11
9171.023143
 21
5362.903542
 31
0.0
  0
ARC
  8
JISSEN
 10
6563.715733
 20
4912.22601
 30
0.0
 40
10.0
 50
270.0
 51
90.0
  0
LINE
  8
JISSEN
 10
6425.96552
 20
4922.22601
 30
0.0
 11
6563.715733
 21
4922.22601
 31
0.0
  0
LINE
  8
JISSEN
 10
6425.96552
 20
4902.22601
 30
0.0
 11
6563.715733
 21
4902.22601
 31
0.0
  0
LINE
  8
ITTEN
 10
6423.715733
 20
4912.22601
 30
0.0
 11
6623.715733
 21
4912.22601
 31
0.0
  0
TEXT
  8
TEXT
 10
1843.633884
 20
3455.328618
 30
0.0
 40
115.2
  1
M5B210
  7
K
  0
TEXT
  8
TEXT
 10
8814.388238
 20
3287.410655
 30
0.0
 40
115.2
  1
M5B240
  7
K
  0
POLYLINE
  8
WAKU
 66
     1
 10
0.0
 20
0.0
 30
0.0
 70
     1
  0
VERTEX
  8
WAKU
 10
0.0
 20
0.0
 30
0.0
  0
VERTEX
  8
WAKU
 10
9875.0
 20
0.0
 30
0.0
  0
VERTEX
  8
WAKU
 10
9875.0
 20
6825.0
 30
0.0
  0
VERTEX
  8
WAKU
 10
0.0
 20
6825.0
 30
0.0
  0
SEQEND
  8
WAKU
  0
POLYLINE
  8
WAKU
 66
     1
 10
0.0
 20
0.0
 30
0.0
 70
     1
  0
VERTEX
  8
WAKU
 10
0.0
 20
0.0
 30
0.0
  0
VERTEX
  8
WAKU
 10
9875.0
 20
0.0
 30
0.0
  0
VERTEX
  8
WAKU
 10
9875.0
 20
6825.0
 30
0.0
  0
VERTEX
  8
WAKU
 10
0.0
 20
6825.0
 30
0.0
  0
SEQEND
  8
WAKU
  0
TEXT
  8
TEXT
 10
53.446639
 20
6199.854524
 30
0.0
 40
200.0
  1
（内径２２００ｍｍ）
  7
K
  0
TEXT
  8
TEXT
 10
9100.945907
 20
611.718879
 30
0.0
 40
126.72
  1
1/25
  7
K
  0
ENDSEC
  0
EOF
