  0
SECTION
  2
HEADER
  9
$ACADVER
  1
AC1009
  9
$INSBASE
 10
0.0
 20
0.0
 30
0.0
  9
$EXTMIN
 10
0.0
 20
0.0
 30
0.0
  9
$EXTMAX
 10
9875.0
 20
6825.0
 30
0.0
  9
$LIMMIN
 10
0.0
 20
0.0
  9
$LIMMAX
 10
9875.0
 20
6825.0
  9
$ORTHOMODE
 70
     0
  9
$REGENMODE
 70
     1
  9
$FILLMODE
 70
     1
  9
$QTEXTMODE
 70
     0
  9
$MIRRTEXT
 70
     0
  9
$DRAGMODE
 70
     2
  9
$LTSCALE
 40
125.0
  9
$OSMODE
 70
    33
  9
$ATTMODE
 70
     1
  9
$TEXTSIZE
 40
60.0
  9
$TRACEWID
 40
0.05
  9
$TEXTSTYLE
  7
K
  9
$CLAYER
  8
SUNPOU
  9
$CELTYPE
  6
BYLAYER
  9
$CECOLOR
 62
   256
  9
$DIMSCALE
 40
25.0
  9
$DIMASZ
 40
1.5
  9
$DIMEXO
 40
1.0
  9
$DIMDLI
 40
6.0
  9
$DIMRND
 40
0.0
  9
$DIMDLE
 40
0.0
  9
$DIMEXE
 40
1.0
  9
$DIMTP
 40
495.0
  9
$DIMTM
 40
0.0
  9
$DIMTXT
 40
3.0
  9
$DIMCEN
 40
0.0
  9
$DIMTSZ
 40
0.0
  9
$DIMTOL
 70
     0
  9
$DIMLIM
 70
     0
  9
$DIMTIH
 70
     0
  9
$DIMTOH
 70
     0
  9
$DIMSE1
 70
     0
  9
$DIMSE2
 70
     0
  9
$DIMTAD
 70
     1
  9
$DIMZIN
 70
     8
  9
$DIMBLK
  1
ARROW
  9
$DIMASO
 70
     0
  9
$DIMSHO
 70
     0
  9
$DIMPOST
  1

  9
$DIMAPOST
  1

  9
$DIMALT
 70
     0
  9
$DIMALTD
 70
     2
  9
$DIMALTF
 40
25.4
  9
$DIMLFAC
 40
1.0
  9
$DIMTOFL
 70
     1
  9
$DIMTVP
 40
0.0
  9
$DIMTIX
 70
     1
  9
$DIMSOXD
 70
     0
  9
$DIMSAH
 70
     0
  9
$DIMBLK1
  1

  9
$DIMBLK2
  1

  9
$DIMSTYLE
  2
*UNNAMED
  9
$DIMCLRD
 70
     0
  9
$DIMCLRE
 70
     0
  9
$DIMCLRT
 70
     0
  9
$DIMTFAC
 40
1.0
  9
$DIMGAP
 40
0.09
  9
$LUNITS
 70
     2
  9
$LUPREC
 70
     2
  9
$AXISMODE
 70
     1
  9
$AXISUNIT
 10
100.0
 20
100.0
  9
$SKETCHINC
 40
0.1
  9
$FILLETRAD
 40
10.0
  9
$AUNITS
 70
     0
  9
$AUPREC
 70
     2
  9
$MENU
  1
d:stdgx5
  9
$ELEVATION
 40
0.0
  9
$PELEVATION
 40
0.0
  9
$THICKNESS
 40
0.0
  9
$LIMCHECK
 70
     0
  9
$BLIPMODE
 70
     1
  9
$CHAMFERA
 40
0.0
  9
$CHAMFERB
 40
0.0
  9
$SKPOLY
 70
     0
  9
$TDCREATE
 40
2450248.714224536
  9
$TDUPDATE
 40
2450248.717650462
  9
$TDINDWG
 40
0.0030787037
  9
$TDUSRTIMER
 40
0.0030787037
  9
$USRTIMER
 70
     1
  9
$ANGBASE
 50
0.0
  9
$ANGDIR
 70
     0
  9
$PDMODE
 70
     0
  9
$PDSIZE
 40
0.0
  9
$PLINEWID
 40
0.0
  9
$COORDS
 70
     2
  9
$SPLFRAME
 70
     0
  9
$SPLINETYPE
 70
     6
  9
$SPLINESEGS
 70
     8
  9
$ATTDIA
 70
     0
  9
$ATTREQ
 70
     1
  9
$HANDLING
 70
     0
  9
$HANDSEED
  5
0
  9
$SURFTAB1
 70
     6
  9
$SURFTAB2
 70
     6
  9
$SURFTYPE
 70
     6
  9
$SURFU
 70
     6
  9
$SURFV
 70
     6
  9
$UCSNAME
  2

  9
$UCSORG
 10
0.0
 20
0.0
 30
0.0
  9
$UCSXDIR
 10
1.0
 20
0.0
 30
0.0
  9
$UCSYDIR
 10
0.0
 20
1.0
 30
0.0
  9
$PUCSNAME
  2

  9
$PUCSORG
 10
0.0
 20
0.0
 30
0.0
  9
$PUCSXDIR
 10
1.0
 20
0.0
 30
0.0
  9
$PUCSYDIR
 10
0.0
 20
1.0
 30
0.0
  9
$USERI1
 70
     3
  9
$USERI2
 70
    33
  9
$USERI3
 70
     0
  9
$USERI4
 70
     1
  9
$USERI5
 70
     0
  9
$USERR1
 40
25.0
  9
$USERR2
 40
3.0
  9
$USERR3
 40
3.0
  9
$USERR4
 40
1.5
  9
$USERR5
 40
10.0
  9
$WORLDVIEW
 70
     1
  9
$SHADEDGE
 70
     3
  9
$SHADEDIF
 70
    70
  9
$TILEMODE
 70
     1
  9
$MAXACTVP
 70
    16
  9
$PINSBASE
 10
0.0
 20
0.0
 30
0.0
  9
$PLIMCHECK
 70
     0
  9
$PEXTMIN
 10
1.000000E+20
 20
1.000000E+20
 30
1.000000E+20
  9
$PEXTMAX
 10
-1.000000E+20
 20
-1.000000E+20
 30
-1.000000E+20
  9
$PLIMMIN
 10
0.0
 20
0.0
  9
$PLIMMAX
 10
12.0
 20
9.0
  9
$UNITMODE
 70
     0
  9
$VISRETAIN
 70
     0
  0
ENDSEC
  0
SECTION
  2
TABLES
  0
TABLE
  2
VPORT
 70
    10
  0
VPORT
  2
*ACTIVE
 70
     0
 10
0.0
 20
0.0
 11
1.0
 21
1.0
 12
5576.263114
 22
3412.5
 13
0.0
 23
0.0
 14
1.0
 24
1.0
 15
10.0
 25
10.0
 16
0.0
 26
0.0
 36
1.0
 17
0.0
 27
0.0
 37
0.0
 40
6825.0
 41
1.63407
 42
50.0
 43
0.0
 44
0.0
 50
0.0
 51
0.0
 71
     0
 72
   500
 73
     1
 74
     0
 75
     0
 76
     0
 77
     0
 78
     0
  0
VPORT
  2
2
 70
     0
 10
0.5
 20
0.0
 11
1.0
 21
1.0
 12
0.924031
 22
1.052651
 13
0.0
 23
0.0
 14
1.0
 24
1.0
 15
10.0
 25
10.0
 16
0.0
 26
0.0
 36
1.0
 17
0.0
 27
0.0
 37
0.0
 40
2.105302
 41
0.877814
 42
50.0
 43
0.0
 44
0.0
 50
0.0
 51
0.0
 71
     0
 72
   500
 73
     1
 74
     1
 75
     0
 76
     0
 77
     0
 78
     0
  0
VPORT
  2
2
 70
     0
 10
0.0
 20
0.0
 11
0.5
 21
1.0
 12
0.924031
 22
1.052651
 13
0.0
 23
0.0
 14
1.0
 24
1.0
 15
10.0
 25
10.0
 16
0.0
 26
0.0
 36
1.0
 17
0.0
 27
0.0
 37
0.0
 40
2.105302
 41
0.877814
 42
50.0
 43
0.0
 44
0.0
 50
0.0
 51
0.0
 71
     0
 72
   500
 73
     1
 74
     1
 75
     0
 76
     0
 77
     0
 78
     0
  0
VPORT
  2
3
 70
     0
 10
0.0
 20
0.5
 11
1.0
 21
1.0
 12
2.83217
 22
1.052651
 13
0.0
 23
0.0
 14
1.0
 24
1.0
 15
10.0
 25
10.0
 16
0.0
 26
0.0
 36
1.0
 17
0.0
 27
0.0
 37
0.0
 40
2.105302
 41
3.571429
 42
50.0
 43
0.0
 44
0.0
 50
0.0
 51
0.0
 71
     0
 72
   500
 73
     1
 74
     1
 75
     0
 76
     0
 77
     0
 78
     0
  0
VPORT
  2
3
 70
     0
 10
0.0
 20
0.0
 11
1.0
 21
0.5
 12
2.856742
 22
1.052651
 13
0.0
 23
0.0
 14
1.0
 24
1.0
 15
10.0
 25
10.0
 16
0.0
 26
0.0
 36
1.0
 17
0.0
 27
0.0
 37
0.0
 40
2.105302
 41
3.594771
 42
50.0
 43
0.0
 44
0.0
 50
0.0
 51
0.0
 71
     0
 72
   500
 73
     1
 74
     1
 75
     0
 76
     0
 77
     0
 78
     0
  0
VPORT
  2
4
 70
     0
 10
0.5
 20
0.0
 11
1.0
 21
0.5
 12
2.886858
 22
1.052651
 13
0.0
 23
0.0
 14
1.0
 24
1.0
 15
10.0
 25
10.0
 16
0.0
 26
0.0
 36
1.0
 17
0.0
 27
0.0
 37
0.0
 40
4.275207
 41
1.784314
 42
50.0
 43
0.0
 44
0.0
 50
0.0
 51
0.0
 71
     0
 72
   500
 73
     1
 74
     1
 75
     0
 76
     0
 77
     0
 78
     0
  0
VPORT
  2
4
 70
     0
 10
0.5
 20
0.5
 11
1.0
 21
1.0
 12
2.86209
 22
1.052651
 13
0.0
 23
0.0
 14
1.0
 24
1.0
 15
10.0
 25
10.0
 16
0.0
 26
0.0
 36
1.0
 17
0.0
 27
0.0
 37
0.0
 40
4.275207
 41
1.772727
 42
50.0
 43
0.0
 44
0.0
 50
0.0
 51
0.0
 71
     0
 72
   500
 73
     1
 74
     1
 75
     0
 76
     0
 77
     0
 78
     0
  0
VPORT
  2
4
 70
     0
 10
0.0
 20
0.5
 11
0.5
 21
1.0
 12
2.86209
 22
1.052651
 13
0.0
 23
0.0
 14
1.0
 24
1.0
 15
10.0
 25
10.0
 16
0.0
 26
0.0
 36
1.0
 17
0.0
 27
0.0
 37
0.0
 40
4.275207
 41
1.772727
 42
50.0
 43
0.0
 44
0.0
 50
0.0
 51
0.0
 71
     0
 72
   500
 73
     1
 74
     1
 75
     0
 76
     0
 77
     0
 78
     0
  0
VPORT
  2
4
 70
     0
 10
0.0
 20
0.0
 11
0.5
 21
0.5
 12
2.886858
 22
1.052651
 13
0.0
 23
0.0
 14
1.0
 24
1.0
 15
10.0
 25
10.0
 16
0.0
 26
0.0
 36
1.0
 17
0.0
 27
0.0
 37
0.0
 40
4.275207
 41
1.784314
 42
50.0
 43
0.0
 44
0.0
 50
0.0
 51
0.0
 71
     0
 72
   500
 73
     1
 74
     1
 75
     0
 76
     0
 77
     0
 78
     0
  0
ENDTAB
  0
TABLE
  2
LTYPE
 70
     5
  0
LTYPE
  2
CONTINUOUS
 70
    64
  3
実線
 72
    65
 73
     0
 40
0.0
  0
LTYPE
  2
DASHED
 70
    64
  3
__ __ __ __ __ __ __ __ __ __ __ __ __ __ __
 72
    65
 73
     2
 40
0.75
 49
0.5
 49
-0.25
  0
LTYPE
  2
CENTER
 70
    64
  3
____ _ ____ _ ____ _ ____ _ ____ _ ____ _ ____
 72
    65
 73
     4
 40
2.0
 49
1.25
 49
-0.25
 49
0.25
 49
-0.25
  0
LTYPE
  2
PHANTOM
 70
    64
  3
_____ _ _ _____ _ _ _____ _ _ _____ _ _ ____
 72
    65
 73
     6
 40
2.5
 49
1.25
 49
-0.25
 49
0.25
 49
-0.25
 49
0.25
 49
-0.25
  0
LTYPE
  2
HIDDEN
 70
    64
  3
_ _ _ _ _ _ _ _ _ _ _ _ _ _ _ _ _ _ _ _ _ _ _
 72
    65
 73
     2
 40
0.375
 49
0.25
 49
-0.125
  0
ENDTAB
  0
TABLE
  2
LAYER
 70
    14
  0
LAYER
  2
0
 70
    64
 62
     7
  6
CONTINUOUS
  0
LAYER
  2
HASEN
 70
    64
 62
     2
  6
DASHED
  0
LAYER
  2
ITTEN
 70
    64
 62
     1
  6
CENTER
  0
LAYER
  2
NITEN
 70
    64
 62
     2
  6
PHANTOM
  0
LAYER
  2
HATCH
 70
    64
 62
     4
  6
CONTINUOUS
  0
LAYER
  2
SUNPOU
 70
    64
 62
     3
  6
CONTINUOUS
  0
LAYER
  2
TEXT
 70
    64
 62
     3
  6
CONTINUOUS
  0
LAYER
  2
JISSEN
 70
    64
 62
     7
  6
CONTINUOUS
  0
LAYER
  2
WAKU
 70
    64
 62
    -5
  6
CONTINUOUS
  0
ENDTAB
  0
TABLE
  2
STYLE
 70
     2
  0
STYLE
  2
STANDARD
 70
     0
 40
0.0
 41
1.0
 50
0.0
 71
     0
 42
0.2
  3
ROMANS
  4
EXTFONT
  0
STYLE
  2
K
 70
    64
 40
0.0
 41
1.0
 50
0.0
 71
     0
 42
60.0
  3
ROMANS
  4
EXTFONT
  0
ENDTAB
  0
TABLE
  2
VIEW
 70
     0
  0
ENDTAB
  0
TABLE
  2
UCS
 70
     0
  0
ENDTAB
  0
TABLE
  2
APPID
 70
     1
  0
APPID
  2
ACAD
 70
    64
  0
ENDTAB
  0
TABLE
  2
DIMSTYLE
 70
     0
  0
ENDTAB
  0
ENDSEC
  0
SECTION
  2
BLOCKS
  0
BLOCK
  8
SUNPOU
  2
ARROWANG
 70
    64
 10
0.0
 20
0.0
 30
0.0
  3
ARROWANG
  0
LINE
  8
SUNPOU
 10
0.0
 20
0.0
 30
0.0
 11
-1.5
 21
0.401924
 31
0.0
  0
LINE
  8
SUNPOU
 10
0.0
 20
0.0
 30
0.0
 11
-1.5
 21
-0.401924
 31
0.0
  0
ENDBLK
  8
SUNPOU
  0
ENDSEC
  0
SECTION
  2
ENTITIES
  0
TEXT
  8
JISSEN
 10
2723.169105
 20
6329.191591
 30
0.0
 40
250.0
  1
５号マンホール（内径２２００ｍｍ）
  7
K
  0
TEXT
  8
TEXT
 10
4913.556064
 20
5187.15059
 30
0.0
 40
90.0
  1
M5T
  7
K
  0
TEXT
  8
TEXT
 10
4784.760485
 20
5373.866393
 30
0.0
 40
120.0
  1
斜  壁
  7
K
  0
LINE
  8
ITTEN
 10
3969.109147
 20
2786.324467
 30
0.0
 11
3924.109147
 21
2786.324467
 31
0.0
  0
LINE
  8
ITTEN
 10
3946.609147
 20
2808.824467
 30
0.0
 11
3946.609147
 21
2763.824467
 31
0.0
  0
TEXT
  8
SUNPOU
 10
6118.8856
 20
4452.59187
 30
0.0
 40
60.0
  1
150
 50
90.0
  7
K
 72
     1
 11
6118.8856
 21
4542.59187
 31
0.0
  0
INSERT
  8
SUNPOU
  2
ARROWANG
 10
6148.8856
 20
4617.59187
 30
0.0
 41
30.0
 42
30.0
 50
90.0
 43
30.0
  0
INSERT
  8
SUNPOU
  2
ARROWANG
 10
6148.8856
 20
4467.59187
 30
0.0
 41
30.0
 42
30.0
 50
270.0
 43
30.0
  0
LINE
  8
SUNPOU
 10
6148.8856
 20
4467.59187
 30
0.0
 11
6148.8856
 21
4617.59187
 31
0.0
  0
LINE
  8
SUNPOU
 10
5917.685624
 20
4617.59187
 30
0.0
 11
6168.8856
 21
4617.59187
 31
0.0
  0
LINE
  8
SUNPOU
 10
6165.517877
 20
4467.59187
 30
0.0
 11
6168.8856
 21
4467.59187
 31
0.0
  0
LINE
  8
SUNPOU
 10
5479.059199
 20
4618.562434
 30
0.0
 11
6321.921671
 21
4867.064414
 31
0.0
  0
INSERT
  8
SUNPOU
  2
ARROWANG
 10
5479.059199
 20
4618.562434
 30
0.0
 41
30.0
 42
30.0
 50
196.427151
 43
30.0
  0
LINE
  8
SUNPOU
 10
6321.921671
 20
4867.064414
 30
0.0
 11
6916.678822
 21
4867.064414
 31
0.0
  0
LINE
  8
SUNPOU
 10
5897.685624
 20
4617.59187
 30
0.0
 11
6321.921671
 21
4867.064414
 31
0.0
  0
INSERT
  8
SUNPOU
  2
ARROWANG
 10
5897.685624
 20
4617.59187
 30
0.0
 41
30.0
 42
30.0
 50
210.457711
 43
30.0
  0
LINE
  8
ITTEN
 10
5922.685624
 20
4617.59187
 30
0.0
 11
5872.685624
 21
4617.59187
 31
0.0
  0
LINE
  8
ITTEN
 10
5897.685624
 20
4642.59187
 30
0.0
 11
5897.685624
 21
4592.59187
 31
0.0
  0
CIRCLE
  8
HASEN
 10
5897.685624
 20
4617.59187
 30
0.0
 40
15.0
  0
CIRCLE
  8
HASEN
 10
5479.179504
 20
4617.59187
 30
0.0
 40
15.0
  0
LINE
  8
ITTEN
 10
5479.179504
 20
4642.59187
 30
0.0
 11
5479.179504
 21
4592.59187
 31
0.0
  0
LINE
  8
ITTEN
 10
5504.179504
 20
4617.59187
 30
0.0
 11
5454.179504
 21
4617.59187
 31
0.0
  0
LINE
  8
HASEN
 10
4477.998056
 20
1211.351392
 30
0.0
 11
4516.266399
 21
1303.739345
 31
0.0
  0
LINE
  8
HASEN
 10
4516.266399
 20
1303.739345
 30
0.0
 11
4543.982785
 21
1292.258842
 31
0.0
  0
LINE
  8
HASEN
 10
4505.714442
 20
1199.870889
 30
0.0
 11
4543.982785
 21
1292.258842
 31
0.0
  0
LINE
  8
HASEN
 10
4062.743527
 20
1495.854591
 30
0.0
 11
4133.454205
 21
1566.565269
 31
0.0
  0
LINE
  8
HASEN
 10
4133.454205
 20
1566.565269
 30
0.0
 11
4154.667409
 21
1545.352066
 31
0.0
  0
LINE
  8
HASEN
 10
4083.95673
 20
1474.641388
 30
0.0
 11
4154.667409
 21
1545.352066
 31
0.0
  0
LINE
  8
HASEN
 10
5887.079023
 20
1474.641388
 30
0.0
 11
5816.368344
 21
1545.352066
 31
0.0
  0
LINE
  8
HASEN
 10
5837.581548
 20
1566.565269
 30
0.0
 11
5816.368344
 21
1545.352066
 31
0.0
  0
LINE
  8
HASEN
 10
5908.292226
 20
1495.854591
 30
0.0
 11
5837.581548
 21
1566.565269
 31
0.0
  0
LINE
  8
HASEN
 10
5465.321311
 20
1199.870889
 30
0.0
 11
5427.052968
 21
1292.258842
 31
0.0
  0
LINE
  8
HASEN
 10
5454.769354
 20
1303.739345
 30
0.0
 11
5427.052968
 21
1292.258842
 31
0.0
  0
LINE
  8
HASEN
 10
5493.037697
 20
1211.351392
 30
0.0
 11
5454.769354
 21
1303.739345
 31
0.0
  0
LINE
  8
HASEN
 10
5493.037697
 20
3583.480083
 30
0.0
 11
5454.769354
 21
3491.092129
 31
0.0
  0
LINE
  8
HASEN
 10
5454.769354
 20
3491.092129
 30
0.0
 11
5427.052968
 21
3502.572632
 31
0.0
  0
LINE
  8
HASEN
 10
5465.321311
 20
3594.960586
 30
0.0
 11
5427.052968
 21
3502.572632
 31
0.0
  0
LINE
  8
HASEN
 10
5908.292226
 20
3298.976883
 30
0.0
 11
5837.581548
 21
3228.266205
 31
0.0
  0
LINE
  8
HASEN
 10
5837.581548
 20
3228.266205
 30
0.0
 11
5816.368344
 21
3249.479408
 31
0.0
  0
LINE
  8
HASEN
 10
5887.079023
 20
3320.190087
 30
0.0
 11
5816.368344
 21
3249.479408
 31
0.0
  0
LINE
  8
HASEN
 10
4083.95673
 20
3320.190087
 30
0.0
 11
4154.667409
 21
3249.479408
 31
0.0
  0
LINE
  8
HASEN
 10
4133.454205
 20
3228.266205
 30
0.0
 11
4154.667409
 21
3249.479408
 31
0.0
  0
LINE
  8
HASEN
 10
4062.743527
 20
3298.976883
 30
0.0
 11
4133.454205
 21
3228.266205
 31
0.0
  0
LINE
  8
HASEN
 10
4505.714442
 20
3594.960586
 30
0.0
 11
4543.982785
 21
3502.572632
 31
0.0
  0
LINE
  8
HASEN
 10
4516.266399
 20
3491.092129
 30
0.0
 11
4543.982785
 21
3502.572632
 31
0.0
  0
LINE
  8
HASEN
 10
4477.998056
 20
3583.480083
 30
0.0
 11
4516.266399
 21
3491.092129
 31
0.0
  0
TEXT
  8
SUNPOU
 10
6345.106879
 20
4888.141873
 30
0.0
 40
60.0
  1
埋込みアンカー
  7
K
  0
LINE
  8
SUNPOU
 10
6296.845726
 20
2847.996278
 30
0.0
 11
6835.370275
 21
2847.996278
 31
0.0
  0
TEXT
  8
SUNPOU
 10
6296.845726
 20
2867.996278
 30
0.0
 40
60.0
  1
埋込みアンカー
  7
K
  0
LINE
  8
SUNPOU
 10
5862.46333
 20
3263.76219
 30
0.0
 11
6296.845726
 21
2847.996278
 31
0.0
  0
INSERT
  8
SUNPOU
  2
ARROWANG
 10
5862.46333
 20
3263.76219
 30
0.0
 41
30.0
 42
30.0
 50
136.254458
 43
30.0
  0
TEXT
  8
SUNPOU
 10
4463.843507
 20
2693.42669
 30
0.0
 40
60.0
  1
1100
 50
315.0
  7
K
 72
     1
 11
4547.686168
 21
2609.584029
 31
0.0
  0
INSERT
  8
SUNPOU
  2
ARROWANG
 10
4915.381695
 20
2199.462096
 30
0.0
 41
30.0
 42
30.0
 50
315.0
 43
30.0
  0
INSERT
  8
SUNPOU
  2
ARROWANG
 10
4137.564235
 20
2977.279555
 30
0.0
 41
30.0
 42
30.0
 50
135.0
 43
30.0
  0
LINE
  8
SUNPOU
 10
4137.564235
 20
2977.279555
 30
0.0
 11
4915.381695
 21
2199.462096
 31
0.0
  0
LINE
  8
SUNPOU
 10
4738.568742
 20
2022.649143
 30
0.0
 11
4929.52383
 21
2213.604231
 31
0.0
  0
LINE
  8
SUNPOU
 10
3960.751282
 20
2800.466602
 30
0.0
 11
4151.706371
 21
2991.421691
 31
0.0
  0
CIRCLE
  8
NITEN
 10
3946.609147
 20
2786.324467
 30
0.0
 40
12.5
  0
TEXT
  8
TEXT
 10
4950.621827
 20
1851.987151
 30
0.0
 40
60.0
  1
緊結用アンカー
  7
K
  0
LINE
  8
SUNPOU
 10
4919.716334
 20
1820.326283
 30
0.0
 11
5483.094879
 21
1820.326283
 31
0.0
  0
TEXT
  8
SUNPOU
 10
4943.133712
 20
1740.177959
 30
0.0
 40
60.0
  1
M16 2ケ所
  7
K
  0
LINE
  8
SUNPOU
 10
4724.426606
 20
2008.507007
 30
0.0
 11
4919.716334
 21
1820.326283
 31
0.0
  0
INSERT
  8
SUNPOU
  2
ARROWANG
 10
4724.426606
 20
2008.507007
 30
0.0
 41
30.0
 42
30.0
 50
136.062062
 43
30.0
  0
LINE
  8
ITTEN
 10
4746.926606
 20
2008.507007
 30
0.0
 11
4701.926606
 21
2008.507007
 31
0.0
  0
LINE
  8
ITTEN
 10
4724.426606
 20
2031.007007
 30
0.0
 11
4724.426606
 21
1986.007007
 31
0.0
  0
CIRCLE
  8
NITEN
 10
4724.426606
 20
2008.507007
 30
0.0
 40
12.5
  0
TEXT
  8
SUNPOU
 10
4087.509197
 20
4432.59187
 30
0.0
 40
60.0
  1
150
 50
90.0
  7
K
 72
     1
 11
4087.509197
 21
4522.59187
 31
0.0
  0
INSERT
  8
SUNPOU
  2
ARROWANG
 10
4117.509197
 20
4597.59187
 30
0.0
 41
30.0
 42
30.0
 50
90.0
 43
30.0
  0
INSERT
  8
SUNPOU
  2
ARROWANG
 10
4117.509197
 20
4447.59187
 30
0.0
 41
30.0
 42
30.0
 50
270.0
 43
30.0
  0
LINE
  8
SUNPOU
 10
4117.509197
 20
4447.59187
 30
0.0
 11
4117.509197
 21
4597.59187
 31
0.0
  0
LINE
  8
SUNPOU
 10
4085.517877
 20
4597.59187
 30
0.0
 11
4137.509197
 21
4597.59187
 31
0.0
  0
LINE
  8
SUNPOU
 10
4055.517877
 20
4447.59187
 30
0.0
 11
4137.509197
 21
4447.59187
 31
0.0
  0
LINE
  8
ITTEN
 10
3855.517877
 20
4597.59187
 30
0.0
 11
4065.517877
 21
4597.59187
 31
0.0
  0
LINE
  8
JISSEN
 10
3885.517877
 20
4587.59187
 30
0.0
 11
4025.517877
 21
4587.59187
 31
0.0
  0
LINE
  8
JISSEN
 10
3885.517877
 20
4607.59187
 30
0.0
 11
4025.517877
 21
4607.59187
 31
0.0
  0
ARC
  8
JISSEN
 10
4025.517877
 20
4597.59187
 30
0.0
 40
10.0
 50
270.0
 51
90.0
  0
TEXT
  8
SUNPOU
 10
4871.232172
 20
4333.338437
 30
0.0
 40
60.0
  1
2296
  7
K
 72
     1
 11
4985.517886
 21
4333.338437
 31
0.0
  0
INSERT
  8
SUNPOU
  2
ARROWANG
 10
6133.517877
 20
4303.338437
 30
0.0
 41
30.0
 42
30.0
 43
30.0
  0
INSERT
  8
SUNPOU
  2
ARROWANG
 10
3837.517877
 20
4303.338437
 30
0.0
 41
30.0
 42
30.0
 50
180.0
 43
30.0
  0
LINE
  8
SUNPOU
 10
3837.517877
 20
4303.338437
 30
0.0
 11
6133.517877
 21
4303.338437
 31
0.0
  0
LINE
  8
SUNPOU
 10
6133.517877
 20
4427.59187
 30
0.0
 11
6133.517877
 21
4283.338437
 31
0.0
  0
LINE
  8
SUNPOU
 10
3837.517877
 20
4427.59187
 30
0.0
 11
3837.517877
 21
4283.338437
 31
0.0
  0
TEXT
  8
SUNPOU
 10
4871.232172
 20
4169.868377
 30
0.0
 40
60.0
  1
2320
  7
K
 72
     1
 11
4985.517886
 21
4169.868377
 31
0.0
  0
INSERT
  8
SUNPOU
  2
ARROWANG
 10
6145.517877
 20
4139.868377
 30
0.0
 41
30.0
 42
30.0
 43
30.0
  0
INSERT
  8
SUNPOU
  2
ARROWANG
 10
3825.517877
 20
4139.868377
 30
0.0
 41
30.0
 42
30.0
 50
180.0
 43
30.0
  0
LINE
  8
SUNPOU
 10
3825.517877
 20
4139.868377
 30
0.0
 11
6145.517877
 21
4139.868377
 31
0.0
  0
LINE
  8
SUNPOU
 10
6145.517877
 20
4447.59187
 30
0.0
 11
6145.517877
 21
4119.868377
 31
0.0
  0
LINE
  8
SUNPOU
 10
3825.517877
 20
4447.59187
 30
0.0
 11
3825.517877
 21
4119.868377
 31
0.0
  0
TEXT
  8
SUNPOU
 10
4860.612654
 20
3984.235709
 30
0.0
 40
60.0
  1
2580
  7
K
 72
     1
 11
4974.898368
 21
3984.235709
 31
0.0
  0
INSERT
  8
SUNPOU
  2
ARROWANG
 10
3695.517877
 20
3954.235709
 30
0.0
 41
30.0
 42
30.0
 50
180.0
 43
30.0
  0
INSERT
  8
SUNPOU
  2
ARROWANG
 10
6275.517877
 20
3954.235709
 30
0.0
 41
30.0
 42
30.0
 43
30.0
  0
LINE
  8
SUNPOU
 10
3695.517877
 20
3954.235709
 30
0.0
 11
6275.517877
 21
3954.235709
 31
0.0
  0
LINE
  8
SUNPOU
 10
6275.517877
 20
4447.59187
 30
0.0
 11
6275.517877
 21
3934.235709
 31
0.0
  0
LINE
  8
SUNPOU
 10
3695.517877
 20
4447.59187
 30
0.0
 11
3695.517877
 21
3934.235709
 31
0.0
  0
TEXT
  8
SUNPOU
 10
3700.517886
 20
4594.45728
 30
0.0
 40
60.0
  1
190
  7
K
 72
     1
 11
3790.517886
 21
4594.45728
 31
0.0
  0
INSERT
  8
SUNPOU
  2
ARROWANG
 10
3885.517877
 20
4564.45728
 30
0.0
 41
30.0
 42
30.0
 43
30.0
  0
INSERT
  8
SUNPOU
  2
ARROWANG
 10
3695.517877
 20
4564.45728
 30
0.0
 41
30.0
 42
30.0
 50
180.0
 43
30.0
  0
LINE
  8
SUNPOU
 10
3695.517877
 20
4564.45728
 30
0.0
 11
3885.517877
 21
4564.45728
 31
0.0
  0
LINE
  8
SUNPOU
 10
3885.517877
 20
4467.59187
 30
0.0
 11
3885.517877
 21
4584.45728
 31
0.0
  0
LINE
  8
SUNPOU
 10
3695.517877
 20
4487.59187
 30
0.0
 11
3695.517877
 21
4584.45728
 31
0.0
  0
LINE
  8
ITTEN
 10
4985.517877
 20
4812.59187
 30
0.0
 11
4985.517877
 21
4397.59187
 31
0.0
  0
LINE
  8
JISSEN
 10
4785.517877
 20
4739.59187
 30
0.0
 11
4785.517877
 21
4447.59187
 31
0.0
  0
TEXT
  8
SUNPOU
 10
4024.803591
 20
973.015444
 30
0.0
 40
60.0
  1
450
  7
K
 72
     1
 11
4110.517877
 21
973.015444
 31
0.0
  0
INSERT
  8
SUNPOU
  2
ARROWANG
 10
4335.517877
 20
943.015444
 30
0.0
 41
30.0
 42
30.0
 43
30.0
  0
INSERT
  8
SUNPOU
  2
ARROWANG
 10
3885.517877
 20
943.015444
 30
0.0
 41
30.0
 42
30.0
 50
180.0
 43
30.0
  0
LINE
  8
SUNPOU
 10
4335.517877
 20
1877.415737
 30
0.0
 11
4335.517877
 21
923.015444
 31
0.0
  0
LINE
  8
SUNPOU
 10
3885.517877
 20
943.015444
 30
0.0
 11
4335.517877
 21
943.015444
 31
0.0
  0
TEXT
  8
SUNPOU
 10
3700.517886
 20
973.015444
 30
0.0
 40
60.0
  1
190
  7
K
 72
     1
 11
3790.517886
 21
973.015444
 31
0.0
  0
INSERT
  8
SUNPOU
  2
ARROWANG
 10
3885.517877
 20
943.015444
 30
0.0
 41
30.0
 42
30.0
 43
30.0
  0
INSERT
  8
SUNPOU
  2
ARROWANG
 10
3695.517877
 20
943.015444
 30
0.0
 41
30.0
 42
30.0
 50
180.0
 43
30.0
  0
LINE
  8
SUNPOU
 10
3695.517877
 20
943.015444
 30
0.0
 11
3885.517877
 21
943.015444
 31
0.0
  0
LINE
  8
SUNPOU
 10
3885.517877
 20
2377.415737
 30
0.0
 11
3885.517877
 21
923.015444
 31
0.0
  0
LINE
  8
SUNPOU
 10
3695.517877
 20
2377.415737
 30
0.0
 11
3695.517877
 21
923.015444
 31
0.0
  0
TEXT
  8
SUNPOU
 10
4851.613035
 20
2355.253472
 30
0.0
 40
60.0
  1
%%C2580
 50
29.816601
  7
K
 72
     1
 11
4970.601115
 21
2423.44438
 31
0.0
  0
INSERT
  8
SUNPOU
  2
ARROWANG
 10
3866.286244
 20
1755.995008
 30
0.0
 41
30.0
 42
30.0
 50
209.816601
 43
30.0
  0
INSERT
  8
SUNPOU
  2
ARROWANG
 10
6104.749509
 20
3038.836467
 30
0.0
 41
30.0
 42
30.0
 50
29.816601
 43
30.0
  0
LINE
  8
SUNPOU
 10
6104.749509
 20
3038.836467
 30
0.0
 11
3866.286244
 21
1755.995008
 31
0.0
  0
LINE
  8
ITTEN
 10
6325.517877
 20
2397.415737
 30
0.0
 11
3645.517877
 21
2397.415737
 31
0.0
  0
LINE
  8
ITTEN
 10
4985.517877
 20
3737.415737
 30
0.0
 11
4985.517877
 21
1057.415737
 31
0.0
  0
CIRCLE
  8
HASEN
 10
4985.517877
 20
2397.415737
 30
0.0
 40
1160.0
  0
CIRCLE
  8
HASEN
 10
4985.517877
 20
2397.415737
 30
0.0
 40
1148.0
  0
CIRCLE
  8
JISSEN
 10
4985.517877
 20
2397.415737
 30
0.0
 40
1290.0
  0
TEXT
  8
SUNPOU
 10
5012.836738
 20
4771.449013
 30
0.0
 40
60.0
  1
23
 50
90.0
  7
K
 72
     1
 11
5012.836738
 21
4828.59187
 31
0.0
  0
LINE
  8
SUNPOU
 10
5042.836738
 20
4739.59187
 30
0.0
 11
5042.83674
 21
4679.59187
 31
0.0
  0
LINE
  8
SUNPOU
 10
5042.836738
 20
4762.59187
 30
0.0
 11
5042.836738
 21
4888.59187
 31
0.0
  0
INSERT
  8
SUNPOU
  2
ARROWANG
 10
5042.836738
 20
4762.59187
 30
0.0
 41
30.0
 42
30.0
 50
270.0
 43
30.0
  0
INSERT
  8
SUNPOU
  2
ARROWANG
 10
5042.836738
 20
4739.59187
 30
0.0
 41
30.0
 42
30.0
 50
90.0
 43
30.0
  0
LINE
  8
SUNPOU
 10
5042.836738
 20
4739.59187
 30
0.0
 11
5042.836738
 21
4762.59187
 31
0.0
  0
LINE
  8
SUNPOU
 10
4833.517877
 20
4762.59187
 30
0.0
 11
5062.836738
 21
4762.59187
 31
0.0
  0
LINE
  8
SUNPOU
 10
4833.517877
 20
4739.59187
 30
0.0
 11
5062.836738
 21
4739.59187
 31
0.0
  0
TEXT
  8
SUNPOU
 10
6503.698417
 20
4324.449013
 30
0.0
 40
60.0
  1
20
 50
90.0
  7
K
 72
     1
 11
6503.698417
 21
4381.59187
 31
0.0
  0
LINE
  8
SUNPOU
 10
6295.517877
 20
4447.59187
 30
0.0
 11
6553.698417
 21
4447.59187
 31
0.0
  0
TEXT
  8
SUNPOU
 10
6503.698417
 20
4529.377585
 30
0.0
 40
60.0
  1
295
 50
90.0
  7
K
 72
     1
 11
6503.698417
 21
4615.09187
 31
0.0
  0
LINE
  8
SUNPOU
 10
6295.517877
 20
4762.59187
 30
0.0
 11
6553.698417
 21
4762.59187
 31
0.0
  0
LINE
  8
SUNPOU
 10
6295.517877
 20
4467.59187
 30
0.0
 11
6553.698417
 21
4467.59187
 31
0.0
  0
LINE
  8
SUNPOU
 10
6295.517877
 20
4762.59187
 30
0.0
 11
6749.750883
 21
4762.59187
 31
0.0
  0
LINE
  8
SUNPOU
 10
6183.517877
 20
4447.59187
 30
0.0
 11
6749.750883
 21
4447.59187
 31
0.0
  0
TEXT
  8
SUNPOU
 10
4249.803601
 20
4911.345762
 30
0.0
 40
60.0
  1
900
  7
K
 72
     1
 11
4335.517886
 21
4911.345762
 31
0.0
  0
INSERT
  8
SUNPOU
  2
ARROWANG
 10
4785.517877
 20
4881.345762
 30
0.0
 41
30.0
 42
30.0
 43
30.0
  0
INSERT
  8
SUNPOU
  2
ARROWANG
 10
3885.517877
 20
4881.345762
 30
0.0
 41
30.0
 42
30.0
 50
180.0
 43
30.0
  0
LINE
  8
SUNPOU
 10
3885.517877
 20
4881.345762
 30
0.0
 11
4785.517877
 21
4881.345762
 31
0.0
  0
LINE
  8
SUNPOU
 10
4785.517877
 20
4782.59187
 30
0.0
 11
4785.517877
 21
4901.345762
 31
0.0
  0
LINE
  8
SUNPOU
 10
3885.517877
 20
4759.59187
 30
0.0
 11
3885.517877
 21
4901.345762
 31
0.0
  0
TEXT
  8
SUNPOU
 10
4249.803601
 20
5049.987036
 30
0.0
 40
60.0
  1
956
  7
K
 72
     1
 11
4335.517886
 21
5049.987036
 31
0.0
  0
INSERT
  8
SUNPOU
  2
ARROWANG
 10
4813.517877
 20
5019.987036
 30
0.0
 41
30.0
 42
30.0
 43
30.0
  0
INSERT
  8
SUNPOU
  2
ARROWANG
 10
3857.517877
 20
5019.987036
 30
0.0
 41
30.0
 42
30.0
 50
180.0
 43
30.0
  0
LINE
  8
SUNPOU
 10
3857.517877
 20
5019.987036
 30
0.0
 11
4813.517877
 21
5019.987036
 31
0.0
  0
LINE
  8
SUNPOU
 10
4813.517877
 20
4759.59187
 30
0.0
 11
4813.517877
 21
5039.987036
 31
0.0
  0
LINE
  8
SUNPOU
 10
3857.517877
 20
4759.59187
 30
0.0
 11
3857.517877
 21
5039.987036
 31
0.0
  0
TEXT
  8
SUNPOU
 10
4249.803601
 20
5185.295588
 30
0.0
 40
60.0
  1
970
  7
K
 72
     1
 11
4335.517886
 21
5185.295588
 31
0.0
  0
INSERT
  8
SUNPOU
  2
ARROWANG
 10
4820.517877
 20
5155.295588
 30
0.0
 41
30.0
 42
30.0
 43
30.0
  0
INSERT
  8
SUNPOU
  2
ARROWANG
 10
3850.517877
 20
5155.295588
 30
0.0
 41
30.0
 42
30.0
 50
180.0
 43
30.0
  0
LINE
  8
SUNPOU
 10
3850.517877
 20
5155.295588
 30
0.0
 11
4820.517877
 21
5155.295588
 31
0.0
  0
LINE
  8
SUNPOU
 10
4820.517877
 20
4782.59187
 30
0.0
 11
4820.517877
 21
5175.295588
 31
0.0
  0
LINE
  8
SUNPOU
 10
3850.517877
 20
4782.59187
 30
0.0
 11
3850.517877
 21
5175.295588
 31
0.0
  0
LINE
  8
JISSEN
 10
3885.517877
 20
4739.59187
 30
0.0
 11
4785.517877
 21
4739.59187
 31
0.0
  0
LINE
  8
JISSEN
 10
3850.517877
 20
4762.59187
 30
0.0
 11
4820.517877
 21
4762.59187
 31
0.0
  0
LINE
  8
JISSEN
 10
3885.517877
 20
4739.59187
 30
0.0
 11
3885.517877
 21
4447.59187
 31
0.0
  0
LINE
  8
JISSEN
 10
4813.517877
 20
4739.59187
 30
0.0
 11
4785.517877
 21
4739.59187
 31
0.0
  0
LINE
  8
JISSEN
 10
4820.517877
 20
4762.59187
 30
0.0
 11
4813.517877
 21
4739.59187
 31
0.0
  0
LINE
  8
JISSEN
 10
6275.517877
 20
4762.59187
 30
0.0
 11
4820.517877
 21
4762.59187
 31
0.0
  0
LINE
  8
ITTEN
 10
4335.517877
 20
4789.59187
 30
0.0
 11
4335.517877
 21
4397.59187
 31
0.0
  0
LINE
  8
JISSEN
 10
3857.517877
 20
4739.59187
 30
0.0
 11
3885.517877
 21
4739.59187
 31
0.0
  0
LINE
  8
JISSEN
 10
3850.517877
 20
4762.59187
 30
0.0
 11
3857.517877
 21
4739.59187
 31
0.0
  0
LINE
  8
JISSEN
 10
3695.517877
 20
4762.59187
 30
0.0
 11
3850.517877
 21
4762.59187
 31
0.0
  0
LINE
  8
JISSEN
 10
6145.517877
 20
4467.59187
 30
0.0
 11
6133.517877
 21
4447.59187
 31
0.0
  0
LINE
  8
JISSEN
 10
6275.517877
 20
4467.59187
 30
0.0
 11
6145.517877
 21
4467.59187
 31
0.0
  0
LINE
  8
JISSEN
 10
3825.517877
 20
4467.59187
 30
0.0
 11
3837.517877
 21
4447.59187
 31
0.0
  0
LINE
  8
JISSEN
 10
3695.517877
 20
4467.59187
 30
0.0
 11
3825.517877
 21
4467.59187
 31
0.0
  0
TEXT
  8
SUNPOU
 10
4233.548976
 20
2349.560765
 30
0.0
 40
60.0
  1
%%C900
 50
40.587427
  7
K
 72
     1
 11
4315.999649
 21
2420.19816
 31
0.0
  0
INSERT
  8
SUNPOU
  2
ARROWANG
 10
3993.781534
 20
2104.642323
 30
0.0
 41
30.0
 42
30.0
 50
220.587427
 43
30.0
  0
INSERT
  8
SUNPOU
  2
ARROWANG
 10
4677.254219
 20
2690.189151
 30
0.0
 41
30.0
 42
30.0
 50
40.587427
 43
30.0
  0
LINE
  8
SUNPOU
 10
4677.254219
 20
2690.189151
 30
0.0
 11
3993.781534
 21
2104.642323
 31
0.0
  0
LINE
  8
ITTEN
 10
4335.517877
 20
2897.415737
 30
0.0
 11
4335.517877
 21
1897.415737
 31
0.0
  0
CIRCLE
  8
JISSEN
 10
4335.517877
 20
2397.415737
 30
0.0
 40
450.0
  0
LINE
  8
JISSEN
 10
6275.517877
 20
4467.59187
 30
0.0
 11
6275.517877
 21
4762.59187
 31
0.0
  0
LINE
  8
JISSEN
 10
3695.517877
 20
4467.59187
 30
0.0
 11
3695.517877
 21
4762.59187
 31
0.0
  0
LINE
  8
JISSEN
 10
3837.517877
 20
4447.59187
 30
0.0
 11
6133.517877
 21
4447.59187
 31
0.0
  0
LINE
  8
SUNPOU
 10
6533.698417
 20
4467.59187
 30
0.0
 11
6533.698417
 21
4527.59187
 31
0.0
  0
INSERT
  8
SUNPOU
  2
ARROWANG
 10
6533.698417
 20
4467.59187
 30
0.0
 41
30.0
 42
30.0
 50
270.0
 43
30.0
  0
INSERT
  8
SUNPOU
  2
ARROWANG
 10
6533.698417
 20
4447.59187
 30
0.0
 41
30.0
 42
30.0
 50
90.0
 43
30.0
  0
LINE
  8
SUNPOU
 10
6533.698417
 20
4447.59187
 30
0.0
 11
6533.698417
 21
4467.59187
 31
0.0
  0
LINE
  8
SUNPOU
 10
6553.698417
 20
4467.59187
 30
0.0
 11
6553.698417
 21
4467.59187
 31
0.0
  0
INSERT
  8
SUNPOU
  2
ARROWANG
 10
6533.698417
 20
4762.59187
 30
0.0
 41
30.0
 42
30.0
 50
90.0
 43
30.0
  0
INSERT
  8
SUNPOU
  2
ARROWANG
 10
6533.698417
 20
4467.59187
 30
0.0
 41
30.0
 42
30.0
 50
270.0
 43
30.0
  0
LINE
  8
SUNPOU
 10
6533.698417
 20
4467.59187
 30
0.0
 11
6533.698417
 21
4762.59187
 31
0.0
  0
TEXT
  8
SUNPOU
 10
6699.750883
 20
4519.377585
 30
0.0
 40
60.0
  1
315
 50
90.0
  7
K
 72
     1
 11
6699.750883
 21
4605.09187
 31
0.0
  0
INSERT
  8
SUNPOU
  2
ARROWANG
 10
6729.750883
 20
4762.59187
 30
0.0
 41
30.0
 42
30.0
 50
90.0
 43
30.0
  0
INSERT
  8
SUNPOU
  2
ARROWANG
 10
6729.750883
 20
4447.59187
 30
0.0
 41
30.0
 42
30.0
 50
270.0
 43
30.0
  0
LINE
  8
SUNPOU
 10
6729.750883
 20
4447.59187
 30
0.0
 11
6729.750883
 21
4762.59187
 31
0.0
  0
TEXT
  8
TEXT
 10
6325.360009
 20
2763.838453
 30
0.0
 40
60.0
  1
M20 8ケ所
  7
K
  0
LINE
  8
JISSEN
 10
3932.404989
 20
2197.415737
 30
0.0
 11
4010.517877
 21
2197.415737
 31
0.0
  0
LINE
  8
JISSEN
 10
4020.517877
 20
2207.415737
 30
0.0
 11
4020.517877
 21
2587.415737
 31
0.0
  0
LINE
  8
JISSEN
 10
4010.517877
 20
2597.415737
 30
0.0
 11
3932.404989
 21
2597.415737
 31
0.0
  0
LINE
  8
JISSEN
 10
3923.086064
 20
2217.415737
 30
0.0
 11
3990.517877
 21
2217.415737
 31
0.0
  0
LINE
  8
JISSEN
 10
4000.517877
 20
2227.415737
 30
0.0
 11
4000.517877
 21
2567.415737
 31
0.0
  0
LINE
  8
JISSEN
 10
3990.517877
 20
2577.415737
 30
0.0
 11
3923.086064
 21
2577.415737
 31
0.0
  0
ARC
  8
JISSEN
 10
4010.517877
 20
2207.415737
 30
0.0
 40
10.0
 50
270.0
 51
0.0
  0
ARC
  8
JISSEN
 10
3990.517877
 20
2227.415737
 30
0.0
 40
10.0
 50
270.0
 51
0.0
  0
ARC
  8
JISSEN
 10
3990.517877
 20
2567.415737
 30
0.0
 40
10.0
 50
0.0
 51
90.0
  0
ARC
  8
JISSEN
 10
4010.517877
 20
2587.415737
 30
0.0
 40
10.0
 50
0.0
 51
90.0
  0
TEXT
  8
TEXT
 10
6389.593723
 20
4782.702006
 30
0.0
 40
60.0
  1
M20 8ケ所
  7
K
  0
POLYLINE
  8
WAKU
 66
     1
 10
0.0
 20
0.0
 30
0.0
 70
     1
  0
VERTEX
  8
WAKU
 10
0.0
 20
0.0
 30
0.0
  0
VERTEX
  8
WAKU
 10
9875.0
 20
0.0
 30
0.0
  0
VERTEX
  8
WAKU
 10
9875.0
 20
6825.0
 30
0.0
  0
VERTEX
  8
WAKU
 10
0.0
 20
6825.0
 30
0.0
  0
SEQEND
  8
WAKU
  0
TEXT
  8
TEXT
 10
9291.484946
 20
644.593225
 30
0.0
 40
120.0
  1
1/25
  7
K
  0
ENDSEC
  0
EOF
