  0
SECTION
  2
HEADER
  9
$ACADVER
  1
AC1009
  9
$INSBASE
 10
0.0
 20
0.0
 30
0.0
  9
$EXTMIN
 10
0.0
 20
0.0
 30
0.0
  9
$EXTMAX
 10
12097.398173
 20
8190.0
 30
0.0
  9
$LIMMIN
 10
0.0
 20
0.0
  9
$LIMMAX
 10
11850.0
 20
8190.0
  9
$ORTHOMODE
 70
     0
  9
$REGENMODE
 70
     1
  9
$FILLMODE
 70
     1
  9
$QTEXTMODE
 70
     0
  9
$MIRRTEXT
 70
     0
  9
$DRAGMODE
 70
     2
  9
$LTSCALE
 40
150.0
  9
$OSMODE
 70
    32
  9
$ATTMODE
 70
     1
  9
$TEXTSIZE
 40
45.0
  9
$TRACEWID
 40
0.05
  9
$TEXTSTYLE
  7
K
  9
$CLAYER
  8
TENSEN
  9
$CELTYPE
  6
BYLAYER
  9
$CECOLOR
 62
   256
  9
$DIMSCALE
 40
30.0
  9
$DIMASZ
 40
1.5
  9
$DIMEXO
 40
1.0
  9
$DIMDLI
 40
6.0
  9
$DIMRND
 40
0.0
  9
$DIMDLE
 40
0.0
  9
$DIMEXE
 40
1.0
  9
$DIMTP
 40
495.0
  9
$DIMTM
 40
0.0
  9
$DIMTXT
 40
3.0
  9
$DIMCEN
 40
0.0
  9
$DIMTSZ
 40
0.0
  9
$DIMTOL
 70
     0
  9
$DIMLIM
 70
     0
  9
$DIMTIH
 70
     0
  9
$DIMTOH
 70
     0
  9
$DIMSE1
 70
     0
  9
$DIMSE2
 70
     0
  9
$DIMTAD
 70
     1
  9
$DIMZIN
 70
     8
  9
$DIMBLK
  1
ARROW
  9
$DIMASO
 70
     0
  9
$DIMSHO
 70
     0
  9
$DIMPOST
  1

  9
$DIMAPOST
  1

  9
$DIMALT
 70
     0
  9
$DIMALTD
 70
     2
  9
$DIMALTF
 40
25.4
  9
$DIMLFAC
 40
1.0
  9
$DIMTOFL
 70
     1
  9
$DIMTVP
 40
0.0
  9
$DIMTIX
 70
     1
  9
$DIMSOXD
 70
     0
  9
$DIMSAH
 70
     0
  9
$DIMBLK1
  1

  9
$DIMBLK2
  1

  9
$DIMSTYLE
  2
*UNNAMED
  9
$DIMCLRD
 70
     0
  9
$DIMCLRE
 70
     0
  9
$DIMCLRT
 70
     0
  9
$DIMTFAC
 40
1.0
  9
$DIMGAP
 40
0.09
  9
$LUNITS
 70
     2
  9
$LUPREC
 70
     2
  9
$AXISMODE
 70
     0
  9
$AXISUNIT
 10
100.0
 20
100.0
  9
$SKETCHINC
 40
0.1
  9
$FILLETRAD
 40
9.5
  9
$AUNITS
 70
     0
  9
$AUPREC
 70
     2
  9
$MENU
  1
d:stdgx5
  9
$ELEVATION
 40
0.0
  9
$PELEVATION
 40
0.0
  9
$THICKNESS
 40
0.0
  9
$LIMCHECK
 70
     0
  9
$BLIPMODE
 70
     1
  9
$CHAMFERA
 40
0.0
  9
$CHAMFERB
 40
0.0
  9
$SKPOLY
 70
     0
  9
$TDCREATE
 40
2449920.598043981
  9
$TDUPDATE
 40
2450256.617893518
  9
$TDINDWG
 40
1.2935763889
  9
$TDUSRTIMER
 40
1.2935763889
  9
$USRTIMER
 70
     1
  9
$ANGBASE
 50
0.0
  9
$ANGDIR
 70
     0
  9
$PDMODE
 70
     0
  9
$PDSIZE
 40
0.0
  9
$PLINEWID
 40
0.0
  9
$COORDS
 70
     2
  9
$SPLFRAME
 70
     0
  9
$SPLINETYPE
 70
     6
  9
$SPLINESEGS
 70
     8
  9
$ATTDIA
 70
     0
  9
$ATTREQ
 70
     1
  9
$HANDLING
 70
     0
  9
$HANDSEED
  5
0
  9
$SURFTAB1
 70
     6
  9
$SURFTAB2
 70
     6
  9
$SURFTYPE
 70
     6
  9
$SURFU
 70
     6
  9
$SURFV
 70
     6
  9
$UCSNAME
  2

  9
$UCSORG
 10
0.0
 20
0.0
 30
0.0
  9
$UCSXDIR
 10
1.0
 20
0.0
 30
0.0
  9
$UCSYDIR
 10
0.0
 20
1.0
 30
0.0
  9
$PUCSNAME
  2

  9
$PUCSORG
 10
0.0
 20
0.0
 30
0.0
  9
$PUCSXDIR
 10
1.0
 20
0.0
 30
0.0
  9
$PUCSYDIR
 10
0.0
 20
1.0
 30
0.0
  9
$USERI1
 70
     3
  9
$USERI2
 70
    32
  9
$USERI3
 70
     0
  9
$USERI4
 70
     1
  9
$USERI5
 70
     0
  9
$USERR1
 40
30.0
  9
$USERR2
 40
3.0
  9
$USERR3
 40
3.0
  9
$USERR4
 40
1.5
  9
$USERR5
 40
10.0
  9
$WORLDVIEW
 70
     1
  9
$SHADEDGE
 70
     3
  9
$SHADEDIF
 70
    70
  9
$TILEMODE
 70
     1
  9
$MAXACTVP
 70
    16
  9
$PINSBASE
 10
0.0
 20
0.0
 30
0.0
  9
$PLIMCHECK
 70
     0
  9
$PEXTMIN
 10
1.000000E+20
 20
1.000000E+20
 30
1.000000E+20
  9
$PEXTMAX
 10
-1.000000E+20
 20
-1.000000E+20
 30
-1.000000E+20
  9
$PLIMMIN
 10
0.0
 20
0.0
  9
$PLIMMAX
 10
12.0
 20
9.0
  9
$UNITMODE
 70
     0
  9
$VISRETAIN
 70
     0
  0
ENDSEC
  0
SECTION
  2
TABLES
  0
TABLE
  2
VPORT
 70
    10
  0
VPORT
  2
*ACTIVE
 70
     0
 10
0.0
 20
0.0
 11
1.0
 21
1.0
 12
6691.515737
 22
4095.0
 13
0.0
 23
0.0
 14
1.0
 24
1.0
 15
10.0
 25
10.0
 16
0.0
 26
0.0
 36
1.0
 17
0.0
 27
0.0
 37
0.0
 40
8190.0
 41
1.63407
 42
50.0
 43
0.0
 44
0.0
 50
0.0
 51
0.0
 71
     0
 72
   500
 73
     1
 74
     0
 75
     0
 76
     0
 77
     0
 78
     0
  0
VPORT
  2
2
 70
     0
 10
0.5
 20
0.0
 11
1.0
 21
1.0
 12
0.924031
 22
1.052651
 13
0.0
 23
0.0
 14
1.0
 24
1.0
 15
10.0
 25
10.0
 16
0.0
 26
0.0
 36
1.0
 17
0.0
 27
0.0
 37
0.0
 40
2.105302
 41
0.877814
 42
50.0
 43
0.0
 44
0.0
 50
0.0
 51
0.0
 71
     0
 72
   500
 73
     1
 74
     1
 75
     0
 76
     0
 77
     0
 78
     0
  0
VPORT
  2
2
 70
     0
 10
0.0
 20
0.0
 11
0.5
 21
1.0
 12
0.924031
 22
1.052651
 13
0.0
 23
0.0
 14
1.0
 24
1.0
 15
10.0
 25
10.0
 16
0.0
 26
0.0
 36
1.0
 17
0.0
 27
0.0
 37
0.0
 40
2.105302
 41
0.877814
 42
50.0
 43
0.0
 44
0.0
 50
0.0
 51
0.0
 71
     0
 72
   500
 73
     1
 74
     1
 75
     0
 76
     0
 77
     0
 78
     0
  0
VPORT
  2
3
 70
     0
 10
0.0
 20
0.5
 11
1.0
 21
1.0
 12
2.83217
 22
1.052651
 13
0.0
 23
0.0
 14
1.0
 24
1.0
 15
10.0
 25
10.0
 16
0.0
 26
0.0
 36
1.0
 17
0.0
 27
0.0
 37
0.0
 40
2.105302
 41
3.571429
 42
50.0
 43
0.0
 44
0.0
 50
0.0
 51
0.0
 71
     0
 72
   500
 73
     1
 74
     1
 75
     0
 76
     0
 77
     0
 78
     0
  0
VPORT
  2
3
 70
     0
 10
0.0
 20
0.0
 11
1.0
 21
0.5
 12
2.856742
 22
1.052651
 13
0.0
 23
0.0
 14
1.0
 24
1.0
 15
10.0
 25
10.0
 16
0.0
 26
0.0
 36
1.0
 17
0.0
 27
0.0
 37
0.0
 40
2.105302
 41
3.594771
 42
50.0
 43
0.0
 44
0.0
 50
0.0
 51
0.0
 71
     0
 72
   500
 73
     1
 74
     1
 75
     0
 76
     0
 77
     0
 78
     0
  0
VPORT
  2
4
 70
     0
 10
0.5
 20
0.0
 11
1.0
 21
0.5
 12
2.886858
 22
1.052651
 13
0.0
 23
0.0
 14
1.0
 24
1.0
 15
10.0
 25
10.0
 16
0.0
 26
0.0
 36
1.0
 17
0.0
 27
0.0
 37
0.0
 40
4.275207
 41
1.784314
 42
50.0
 43
0.0
 44
0.0
 50
0.0
 51
0.0
 71
     0
 72
   500
 73
     1
 74
     1
 75
     0
 76
     0
 77
     0
 78
     0
  0
VPORT
  2
4
 70
     0
 10
0.5
 20
0.5
 11
1.0
 21
1.0
 12
2.86209
 22
1.052651
 13
0.0
 23
0.0
 14
1.0
 24
1.0
 15
10.0
 25
10.0
 16
0.0
 26
0.0
 36
1.0
 17
0.0
 27
0.0
 37
0.0
 40
4.275207
 41
1.772727
 42
50.0
 43
0.0
 44
0.0
 50
0.0
 51
0.0
 71
     0
 72
   500
 73
     1
 74
     1
 75
     0
 76
     0
 77
     0
 78
     0
  0
VPORT
  2
4
 70
     0
 10
0.0
 20
0.5
 11
0.5
 21
1.0
 12
2.86209
 22
1.052651
 13
0.0
 23
0.0
 14
1.0
 24
1.0
 15
10.0
 25
10.0
 16
0.0
 26
0.0
 36
1.0
 17
0.0
 27
0.0
 37
0.0
 40
4.275207
 41
1.772727
 42
50.0
 43
0.0
 44
0.0
 50
0.0
 51
0.0
 71
     0
 72
   500
 73
     1
 74
     1
 75
     0
 76
     0
 77
     0
 78
     0
  0
VPORT
  2
4
 70
     0
 10
0.0
 20
0.0
 11
0.5
 21
0.5
 12
2.886858
 22
1.052651
 13
0.0
 23
0.0
 14
1.0
 24
1.0
 15
10.0
 25
10.0
 16
0.0
 26
0.0
 36
1.0
 17
0.0
 27
0.0
 37
0.0
 40
4.275207
 41
1.784314
 42
50.0
 43
0.0
 44
0.0
 50
0.0
 51
0.0
 71
     0
 72
   500
 73
     1
 74
     1
 75
     0
 76
     0
 77
     0
 78
     0
  0
ENDTAB
  0
TABLE
  2
LTYPE
 70
     5
  0
LTYPE
  2
CONTINUOUS
 70
    64
  3
実線
 72
    65
 73
     0
 40
0.0
  0
LTYPE
  2
CENTER
 70
    64
  3
____ _ ____ _ ____ _ ____ _ ____ _ ____ _ ____
 72
    65
 73
     4
 40
2.0
 49
1.25
 49
-0.25
 49
0.25
 49
-0.25
  0
LTYPE
  2
HIDDEN
 70
    64
  3
_ _ _ _ _ _ _ _ _ _ _ _ _ _ _ _ _ _ _ _ _ _ _
 72
    65
 73
     2
 40
0.375
 49
0.25
 49
-0.125
  0
ENDTAB
  0
TABLE
  2
LAYER
 70
     9
  0
LAYER
  2
0
 70
     0
 62
     7
  6
CONTINUOUS
  0
LAYER
  2
ITTEN
 70
    64
 62
     1
  6
CENTER
  0
LAYER
  2
SUNPOU
 70
    64
 62
     3
  6
CONTINUOUS
  0
LAYER
  2
TEXT
 70
    64
 62
     3
  6
CONTINUOUS
  0
LAYER
  2
JISSEN
 70
    64
 62
     7
  6
CONTINUOUS
  0
LAYER
  2
TENSEN
 70
    64
 62
     2
  6
HIDDEN
  0
LAYER
  2
WAKU
 70
    64
 62
    -5
  6
CONTINUOUS
  0
ENDTAB
  0
TABLE
  2
STYLE
 70
     2
  0
STYLE
  2
STANDARD
 70
     0
 40
0.0
 41
1.0
 50
0.0
 71
     0
 42
0.2
  3
ROMANS
  4
EXTFONT
  0
STYLE
  2
K
 70
    64
 40
0.0
 41
1.0
 50
0.0
 71
     0
 42
45.0
  3
ROMANS
  4
EXTFONT
  0
ENDTAB
  0
TABLE
  2
VIEW
 70
     0
  0
ENDTAB
  0
TABLE
  2
UCS
 70
     0
  0
ENDTAB
  0
TABLE
  2
APPID
 70
     1
  0
APPID
  2
ACAD
 70
    64
  0
ENDTAB
  0
TABLE
  2
DIMSTYLE
 70
     0
  0
ENDTAB
  0
ENDSEC
  0
SECTION
  2
BLOCKS
  0
BLOCK
  8
SUNPOU
  2
ARROWANG
 70
    64
 10
0.0
 20
0.0
 30
0.0
  3
ARROWANG
  0
LINE
  8
SUNPOU
 10
0.0
 20
0.0
 30
0.0
 11
-1.5
 21
0.401924
 31
0.0
  0
LINE
  8
SUNPOU
 10
0.0
 20
0.0
 30
0.0
 11
-1.5
 21
-0.401924
 31
0.0
  0
ENDBLK
  8
SUNPOU
  0
ENDSEC
  0
SECTION
  2
ENTITIES
  0
LINE
  8
JISSEN
 10
2289.50325
 20
4314.79029
 30
0.0
 11
2289.50325
 21
4164.79029
 31
0.0
  0
LINE
  8
JISSEN
 10
2289.50325
 20
4164.79029
 30
0.0
 11
2370.50325
 21
4164.79029
 31
0.0
  0
LINE
  8
JISSEN
 10
2370.50325
 20
4164.79029
 30
0.0
 11
2374.50325
 21
4154.79029
 31
0.0
  0
LINE
  8
JISSEN
 10
2374.50325
 20
4154.79029
 30
0.0
 11
2399.50325
 21
4154.79029
 31
0.0
  0
LINE
  8
JISSEN
 10
2289.50325
 20
4314.79029
 30
0.0
 11
2367.50325
 21
4314.79029
 31
0.0
  0
LINE
  8
JISSEN
 10
2367.50325
 20
4314.79029
 30
0.0
 11
2373.50325
 21
4299.79029
 31
0.0
  0
LINE
  8
JISSEN
 10
2373.50325
 20
4299.79029
 30
0.0
 11
2399.50325
 21
4299.79029
 31
0.0
  0
LINE
  8
JISSEN
 10
2399.50325
 20
4299.79029
 30
0.0
 11
2399.50325
 21
4154.79029
 31
0.0
  0
LINE
  8
TENSEN
 10
2999.50325
 20
4299.79029
 30
0.0
 11
2999.50325
 21
4164.79029
 31
0.0
  0
LINE
  8
TENSEN
 10
3025.50325
 20
4299.79029
 30
0.0
 11
2999.50325
 21
4299.79029
 31
0.0
  0
LINE
  8
TENSEN
 10
3031.50325
 20
4314.79029
 30
0.0
 11
3025.50325
 21
4299.79029
 31
0.0
  0
LINE
  8
JISSEN
 10
3109.50325
 20
4314.79029
 30
0.0
 11
3031.50325
 21
4314.79029
 31
0.0
  0
LINE
  8
JISSEN
 10
3024.50325
 20
4154.79029
 30
0.0
 11
2999.50325
 21
4154.79029
 31
0.0
  0
LINE
  8
JISSEN
 10
3028.50325
 20
4164.79029
 30
0.0
 11
3024.50325
 21
4154.79029
 31
0.0
  0
LINE
  8
JISSEN
 10
3109.50325
 20
4164.79029
 30
0.0
 11
3028.50325
 21
4164.79029
 31
0.0
  0
LINE
  8
JISSEN
 10
3109.50325
 20
4314.79029
 30
0.0
 11
3109.50325
 21
4164.79029
 31
0.0
  0
LINE
  8
ITTEN
 10
2699.50325
 20
4379.142081
 30
0.0
 11
2699.50325
 21
4074.749704
 31
0.0
  0
LINE
  8
JISSEN
 10
2367.50325
 20
4314.79029
 30
0.0
 11
3031.50325
 21
4314.79029
 31
0.0
  0
LINE
  8
JISSEN
 10
2399.50325
 20
4299.79029
 30
0.0
 11
2699.50325
 21
4299.79029
 31
0.0
  0
LINE
  8
TENSEN
 10
2699.50325
 20
4299.79029
 30
0.0
 11
2999.50325
 21
4299.79029
 31
0.0
  0
LINE
  8
JISSEN
 10
2999.50325
 20
4154.79029
 30
0.0
 11
2399.50325
 21
4154.79029
 31
0.0
  0
LINE
  8
JISSEN
 10
3028.50325
 20
4164.79029
 30
0.0
 11
2699.50325
 21
4164.79029
 31
0.0
  0
LINE
  8
SUNPOU
 10
2289.50325
 20
4134.79029
 30
0.0
 11
2289.50325
 21
3924.79029
 31
0.0
  0
LINE
  8
SUNPOU
 10
2399.50325
 20
4124.79029
 30
0.0
 11
2399.50325
 21
3924.79029
 31
0.0
  0
LINE
  8
SUNPOU
 10
2289.50325
 20
3954.79029
 30
0.0
 11
2399.50325
 21
3954.79029
 31
0.0
  0
INSERT
  8
SUNPOU
  2
ARROWANG
 10
2399.50325
 20
3954.79029
 30
0.0
 41
30.0
 42
30.0
 50
180.0
 43
30.0
  0
INSERT
  8
SUNPOU
  2
ARROWANG
 10
2289.50325
 20
3954.79029
 30
0.0
 41
30.0
 42
30.0
 43
30.0
  0
LINE
  8
SUNPOU
 10
2289.50325
 20
3954.79029
 30
0.0
 11
2141.00325
 21
3954.79029
 31
0.0
  0
LINE
  8
SUNPOU
 10
2399.50325
 20
3954.79029
 30
0.0
 11
2459.50325
 21
3954.79029
 31
0.0
  0
TEXT
  8
SUNPOU
 10
2147.75325
 20
3999.79029
 30
0.0
 40
45.0
  1
110
  7
K
 72
     1
 11
2215.25325
 21
3999.79029
 31
0.0
  0
LINE
  8
SUNPOU
 10
2399.50325
 20
3924.79029
 30
0.0
 11
2399.50325
 21
3924.79029
 31
0.0
  0
LINE
  8
SUNPOU
 10
2999.50325
 20
4134.79029
 30
0.0
 11
2999.50325
 21
3924.79029
 31
0.0
  0
LINE
  8
SUNPOU
 10
2399.50325
 20
3954.79029
 30
0.0
 11
2999.50325
 21
3954.79029
 31
0.0
  0
INSERT
  8
SUNPOU
  2
ARROWANG
 10
2399.50325
 20
3954.79029
 30
0.0
 41
30.0
 42
30.0
 50
180.0
 43
30.0
  0
INSERT
  8
SUNPOU
  2
ARROWANG
 10
2999.50325
 20
3954.79029
 30
0.0
 41
30.0
 42
30.0
 43
30.0
  0
TEXT
  8
SUNPOU
 10
2634.146121
 20
3999.79029
 30
0.0
 40
45.0
  1
600
  7
K
 72
     1
 11
2699.503264
 21
3999.79029
 31
0.0
  0
LINE
  8
SUNPOU
 10
2999.50325
 20
3984.79029
 30
0.0
 11
2999.50325
 21
3984.79029
 31
0.0
  0
LINE
  8
SUNPOU
 10
3109.50325
 20
4134.79029
 30
0.0
 11
3109.50325
 21
3924.79029
 31
0.0
  0
LINE
  8
SUNPOU
 10
2999.50325
 20
3954.79029
 30
0.0
 11
3109.50325
 21
3954.79029
 31
0.0
  0
INSERT
  8
SUNPOU
  2
ARROWANG
 10
3109.50325
 20
3954.79029
 30
0.0
 41
30.0
 42
30.0
 50
180.0
 43
30.0
  0
INSERT
  8
SUNPOU
  2
ARROWANG
 10
2999.50325
 20
3954.79029
 30
0.0
 41
30.0
 42
30.0
 43
30.0
  0
LINE
  8
SUNPOU
 10
3109.50325
 20
3954.79029
 30
0.0
 11
3258.00325
 21
3954.79029
 31
0.0
  0
LINE
  8
SUNPOU
 10
2999.50325
 20
3954.79029
 30
0.0
 11
2939.50325
 21
3954.79029
 31
0.0
  0
TEXT
  8
SUNPOU
 10
3116.25325
 20
3999.79029
 30
0.0
 40
45.0
  1
110
  7
K
 72
     1
 11
3183.75325
 21
3999.79029
 31
0.0
  0
LINE
  8
SUNPOU
 10
2289.50325
 20
4134.79029
 30
0.0
 11
2289.50325
 21
3824.79029
 31
0.0
  0
LINE
  8
SUNPOU
 10
3109.50325
 20
4134.79029
 30
0.0
 11
3109.50325
 21
3824.79029
 31
0.0
  0
LINE
  8
SUNPOU
 10
2289.50325
 20
3854.79029
 30
0.0
 11
3109.50325
 21
3854.79029
 31
0.0
  0
INSERT
  8
SUNPOU
  2
ARROWANG
 10
2289.50325
 20
3854.79029
 30
0.0
 41
30.0
 42
30.0
 50
180.0
 43
30.0
  0
INSERT
  8
SUNPOU
  2
ARROWANG
 10
3109.50325
 20
3854.79029
 30
0.0
 41
30.0
 42
30.0
 43
30.0
  0
TEXT
  8
SUNPOU
 10
2635.21755
 20
3899.79029
 30
0.0
 40
45.0
  1
820
  7
K
 72
     1
 11
2699.503264
 21
3899.79029
 31
0.0
  0
LINE
  8
SUNPOU
 10
2259.50325
 20
4164.79029
 30
0.0
 11
2059.50325
 21
4164.79029
 31
0.0
  0
LINE
  8
SUNPOU
 10
2259.50325
 20
4314.79029
 30
0.0
 11
2059.50325
 21
4314.79029
 31
0.0
  0
LINE
  8
SUNPOU
 10
2089.50325
 20
4164.79029
 30
0.0
 11
2089.50325
 21
4314.79029
 31
0.0
  0
INSERT
  8
SUNPOU
  2
ARROWANG
 10
2089.50325
 20
4164.79029
 30
0.0
 41
30.0
 42
30.0
 50
270.0
 43
30.0
  0
INSERT
  8
SUNPOU
  2
ARROWANG
 10
2089.50325
 20
4314.79029
 30
0.0
 41
30.0
 42
30.0
 50
90.0
 43
30.0
  0
TEXT
  8
SUNPOU
 10
2044.50325
 20
4172.29029
 30
0.0
 40
45.0
  1
150
 50
90.0
  7
K
 72
     1
 11
2044.50325
 21
4239.79029
 31
0.0
  0
LINE
  8
SUNPOU
 10
2505.176939
 20
4154.79029
 30
0.0
 11
2505.176939
 21
4154.79029
 31
0.0
  0
LINE
  8
SUNPOU
 10
2505.176939
 20
4299.79029
 30
0.0
 11
2505.176939
 21
4299.79029
 31
0.0
  0
LINE
  8
SUNPOU
 10
2535.176939
 20
4154.79029
 30
0.0
 11
2535.176939
 21
4299.79029
 31
0.0
  0
INSERT
  8
SUNPOU
  2
ARROWANG
 10
2535.176939
 20
4154.79029
 30
0.0
 41
30.0
 42
30.0
 50
270.0
 43
30.0
  0
INSERT
  8
SUNPOU
  2
ARROWANG
 10
2535.176939
 20
4299.79029
 30
0.0
 41
30.0
 42
30.0
 50
90.0
 43
30.0
  0
TEXT
  8
SUNPOU
 10
2490.176939
 20
4159.79029
 30
0.0
 40
45.0
  1
145
 50
90.0
  7
K
 72
     1
 11
2490.176939
 21
4227.29029
 31
0.0
  0
LINE
  8
SUNPOU
 10
2505.176939
 20
5051.379385
 30
0.0
 11
2505.176939
 21
5051.379385
 31
0.0
  0
LINE
  8
SUNPOU
 10
2505.176939
 20
4956.379385
 30
0.0
 11
2505.176939
 21
4956.379385
 31
0.0
  0
LINE
  8
SUNPOU
 10
2259.50325
 20
5066.379385
 30
0.0
 11
2059.50325
 21
5066.379385
 31
0.0
  0
LINE
  8
SUNPOU
 10
2259.50325
 20
4966.379385
 30
0.0
 11
2059.50325
 21
4966.379385
 31
0.0
  0
TEXT
  8
SUNPOU
 10
2635.21755
 20
4651.379385
 30
0.0
 40
45.0
  1
820
  7
K
 72
     1
 11
2699.503264
 21
4651.379385
 31
0.0
  0
INSERT
  8
SUNPOU
  2
ARROWANG
 10
3109.50325
 20
4606.379385
 30
0.0
 41
30.0
 42
30.0
 43
30.0
  0
INSERT
  8
SUNPOU
  2
ARROWANG
 10
2289.50325
 20
4606.379385
 30
0.0
 41
30.0
 42
30.0
 50
180.0
 43
30.0
  0
LINE
  8
SUNPOU
 10
2289.50325
 20
4606.379385
 30
0.0
 11
3109.50325
 21
4606.379385
 31
0.0
  0
LINE
  8
SUNPOU
 10
3109.50325
 20
4936.379385
 30
0.0
 11
3109.50325
 21
4576.379385
 31
0.0
  0
LINE
  8
SUNPOU
 10
2289.50325
 20
4936.379385
 30
0.0
 11
2289.50325
 21
4576.379385
 31
0.0
  0
TEXT
  8
SUNPOU
 10
3116.25325
 20
4751.379385
 30
0.0
 40
45.0
  1
110
  7
K
 72
     1
 11
3183.75325
 21
4751.379385
 31
0.0
  0
LINE
  8
SUNPOU
 10
2999.50325
 20
4706.379385
 30
0.0
 11
2939.50325
 21
4706.379385
 31
0.0
  0
LINE
  8
SUNPOU
 10
3109.50325
 20
4706.379385
 30
0.0
 11
3258.00325
 21
4706.379385
 31
0.0
  0
INSERT
  8
SUNPOU
  2
ARROWANG
 10
2999.50325
 20
4706.379385
 30
0.0
 41
30.0
 42
30.0
 43
30.0
  0
INSERT
  8
SUNPOU
  2
ARROWANG
 10
3109.50325
 20
4706.379385
 30
0.0
 41
30.0
 42
30.0
 50
180.0
 43
30.0
  0
LINE
  8
SUNPOU
 10
2999.50325
 20
4706.379385
 30
0.0
 11
3109.50325
 21
4706.379385
 31
0.0
  0
LINE
  8
SUNPOU
 10
3109.50325
 20
4936.379385
 30
0.0
 11
3109.50325
 21
4676.379385
 31
0.0
  0
LINE
  8
SUNPOU
 10
2999.50325
 20
4736.379385
 30
0.0
 11
2999.50325
 21
4736.379385
 31
0.0
  0
TEXT
  8
SUNPOU
 10
2634.146121
 20
4751.379385
 30
0.0
 40
45.0
  1
600
  7
K
 72
     1
 11
2699.503264
 21
4751.379385
 31
0.0
  0
INSERT
  8
SUNPOU
  2
ARROWANG
 10
2999.50325
 20
4706.379385
 30
0.0
 41
30.0
 42
30.0
 43
30.0
  0
INSERT
  8
SUNPOU
  2
ARROWANG
 10
2399.50325
 20
4706.379385
 30
0.0
 41
30.0
 42
30.0
 50
180.0
 43
30.0
  0
LINE
  8
SUNPOU
 10
2399.50325
 20
4706.379385
 30
0.0
 11
2999.50325
 21
4706.379385
 31
0.0
  0
LINE
  8
SUNPOU
 10
2999.50325
 20
4936.379385
 30
0.0
 11
2999.50325
 21
4676.379385
 31
0.0
  0
LINE
  8
SUNPOU
 10
2399.50325
 20
4676.379385
 30
0.0
 11
2399.50325
 21
4676.379385
 31
0.0
  0
TEXT
  8
SUNPOU
 10
2147.75325
 20
4751.379385
 30
0.0
 40
45.0
  1
110
  7
K
 72
     1
 11
2215.25325
 21
4751.379385
 31
0.0
  0
LINE
  8
SUNPOU
 10
2399.50325
 20
4706.379385
 30
0.0
 11
2459.50325
 21
4706.379385
 31
0.0
  0
LINE
  8
SUNPOU
 10
2289.50325
 20
4706.379385
 30
0.0
 11
2141.00325
 21
4706.379385
 31
0.0
  0
INSERT
  8
SUNPOU
  2
ARROWANG
 10
2289.50325
 20
4706.379385
 30
0.0
 41
30.0
 42
30.0
 43
30.0
  0
INSERT
  8
SUNPOU
  2
ARROWANG
 10
2399.50325
 20
4706.379385
 30
0.0
 41
30.0
 42
30.0
 50
180.0
 43
30.0
  0
LINE
  8
SUNPOU
 10
2289.50325
 20
4706.379385
 30
0.0
 11
2399.50325
 21
4706.379385
 31
0.0
  0
LINE
  8
SUNPOU
 10
2399.50325
 20
4926.379385
 30
0.0
 11
2399.50325
 21
4676.379385
 31
0.0
  0
LINE
  8
SUNPOU
 10
2289.50325
 20
4936.379385
 30
0.0
 11
2289.50325
 21
4676.379385
 31
0.0
  0
LINE
  8
JISSEN
 10
3028.50325
 20
4966.379385
 30
0.0
 11
2699.50325
 21
4966.379385
 31
0.0
  0
LINE
  8
JISSEN
 10
2999.50325
 20
4956.379385
 30
0.0
 11
2399.50325
 21
4956.379385
 31
0.0
  0
LINE
  8
TENSEN
 10
2699.50325
 20
5051.379385
 30
0.0
 11
2999.50325
 21
5051.379385
 31
0.0
  0
LINE
  8
JISSEN
 10
2399.50325
 20
5051.379385
 30
0.0
 11
2699.50325
 21
5051.379385
 31
0.0
  0
LINE
  8
JISSEN
 10
2367.50325
 20
5066.379385
 30
0.0
 11
3031.50325
 21
5066.379385
 31
0.0
  0
LINE
  8
ITTEN
 10
2699.50325
 20
5130.731176
 30
0.0
 11
2699.50325
 21
4826.338799
 31
0.0
  0
LINE
  8
JISSEN
 10
3109.50325
 20
5066.379385
 30
0.0
 11
3109.50325
 21
4966.379385
 31
0.0
  0
LINE
  8
JISSEN
 10
3109.50325
 20
4966.379385
 30
0.0
 11
3028.50325
 21
4966.379385
 31
0.0
  0
LINE
  8
JISSEN
 10
3028.50325
 20
4966.379385
 30
0.0
 11
3024.50325
 21
4956.379385
 31
0.0
  0
LINE
  8
JISSEN
 10
3024.50325
 20
4956.379385
 30
0.0
 11
2999.50325
 21
4956.379385
 31
0.0
  0
LINE
  8
JISSEN
 10
3109.50325
 20
5066.379385
 30
0.0
 11
3031.50325
 21
5066.379385
 31
0.0
  0
LINE
  8
TENSEN
 10
3031.50325
 20
5066.379385
 30
0.0
 11
3025.50325
 21
5051.379385
 31
0.0
  0
LINE
  8
TENSEN
 10
3025.50325
 20
5051.379385
 30
0.0
 11
2999.50325
 21
5051.379385
 31
0.0
  0
LINE
  8
TENSEN
 10
2999.50325
 20
5051.379385
 30
0.0
 11
2999.50325
 21
4966.379385
 31
0.0
  0
LINE
  8
JISSEN
 10
2399.50325
 20
5051.379385
 30
0.0
 11
2399.50325
 21
4956.379385
 31
0.0
  0
LINE
  8
JISSEN
 10
2373.50325
 20
5051.379385
 30
0.0
 11
2399.50325
 21
5051.379385
 31
0.0
  0
LINE
  8
JISSEN
 10
2367.50325
 20
5066.379385
 30
0.0
 11
2373.50325
 21
5051.379385
 31
0.0
  0
LINE
  8
JISSEN
 10
2289.50325
 20
5066.379385
 30
0.0
 11
2367.50325
 21
5066.379385
 31
0.0
  0
LINE
  8
JISSEN
 10
2374.50325
 20
4956.379385
 30
0.0
 11
2399.50325
 21
4956.379385
 31
0.0
  0
LINE
  8
JISSEN
 10
2370.50325
 20
4966.379385
 30
0.0
 11
2374.50325
 21
4956.379385
 31
0.0
  0
LINE
  8
JISSEN
 10
2289.50325
 20
4966.379385
 30
0.0
 11
2370.50325
 21
4966.379385
 31
0.0
  0
LINE
  8
JISSEN
 10
2289.50325
 20
5066.379385
 30
0.0
 11
2289.50325
 21
4966.379385
 31
0.0
  0
LINE
  8
SUNPOU
 10
2119.50325
 20
4966.379385
 30
0.0
 11
2119.50325
 21
4966.379385
 31
0.0
  0
LINE
  8
SUNPOU
 10
2119.50325
 20
5066.379385
 30
0.0
 11
2119.50325
 21
5066.379385
 31
0.0
  0
LINE
  8
SUNPOU
 10
2089.50325
 20
4966.379385
 30
0.0
 11
2089.50325
 21
5066.379385
 31
0.0
  0
INSERT
  8
SUNPOU
  2
ARROWANG
 10
2089.50325
 20
4966.379385
 30
0.0
 41
30.0
 42
30.0
 50
270.0
 43
30.0
  0
INSERT
  8
SUNPOU
  2
ARROWANG
 10
2089.50325
 20
5066.379385
 30
0.0
 41
30.0
 42
30.0
 50
90.0
 43
30.0
  0
TEXT
  8
SUNPOU
 10
2044.50325
 20
4948.879385
 30
0.0
 40
45.0
  1
100
 50
90.0
  7
K
 72
     1
 11
2044.50325
 21
5016.379385
 31
0.0
  0
LINE
  8
SUNPOU
 10
2565.176939
 20
4956.379385
 30
0.0
 11
2565.176939
 21
4956.379385
 31
0.0
  0
LINE
  8
SUNPOU
 10
2505.176939
 20
5051.379385
 30
0.0
 11
2505.176939
 21
5051.379385
 31
0.0
  0
LINE
  8
SUNPOU
 10
2535.176939
 20
4956.379385
 30
0.0
 11
2535.176939
 21
5051.379385
 31
0.0
  0
INSERT
  8
SUNPOU
  2
ARROWANG
 10
2535.176939
 20
4956.379385
 30
0.0
 41
30.0
 42
30.0
 50
270.0
 43
30.0
  0
INSERT
  8
SUNPOU
  2
ARROWANG
 10
2535.176939
 20
5051.379385
 30
0.0
 41
30.0
 42
30.0
 50
90.0
 43
30.0
  0
TEXT
  8
SUNPOU
 10
2490.176939
 20
4961.022242
 30
0.0
 40
45.0
  1
95
 50
90.0
  7
K
 72
     1
 11
2490.176939
 21
5003.879385
 31
0.0
  0
CIRCLE
  8
JISSEN
 10
1214.43611
 20
3319.720004
 30
0.0
 40
410.0
  0
CIRCLE
  8
JISSEN
 10
1214.43611
 20
3319.720004
 30
0.0
 40
332.0
  0
CIRCLE
  8
JISSEN
 10
1214.43611
 20
3319.720004
 30
0.0
 40
326.0
  0
CIRCLE
  8
JISSEN
 10
1214.43611
 20
3319.720004
 30
0.0
 40
300.0
  0
CIRCLE
  8
JISSEN
 10
1594.43611
 20
3319.720004
 30
0.0
 40
10.0
  0
LINE
  8
ITTEN
 10
1624.43611
 20
3319.720004
 30
0.0
 11
1564.43611
 21
3319.720004
 31
0.0
  0
LINE
  8
ITTEN
 10
1009.43611
 20
3674.790419
 30
0.0
 11
1039.43611
 21
3622.828895
 31
0.0
  0
CIRCLE
  8
JISSEN
 10
1024.43611
 20
3648.809657
 30
0.0
 40
10.0
  0
LINE
  8
ITTEN
 10
1009.43611
 20
2964.649588
 30
0.0
 11
1039.43611
 21
3016.611112
 31
0.0
  0
CIRCLE
  8
JISSEN
 10
1024.43611
 20
2990.63035
 30
0.0
 40
10.0
  0
ARC
  8
ITTEN
 10
1214.43611
 20
3319.720004
 30
0.0
 40
380.0
 50
234.824975
 51
244.43924
  0
ARC
  8
ITTEN
 10
1214.43611
 20
3319.720004
 30
0.0
 40
380.0
 50
114.604783
 51
123.794996
  0
ARC
  8
ITTEN
 10
1214.43611
 20
3319.720004
 30
0.0
 40
380.0
 50
354.282086
 51
5.75018
  0
LINE
  8
SUNPOU
 10
998.455348
 20
3633.809657
 30
0.0
 11
998.455348
 21
3633.809657
 31
0.0
  0
LINE
  8
SUNPOU
 10
1188.455348
 20
3304.720004
 30
0.0
 11
1188.455348
 21
3304.720004
 31
0.0
  0
LINE
  8
SUNPOU
 10
1024.43611
 20
3648.809657
 30
0.0
 11
1214.43611
 21
3319.720004
 31
0.0
  0
INSERT
  8
SUNPOU
  2
ARROWANG
 10
1024.43611
 20
3648.809657
 30
0.0
 41
30.0
 42
30.0
 50
120.0
 43
30.0
  0
INSERT
  8
SUNPOU
  2
ARROWANG
 10
1214.43611
 20
3319.720004
 30
0.0
 41
30.0
 42
30.0
 50
300.0
 43
30.0
  0
TEXT
  8
SUNPOU
 10
1126.264403
 20
3562.437879
 30
0.0
 40
45.0
  1
380
 50
300.0
  7
K
 72
     1
 11
1158.407261
 21
3506.764818
 31
0.0
  0
LINE
  8
ITTEN
 10
1214.43611
 20
3779.720004
 30
0.0
 11
1214.43611
 21
2859.720004
 31
0.0
  0
LINE
  8
ITTEN
 10
1674.43611
 20
3319.720004
 30
0.0
 11
754.43611
 21
3319.720004
 31
0.0
  0
LINE
  8
SUNPOU
 10
1020.109799
 20
5051.379385
 30
0.0
 11
1020.109799
 21
5051.379385
 31
0.0
  0
LINE
  8
SUNPOU
 10
1080.109799
 20
5006.379385
 30
0.0
 11
1080.109799
 21
5006.379385
 31
0.0
  0
LINE
  8
SUNPOU
 10
634.43611
 20
5066.379385
 30
0.0
 11
634.43611
 21
5066.379385
 31
0.0
  0
LINE
  8
SUNPOU
 10
634.43611
 20
5016.379385
 30
0.0
 11
634.43611
 21
5016.379385
 31
0.0
  0
LINE
  8
JISSEN
 10
804.43611
 20
5066.379385
 30
0.0
 11
804.43611
 21
5016.379385
 31
0.0
  0
LINE
  8
JISSEN
 10
804.43611
 20
5016.379385
 30
0.0
 11
885.43611
 21
5016.379385
 31
0.0
  0
LINE
  8
JISSEN
 10
885.43611
 20
5016.379385
 30
0.0
 11
889.43611
 21
5006.379385
 31
0.0
  0
LINE
  8
JISSEN
 10
889.43611
 20
5006.379385
 30
0.0
 11
914.43611
 21
5006.379385
 31
0.0
  0
LINE
  8
JISSEN
 10
804.43611
 20
5066.379385
 30
0.0
 11
882.43611
 21
5066.379385
 31
0.0
  0
LINE
  8
JISSEN
 10
882.43611
 20
5066.379385
 30
0.0
 11
888.43611
 21
5051.379385
 31
0.0
  0
LINE
  8
JISSEN
 10
888.43611
 20
5051.379385
 30
0.0
 11
914.43611
 21
5051.379385
 31
0.0
  0
LINE
  8
JISSEN
 10
914.43611
 20
5051.379385
 30
0.0
 11
914.43611
 21
5006.379385
 31
0.0
  0
LINE
  8
TENSEN
 10
1514.43611
 20
5051.379385
 30
0.0
 11
1514.43611
 21
5016.379385
 31
0.0
  0
LINE
  8
TENSEN
 10
1540.43611
 20
5051.379385
 30
0.0
 11
1514.43611
 21
5051.379385
 31
0.0
  0
LINE
  8
TENSEN
 10
1546.43611
 20
5066.379385
 30
0.0
 11
1540.43611
 21
5051.379385
 31
0.0
  0
LINE
  8
JISSEN
 10
1624.43611
 20
5066.379385
 30
0.0
 11
1546.43611
 21
5066.379385
 31
0.0
  0
LINE
  8
JISSEN
 10
1539.43611
 20
5006.379385
 30
0.0
 11
1514.43611
 21
5006.379385
 31
0.0
  0
LINE
  8
JISSEN
 10
1543.43611
 20
5016.379385
 30
0.0
 11
1539.43611
 21
5006.379385
 31
0.0
  0
LINE
  8
JISSEN
 10
1624.43611
 20
5016.379385
 30
0.0
 11
1543.43611
 21
5016.379385
 31
0.0
  0
LINE
  8
JISSEN
 10
1624.43611
 20
5066.379385
 30
0.0
 11
1624.43611
 21
5016.379385
 31
0.0
  0
LINE
  8
ITTEN
 10
1214.43611
 20
5130.731176
 30
0.0
 11
1214.43611
 21
4876.338799
 31
0.0
  0
LINE
  8
JISSEN
 10
882.43611
 20
5066.379385
 30
0.0
 11
1546.43611
 21
5066.379385
 31
0.0
  0
LINE
  8
JISSEN
 10
914.43611
 20
5051.379385
 30
0.0
 11
1214.43611
 21
5051.379385
 31
0.0
  0
LINE
  8
TENSEN
 10
1214.43611
 20
5051.379385
 30
0.0
 11
1514.43611
 21
5051.379385
 31
0.0
  0
LINE
  8
JISSEN
 10
1514.43611
 20
5006.379385
 30
0.0
 11
914.43611
 21
5006.379385
 31
0.0
  0
LINE
  8
JISSEN
 10
1543.43611
 20
5016.379385
 30
0.0
 11
1214.43611
 21
5016.379385
 31
0.0
  0
LINE
  8
SUNPOU
 10
804.43611
 20
4986.379385
 30
0.0
 11
804.43611
 21
4726.379385
 31
0.0
  0
LINE
  8
SUNPOU
 10
914.43611
 20
4976.379385
 30
0.0
 11
914.43611
 21
4726.379385
 31
0.0
  0
LINE
  8
SUNPOU
 10
804.43611
 20
4756.379385
 30
0.0
 11
914.43611
 21
4756.379385
 31
0.0
  0
INSERT
  8
SUNPOU
  2
ARROWANG
 10
914.43611
 20
4756.379385
 30
0.0
 41
30.0
 42
30.0
 50
180.0
 43
30.0
  0
INSERT
  8
SUNPOU
  2
ARROWANG
 10
804.43611
 20
4756.379385
 30
0.0
 41
30.0
 42
30.0
 43
30.0
  0
LINE
  8
SUNPOU
 10
804.43611
 20
4756.379385
 30
0.0
 11
655.93611
 21
4756.379385
 31
0.0
  0
LINE
  8
SUNPOU
 10
914.43611
 20
4756.379385
 30
0.0
 11
974.43611
 21
4756.379385
 31
0.0
  0
TEXT
  8
SUNPOU
 10
662.68611
 20
4801.379385
 30
0.0
 40
45.0
  1
110
  7
K
 72
     1
 11
730.18611
 21
4801.379385
 31
0.0
  0
LINE
  8
SUNPOU
 10
914.43611
 20
4726.379385
 30
0.0
 11
914.43611
 21
4726.379385
 31
0.0
  0
LINE
  8
SUNPOU
 10
1514.43611
 20
4986.379385
 30
0.0
 11
1514.43611
 21
4726.379385
 31
0.0
  0
LINE
  8
SUNPOU
 10
914.43611
 20
4756.379385
 30
0.0
 11
1514.43611
 21
4756.379385
 31
0.0
  0
INSERT
  8
SUNPOU
  2
ARROWANG
 10
914.43611
 20
4756.379385
 30
0.0
 41
30.0
 42
30.0
 50
180.0
 43
30.0
  0
INSERT
  8
SUNPOU
  2
ARROWANG
 10
1514.43611
 20
4756.379385
 30
0.0
 41
30.0
 42
30.0
 43
30.0
  0
TEXT
  8
SUNPOU
 10
1149.078982
 20
4801.379385
 30
0.0
 40
45.0
  1
600
  7
K
 72
     1
 11
1214.436125
 21
4801.379385
 31
0.0
  0
LINE
  8
SUNPOU
 10
1514.43611
 20
4786.379385
 30
0.0
 11
1514.43611
 21
4786.379385
 31
0.0
  0
LINE
  8
SUNPOU
 10
1624.43611
 20
4986.379385
 30
0.0
 11
1624.43611
 21
4726.379385
 31
0.0
  0
LINE
  8
SUNPOU
 10
1514.43611
 20
4756.379385
 30
0.0
 11
1624.43611
 21
4756.379385
 31
0.0
  0
INSERT
  8
SUNPOU
  2
ARROWANG
 10
1624.43611
 20
4756.379385
 30
0.0
 41
30.0
 42
30.0
 50
180.0
 43
30.0
  0
INSERT
  8
SUNPOU
  2
ARROWANG
 10
1514.43611
 20
4756.379385
 30
0.0
 41
30.0
 42
30.0
 43
30.0
  0
LINE
  8
SUNPOU
 10
1624.43611
 20
4756.379385
 30
0.0
 11
1772.93611
 21
4756.379385
 31
0.0
  0
LINE
  8
SUNPOU
 10
1514.43611
 20
4756.379385
 30
0.0
 11
1454.43611
 21
4756.379385
 31
0.0
  0
TEXT
  8
SUNPOU
 10
1631.18611
 20
4801.379385
 30
0.0
 40
45.0
  1
110
  7
K
 72
     1
 11
1698.68611
 21
4801.379385
 31
0.0
  0
LINE
  8
SUNPOU
 10
804.43611
 20
4986.379385
 30
0.0
 11
804.43611
 21
4626.379385
 31
0.0
  0
LINE
  8
SUNPOU
 10
1624.43611
 20
4986.379385
 30
0.0
 11
1624.43611
 21
4626.379385
 31
0.0
  0
LINE
  8
SUNPOU
 10
804.43611
 20
4656.379385
 30
0.0
 11
1624.43611
 21
4656.379385
 31
0.0
  0
INSERT
  8
SUNPOU
  2
ARROWANG
 10
804.43611
 20
4656.379385
 30
0.0
 41
30.0
 42
30.0
 50
180.0
 43
30.0
  0
INSERT
  8
SUNPOU
  2
ARROWANG
 10
1624.43611
 20
4656.379385
 30
0.0
 41
30.0
 42
30.0
 43
30.0
  0
TEXT
  8
SUNPOU
 10
1150.15041
 20
4701.379385
 30
0.0
 40
45.0
  1
820
  7
K
 72
     1
 11
1214.436125
 21
4701.379385
 31
0.0
  0
LINE
  8
SUNPOU
 10
774.43611
 20
5016.379385
 30
0.0
 11
574.43611
 21
5016.379385
 31
0.0
  0
LINE
  8
SUNPOU
 10
774.43611
 20
5066.379385
 30
0.0
 11
574.43611
 21
5066.379385
 31
0.0
  0
LINE
  8
SUNPOU
 10
1020.109799
 20
5006.379385
 30
0.0
 11
1020.109799
 21
5006.379385
 31
0.0
  0
LINE
  8
SUNPOU
 10
1020.109799
 20
5051.379385
 30
0.0
 11
1020.109799
 21
5051.379385
 31
0.0
  0
LINE
  8
SUNPOU
 10
634.43611
 20
5016.379385
 30
0.0
 11
634.43611
 21
5016.379385
 31
0.0
  0
LINE
  8
SUNPOU
 10
634.43611
 20
5066.379385
 30
0.0
 11
634.43611
 21
5066.379385
 31
0.0
  0
LINE
  8
SUNPOU
 10
604.43611
 20
5016.379385
 30
0.0
 11
604.43611
 21
5066.379385
 31
0.0
  0
INSERT
  8
SUNPOU
  2
ARROWANG
 10
604.43611
 20
5016.379385
 30
0.0
 41
30.0
 42
30.0
 50
90.0
 43
30.0
  0
INSERT
  8
SUNPOU
  2
ARROWANG
 10
604.43611
 20
5066.379385
 30
0.0
 41
30.0
 42
30.0
 50
270.0
 43
30.0
  0
TEXT
  8
SUNPOU
 10
559.43611
 20
4998.522242
 30
0.0
 40
45.0
  1
50
 50
90.0
  7
K
 72
     1
 11
559.43611
 21
5041.379385
 31
0.0
  0
LINE
  8
SUNPOU
 10
604.43611
 20
5066.379385
 30
0.0
 11
604.43611
 21
5126.379385
 31
0.0
  0
LINE
  8
SUNPOU
 10
604.43611
 20
5016.379385
 30
0.0
 11
604.43611
 21
4956.379385
 31
0.0
  0
LINE
  8
SUNPOU
 10
1080.109799
 20
5006.379385
 30
0.0
 11
1080.109799
 21
5006.379385
 31
0.0
  0
LINE
  8
SUNPOU
 10
1080.109799
 20
5051.379385
 30
0.0
 11
1080.109799
 21
5051.379385
 31
0.0
  0
LINE
  8
SUNPOU
 10
1050.109799
 20
5006.379385
 30
0.0
 11
1050.109799
 21
5051.379385
 31
0.0
  0
INSERT
  8
SUNPOU
  2
ARROWANG
 10
1050.109799
 20
5006.379385
 30
0.0
 41
30.0
 42
30.0
 50
90.0
 43
30.0
  0
INSERT
  8
SUNPOU
  2
ARROWANG
 10
1050.109799
 20
5051.379385
 30
0.0
 41
30.0
 42
30.0
 50
270.0
 43
30.0
  0
LINE
  8
SUNPOU
 10
1050.109799
 20
5006.379385
 30
0.0
 11
1050.109799
 21
4907.379385
 31
0.0
  0
LINE
  8
SUNPOU
 10
1050.109799
 20
5051.379385
 30
0.0
 11
1050.109799
 21
5111.379385
 31
0.0
  0
TEXT
  8
SUNPOU
 10
1005.109799
 20
4914.022242
 30
0.0
 40
45.0
  1
45
 50
90.0
  7
K
 72
     1
 11
1005.109799
 21
4956.879385
 31
0.0
  0
LINE
  8
JISSEN
 10
5904.00428
 20
5043.379385
 30
0.0
 11
5876.00428
 21
5043.379385
 31
0.0
  0
LINE
  8
JISSEN
 10
5876.00428
 20
5043.379385
 30
0.0
 11
5869.00428
 21
5066.379385
 31
0.0
  0
LINE
  8
JISSEN
 10
5869.00428
 20
5066.379385
 30
0.0
 11
5784.00428
 21
5066.379385
 31
0.0
  0
LINE
  8
JISSEN
 10
5784.00428
 20
4916.379385
 30
0.0
 11
5870.00428
 21
4916.379385
 31
0.0
  0
LINE
  8
JISSEN
 10
5870.00428
 20
4916.379385
 30
0.0
 11
5879.00428
 21
4901.379385
 31
0.0
  0
LINE
  8
JISSEN
 10
5879.00428
 20
4901.379385
 30
0.0
 11
5904.00428
 21
4901.379385
 31
0.0
  0
LINE
  8
JISSEN
 10
5784.00428
 20
5066.379385
 30
0.0
 11
5784.00428
 21
4916.379385
 31
0.0
  0
LINE
  8
JISSEN
 10
5904.00428
 20
5043.379385
 30
0.0
 11
5904.00428
 21
4901.379385
 31
0.0
  0
LINE
  8
TENSEN
 10
6804.00428
 20
5043.379385
 30
0.0
 11
6804.00428
 21
4916.379385
 31
0.0
  0
LINE
  8
JISSEN
 10
6924.00428
 20
5066.379385
 30
0.0
 11
6924.00428
 21
4916.379385
 31
0.0
  0
LINE
  8
JISSEN
 10
6829.00428
 20
4901.379385
 30
0.0
 11
6804.00428
 21
4901.379385
 31
0.0
  0
LINE
  8
JISSEN
 10
6838.00428
 20
4916.379385
 30
0.0
 11
6829.00428
 21
4901.379385
 31
0.0
  0
LINE
  8
JISSEN
 10
6924.00428
 20
4916.379385
 30
0.0
 11
6838.00428
 21
4916.379385
 31
0.0
  0
LINE
  8
JISSEN
 10
6839.00428
 20
5066.379385
 30
0.0
 11
6924.00428
 21
5066.379385
 31
0.0
  0
LINE
  8
TENSEN
 10
6832.00428
 20
5043.379385
 30
0.0
 11
6839.00428
 21
5066.379385
 31
0.0
  0
LINE
  8
TENSEN
 10
6804.00428
 20
5043.379385
 30
0.0
 11
6832.00428
 21
5043.379385
 31
0.0
  0
LINE
  8
JISSEN
 10
5869.00428
 20
5066.379385
 30
0.0
 11
6839.00428
 21
5066.379385
 31
0.0
  0
LINE
  8
TENSEN
 10
6804.00428
 20
5043.379385
 30
0.0
 11
6354.00428
 21
5043.379385
 31
0.0
  0
LINE
  8
JISSEN
 10
6354.00428
 20
5043.379385
 30
0.0
 11
5904.00428
 21
5043.379385
 31
0.0
  0
LINE
  8
JISSEN
 10
5904.00428
 20
4901.379385
 30
0.0
 11
6804.00428
 21
4901.379385
 31
0.0
  0
LINE
  8
JISSEN
 10
6838.00428
 20
4916.379385
 30
0.0
 11
6354.00428
 21
4916.379385
 31
0.0
  0
LINE
  8
SUNPOU
 10
5784.00428
 20
5096.379385
 30
0.0
 11
5784.00428
 21
5396.379385
 31
0.0
  0
LINE
  8
SUNPOU
 10
5904.00428
 20
5096.379385
 30
0.0
 11
5904.00428
 21
5396.379385
 31
0.0
  0
LINE
  8
SUNPOU
 10
5784.00428
 20
5366.379385
 30
0.0
 11
5904.00428
 21
5366.379385
 31
0.0
  0
INSERT
  8
SUNPOU
  2
ARROWANG
 10
5904.00428
 20
5366.379385
 30
0.0
 41
30.0
 42
30.0
 43
30.0
  0
INSERT
  8
SUNPOU
  2
ARROWANG
 10
5784.00428
 20
5366.379385
 30
0.0
 41
30.0
 42
30.0
 50
180.0
 43
30.0
  0
TEXT
  8
SUNPOU
 10
5776.50428
 20
5411.379385
 30
0.0
 40
45.0
  1
120
  7
K
 72
     1
 11
5844.00428
 21
5411.379385
 31
0.0
  0
LINE
  8
SUNPOU
 10
5904.00428
 20
5336.379385
 30
0.0
 11
5904.00428
 21
5336.379385
 31
0.0
  0
LINE
  8
SUNPOU
 10
6804.00428
 20
5096.379385
 30
0.0
 11
6804.00428
 21
5396.379385
 31
0.0
  0
LINE
  8
SUNPOU
 10
5904.00428
 20
5366.379385
 30
0.0
 11
6804.00428
 21
5366.379385
 31
0.0
  0
INSERT
  8
SUNPOU
  2
ARROWANG
 10
5904.00428
 20
5366.379385
 30
0.0
 41
30.0
 42
30.0
 50
180.0
 43
30.0
  0
INSERT
  8
SUNPOU
  2
ARROWANG
 10
6804.00428
 20
5366.379385
 30
0.0
 41
30.0
 42
30.0
 43
30.0
  0
TEXT
  8
SUNPOU
 10
6289.71858
 20
5411.379385
 30
0.0
 40
45.0
  1
900
  7
K
 72
     1
 11
6354.004295
 21
5411.379385
 31
0.0
  0
LINE
  8
SUNPOU
 10
6804.00428
 20
5336.379385
 30
0.0
 11
6804.00428
 21
5336.379385
 31
0.0
  0
LINE
  8
SUNPOU
 10
6924.00428
 20
5096.379385
 30
0.0
 11
6924.00428
 21
5396.379385
 31
0.0
  0
LINE
  8
SUNPOU
 10
6804.00428
 20
5366.379385
 30
0.0
 11
6924.00428
 21
5366.379385
 31
0.0
  0
INSERT
  8
SUNPOU
  2
ARROWANG
 10
6804.00428
 20
5366.379385
 30
0.0
 41
30.0
 42
30.0
 50
180.0
 43
30.0
  0
INSERT
  8
SUNPOU
  2
ARROWANG
 10
6924.00428
 20
5366.379385
 30
0.0
 41
30.0
 42
30.0
 43
30.0
  0
TEXT
  8
SUNPOU
 10
6796.504295
 20
5411.379385
 30
0.0
 40
45.0
  1
120
  7
K
 72
     1
 11
6864.004295
 21
5411.379385
 31
0.0
  0
LINE
  8
SUNPOU
 10
5869.00428
 20
5096.379385
 30
0.0
 11
5869.00428
 21
5296.379385
 31
0.0
  0
LINE
  8
SUNPOU
 10
6839.00428
 20
5096.379385
 30
0.0
 11
6839.00428
 21
5296.379385
 31
0.0
  0
LINE
  8
SUNPOU
 10
5869.00428
 20
5266.379385
 30
0.0
 11
6839.00428
 21
5266.379385
 31
0.0
  0
INSERT
  8
SUNPOU
  2
ARROWANG
 10
5869.00428
 20
5266.379385
 30
0.0
 41
30.0
 42
30.0
 50
180.0
 43
30.0
  0
INSERT
  8
SUNPOU
  2
ARROWANG
 10
6839.00428
 20
5266.379385
 30
0.0
 41
30.0
 42
30.0
 43
30.0
  0
TEXT
  8
SUNPOU
 10
6289.71858
 20
5311.379385
 30
0.0
 40
45.0
  1
970
  7
K
 72
     1
 11
6354.004295
 21
5311.379385
 31
0.0
  0
LINE
  8
SUNPOU
 10
5876.00428
 20
5073.379385
 30
0.0
 11
5876.00428
 21
5196.379385
 31
0.0
  0
LINE
  8
SUNPOU
 10
6832.00428
 20
5073.379385
 30
0.0
 11
6832.00428
 21
5196.379385
 31
0.0
  0
LINE
  8
SUNPOU
 10
5876.00428
 20
5166.379385
 30
0.0
 11
6832.00428
 21
5166.379385
 31
0.0
  0
INSERT
  8
SUNPOU
  2
ARROWANG
 10
5876.00428
 20
5166.379385
 30
0.0
 41
30.0
 42
30.0
 50
180.0
 43
30.0
  0
INSERT
  8
SUNPOU
  2
ARROWANG
 10
6832.00428
 20
5166.379385
 30
0.0
 41
30.0
 42
30.0
 43
30.0
  0
TEXT
  8
SUNPOU
 10
6289.71858
 20
5211.379385
 30
0.0
 40
45.0
  1
956
  7
K
 72
     1
 11
6354.004295
 21
5211.379385
 31
0.0
  0
LINE
  8
SUNPOU
 10
5754.00428
 20
4916.379385
 30
0.0
 11
5554.00428
 21
4916.379385
 31
0.0
  0
LINE
  8
SUNPOU
 10
5754.00428
 20
5066.379385
 30
0.0
 11
5554.00428
 21
5066.379385
 31
0.0
  0
LINE
  8
SUNPOU
 10
5584.00428
 20
4916.379385
 30
0.0
 11
5584.00428
 21
5066.379385
 31
0.0
  0
INSERT
  8
SUNPOU
  2
ARROWANG
 10
5584.00428
 20
4916.379385
 30
0.0
 41
30.0
 42
30.0
 50
270.0
 43
30.0
  0
INSERT
  8
SUNPOU
  2
ARROWANG
 10
5584.00428
 20
5066.379385
 30
0.0
 41
30.0
 42
30.0
 50
90.0
 43
30.0
  0
TEXT
  8
SUNPOU
 10
5539.00428
 20
4923.879385
 30
0.0
 40
45.0
  1
150
 50
90.0
  7
K
 72
     1
 11
5539.00428
 21
4991.379385
 31
0.0
  0
LINE
  8
SUNPOU
 10
5846.00428
 20
5043.379385
 30
0.0
 11
5654.00428
 21
5043.379385
 31
0.0
  0
LINE
  8
SUNPOU
 10
5714.00428
 20
5066.379385
 30
0.0
 11
5714.00428
 21
5066.379385
 31
0.0
  0
LINE
  8
SUNPOU
 10
5684.00428
 20
5043.379385
 30
0.0
 11
5684.00428
 21
5066.379385
 31
0.0
  0
INSERT
  8
SUNPOU
  2
ARROWANG
 10
5684.00428
 20
5043.379385
 30
0.0
 41
30.0
 42
30.0
 50
90.0
 43
30.0
  0
INSERT
  8
SUNPOU
  2
ARROWANG
 10
5684.00428
 20
5066.379385
 30
0.0
 41
30.0
 42
30.0
 50
270.0
 43
30.0
  0
LINE
  8
SUNPOU
 10
5684.00428
 20
5066.379385
 30
0.0
 11
5684.00428
 21
5165.379385
 31
0.0
  0
LINE
  8
SUNPOU
 10
5684.00428
 20
5043.379385
 30
0.0
 11
5684.004281
 21
4983.379385
 31
0.0
  0
TEXT
  8
SUNPOU
 10
5639.00428
 20
5073.022242
 30
0.0
 40
45.0
  1
23
 50
90.0
  7
K
 72
     1
 11
5639.00428
 21
5115.879385
 31
0.0
  0
LINE
  8
SUNPOU
 10
5849.00428
 20
4901.379385
 30
0.0
 11
5554.00428
 21
4901.379385
 31
0.0
  0
LINE
  8
SUNPOU
 10
5614.00428
 20
4916.379385
 30
0.0
 11
5614.00428
 21
4916.379385
 31
0.0
  0
LINE
  8
SUNPOU
 10
5584.00428
 20
4901.379385
 30
0.0
 11
5584.00428
 21
4916.379385
 31
0.0
  0
INSERT
  8
SUNPOU
  2
ARROWANG
 10
5584.00428
 20
4901.379385
 30
0.0
 41
30.0
 42
30.0
 50
90.0
 43
30.0
  0
INSERT
  8
SUNPOU
  2
ARROWANG
 10
5584.00428
 20
4916.379385
 30
0.0
 41
30.0
 42
30.0
 50
270.0
 43
30.0
  0
LINE
  8
SUNPOU
 10
5584.00428
 20
4901.379385
 30
0.0
 11
5584.00428
 21
4802.379385
 31
0.0
  0
LINE
  8
SUNPOU
 10
5584.00428
 20
4916.379385
 30
0.0
 11
5584.00428
 21
4976.379385
 31
0.0
  0
TEXT
  8
SUNPOU
 10
5539.00428
 20
4805.807957
 30
0.0
 40
45.0
  1
15
 50
90.0
  7
K
 72
     1
 11
5539.00428
 21
4851.879385
 31
0.0
  0
LINE
  8
SUNPOU
 10
5870.00428
 20
4886.379385
 30
0.0
 11
5870.00428
 21
4571.379385
 31
0.0
  0
LINE
  8
SUNPOU
 10
6838.00428
 20
4886.379385
 30
0.0
 11
6838.00428
 21
4571.379385
 31
0.0
  0
LINE
  8
SUNPOU
 10
5870.00428
 20
4601.379385
 30
0.0
 11
6838.00428
 21
4601.379385
 31
0.0
  0
INSERT
  8
SUNPOU
  2
ARROWANG
 10
5870.00428
 20
4601.379385
 30
0.0
 41
30.0
 42
30.0
 50
180.0
 43
30.0
  0
INSERT
  8
SUNPOU
  2
ARROWANG
 10
6838.00428
 20
4601.379385
 30
0.0
 41
30.0
 42
30.0
 43
30.0
  0
TEXT
  8
SUNPOU
 10
6289.71858
 20
4646.379385
 30
0.0
 40
45.0
  1
968
  7
K
 72
     1
 11
6354.004295
 21
4646.379385
 31
0.0
  0
LINE
  8
SUNPOU
 10
5879.00428
 20
4871.379385
 30
0.0
 11
5879.00428
 21
4671.379385
 31
0.0
  0
LINE
  8
SUNPOU
 10
6829.00428
 20
4871.379385
 30
0.0
 11
6829.00428
 21
4671.379385
 31
0.0
  0
LINE
  8
SUNPOU
 10
5879.00428
 20
4701.379385
 30
0.0
 11
6829.00428
 21
4701.379385
 31
0.0
  0
INSERT
  8
SUNPOU
  2
ARROWANG
 10
5879.00428
 20
4701.379385
 30
0.0
 41
30.0
 42
30.0
 50
180.0
 43
30.0
  0
INSERT
  8
SUNPOU
  2
ARROWANG
 10
6829.00428
 20
4701.379385
 30
0.0
 41
30.0
 42
30.0
 43
30.0
  0
TEXT
  8
SUNPOU
 10
6289.71858
 20
4746.379385
 30
0.0
 40
45.0
  1
950
  7
K
 72
     1
 11
6354.004295
 21
4746.379385
 31
0.0
  0
LINE
  8
ITTEN
 10
6354.00428
 20
5150.855301
 30
0.0
 11
6354.00428
 21
4834.813776
 31
0.0
  0
CIRCLE
  8
JISSEN
 10
4794.699086
 20
3319.720004
 30
0.0
 40
570.0
  0
CIRCLE
  8
JISSEN
 10
4794.699086
 20
3319.720004
 30
0.0
 40
485.0
  0
CIRCLE
  8
JISSEN
 10
4794.699086
 20
3319.720004
 30
0.0
 40
478.0
  0
CIRCLE
  8
JISSEN
 10
4794.699086
 20
3319.720004
 30
0.0
 40
450.0
  0
CIRCLE
  8
JISSEN
 10
5059.699086
 20
3778.713468
 30
0.0
 40
10.0
  0
ARC
  8
ITTEN
 10
4794.699086
 20
3319.720004
 30
0.0
 40
530.0
 50
52.832339
 51
64.988683
  0
LINE
  8
ITTEN
 10
5044.699086
 20
3752.732705
 30
0.0
 11
5074.699086
 21
3804.69423
 31
0.0
  0
LINE
  8
SUNPOU
 10
4794.699086
 20
3349.720004
 30
0.0
 11
4794.699086
 21
3349.720004
 31
0.0
  0
LINE
  8
SUNPOU
 10
5085.679848
 20
3763.713468
 30
0.0
 11
5085.679848
 21
3763.713468
 31
0.0
  0
LINE
  8
SUNPOU
 10
4555.679848
 20
3793.713468
 30
0.0
 11
4555.679848
 21
3793.713468
 31
0.0
  0
LINE
  8
SUNPOU
 10
4820.679848
 20
3334.720004
 30
0.0
 11
4820.679848
 21
3334.720004
 31
0.0
  0
LINE
  8
ITTEN
 10
4544.699086
 20
3752.732705
 30
0.0
 11
4514.699086
 21
3804.69423
 31
0.0
  0
ARC
  8
ITTEN
 10
4794.699086
 20
3319.720004
 30
0.0
 40
530.0
 50
112.832339
 51
124.988683
  0
CIRCLE
  8
JISSEN
 10
4529.699086
 20
3778.713468
 30
0.0
 40
10.0
  0
LINE
  8
SUNPOU
 10
5085.679848
 20
3763.713468
 30
0.0
 11
5085.679848
 21
3763.713468
 31
0.0
  0
LINE
  8
SUNPOU
 10
4794.699086
 20
3349.720004
 30
0.0
 11
4794.699086
 21
3349.720004
 31
0.0
  0
LINE
  8
SUNPOU
 10
4529.699086
 20
3778.713468
 30
0.0
 11
4794.699086
 21
3319.720004
 31
0.0
  0
INSERT
  8
SUNPOU
  2
ARROWANG
 10
4529.699086
 20
3778.713468
 30
0.0
 41
30.0
 42
30.0
 50
120.0
 43
30.0
  0
INSERT
  8
SUNPOU
  2
ARROWANG
 10
4794.699086
 20
3319.720004
 30
0.0
 41
30.0
 42
30.0
 50
300.0
 43
30.0
  0
TEXT
  8
SUNPOU
 10
4669.027379
 20
3627.389784
 30
0.0
 40
45.0
  1
530
 50
300.0
  7
K
 72
     1
 11
4701.170236
 21
3571.716723
 31
0.0
  0
LINE
  8
SUNPOU
 10
4264.699086
 20
3349.720004
 30
0.0
 11
4264.699086
 21
3349.720004
 31
0.0
  0
LINE
  8
SUNPOU
 10
4264.699086
 20
3349.720004
 30
0.0
 11
4264.699086
 21
3349.720004
 31
0.0
  0
LINE
  8
ITTEN
 10
4294.699086
 20
3319.720004
 30
0.0
 11
4234.699086
 21
3319.720004
 31
0.0
  0
ARC
  8
ITTEN
 10
4794.699086
 20
3319.720004
 30
0.0
 40
530.0
 50
172.832339
 51
184.988683
  0
CIRCLE
  8
JISSEN
 10
4264.699086
 20
3319.720004
 30
0.0
 40
10.0
  0
LINE
  8
SUNPOU
 10
4503.718323
 20
2875.72654
 30
0.0
 11
4503.718323
 21
2875.72654
 31
0.0
  0
LINE
  8
SUNPOU
 10
4503.718323
 20
2875.72654
 30
0.0
 11
4503.718323
 21
2875.72654
 31
0.0
  0
LINE
  8
ITTEN
 10
4544.699086
 20
2886.707302
 30
0.0
 11
4514.699086
 21
2834.745777
 31
0.0
  0
ARC
  8
ITTEN
 10
4794.699086
 20
3319.720004
 30
0.0
 40
530.0
 50
232.832339
 51
244.988683
  0
CIRCLE
  8
JISSEN
 10
4529.699086
 20
2860.72654
 30
0.0
 40
10.0
  0
LINE
  8
SUNPOU
 10
5033.718323
 20
2845.72654
 30
0.0
 11
5033.718323
 21
2845.72654
 31
0.0
  0
LINE
  8
SUNPOU
 10
5033.718323
 20
2845.72654
 30
0.0
 11
5033.718323
 21
2845.72654
 31
0.0
  0
LINE
  8
ITTEN
 10
5044.699086
 20
2886.707302
 30
0.0
 11
5074.699086
 21
2834.745777
 31
0.0
  0
ARC
  8
ITTEN
 10
4794.699086
 20
3319.720004
 30
0.0
 40
530.0
 50
292.832339
 51
304.988683
  0
CIRCLE
  8
JISSEN
 10
5059.699086
 20
2860.72654
 30
0.0
 40
10.0
  0
LINE
  8
SUNPOU
 10
5324.699086
 20
3289.720004
 30
0.0
 11
5324.699086
 21
3289.720004
 31
0.0
  0
LINE
  8
SUNPOU
 10
5324.699086
 20
3289.720004
 30
0.0
 11
5324.699086
 21
3289.720004
 31
0.0
  0
LINE
  8
ITTEN
 10
5294.699086
 20
3319.720004
 30
0.0
 11
5354.699086
 21
3319.720004
 31
0.0
  0
ARC
  8
ITTEN
 10
4794.699086
 20
3319.720004
 30
0.0
 40
530.0
 50
352.832339
 51
4.988683
  0
CIRCLE
  8
JISSEN
 10
5324.699086
 20
3319.720004
 30
0.0
 40
10.0
  0
LINE
  8
ITTEN
 10
4794.699086
 20
3989.720004
 30
0.0
 11
4794.699086
 21
2649.720004
 31
0.0
  0
LINE
  8
ITTEN
 10
5464.699086
 20
3319.720004
 30
0.0
 11
4124.699086
 21
3319.720004
 31
0.0
  0
LINE
  8
ITTEN
 10
4794.699086
 20
5150.855301
 30
0.0
 11
4794.699086
 21
4884.813776
 31
0.0
  0
TEXT
  8
SUNPOU
 10
4730.413386
 20
4796.379385
 30
0.0
 40
45.0
  1
950
  7
K
 72
     1
 11
4794.6991
 21
4796.379385
 31
0.0
  0
INSERT
  8
SUNPOU
  2
ARROWANG
 10
5269.699086
 20
4751.379385
 30
0.0
 41
30.0
 42
30.0
 43
30.0
  0
INSERT
  8
SUNPOU
  2
ARROWANG
 10
4319.699086
 20
4751.379385
 30
0.0
 41
30.0
 42
30.0
 50
180.0
 43
30.0
  0
LINE
  8
SUNPOU
 10
4319.699086
 20
4751.379385
 30
0.0
 11
5269.699086
 21
4751.379385
 31
0.0
  0
LINE
  8
SUNPOU
 10
5269.699086
 20
4921.379385
 30
0.0
 11
5269.699086
 21
4721.379385
 31
0.0
  0
LINE
  8
SUNPOU
 10
4319.699086
 20
4921.379385
 30
0.0
 11
4319.699086
 21
4721.379385
 31
0.0
  0
TEXT
  8
SUNPOU
 10
4730.413386
 20
4696.379385
 30
0.0
 40
45.0
  1
968
  7
K
 72
     1
 11
4794.6991
 21
4696.379385
 31
0.0
  0
INSERT
  8
SUNPOU
  2
ARROWANG
 10
5278.699086
 20
4651.379385
 30
0.0
 41
30.0
 42
30.0
 43
30.0
  0
INSERT
  8
SUNPOU
  2
ARROWANG
 10
4310.699086
 20
4651.379385
 30
0.0
 41
30.0
 42
30.0
 50
180.0
 43
30.0
  0
LINE
  8
SUNPOU
 10
4310.699086
 20
4651.379385
 30
0.0
 11
5278.699086
 21
4651.379385
 31
0.0
  0
LINE
  8
SUNPOU
 10
5278.699086
 20
4936.379385
 30
0.0
 11
5278.699086
 21
4621.379385
 31
0.0
  0
LINE
  8
SUNPOU
 10
4310.699086
 20
4936.379385
 30
0.0
 11
4310.699086
 21
4621.379385
 31
0.0
  0
LINE
  8
SUNPOU
 10
4024.699086
 20
4966.379385
 30
0.0
 11
4024.699086
 21
5026.379385
 31
0.0
  0
LINE
  8
SUNPOU
 10
4054.699086
 20
4966.379385
 30
0.0
 11
4054.699086
 21
4966.379385
 31
0.0
  0
LINE
  8
SUNPOU
 10
4289.699086
 20
4951.379385
 30
0.0
 11
3994.699086
 21
4951.379385
 31
0.0
  0
TEXT
  8
SUNPOU
 10
4079.699086
 20
5073.022242
 30
0.0
 40
45.0
  1
23
 50
90.0
  7
K
 72
     1
 11
4079.699086
 21
5115.879385
 31
0.0
  0
LINE
  8
SUNPOU
 10
4124.699086
 20
5043.379385
 30
0.0
 11
4124.699087
 21
5033.379385
 31
0.0
  0
LINE
  8
SUNPOU
 10
4124.699086
 20
5066.379385
 30
0.0
 11
4124.699086
 21
5165.379385
 31
0.0
  0
INSERT
  8
SUNPOU
  2
ARROWANG
 10
4124.699086
 20
5066.379385
 30
0.0
 41
30.0
 42
30.0
 50
270.0
 43
30.0
  0
INSERT
  8
SUNPOU
  2
ARROWANG
 10
4124.699086
 20
5043.379385
 30
0.0
 41
30.0
 42
30.0
 50
90.0
 43
30.0
  0
LINE
  8
SUNPOU
 10
4124.699086
 20
5043.379385
 30
0.0
 11
4124.699086
 21
5066.379385
 31
0.0
  0
LINE
  8
SUNPOU
 10
4154.699086
 20
5066.379385
 30
0.0
 11
4154.699086
 21
5066.379385
 31
0.0
  0
LINE
  8
SUNPOU
 10
4286.699086
 20
5043.379385
 30
0.0
 11
4094.699086
 21
5043.379385
 31
0.0
  0
LINE
  8
SUNPOU
 10
4194.699086
 20
5066.379385
 30
0.0
 11
3994.699086
 21
5066.379385
 31
0.0
  0
LINE
  8
SUNPOU
 10
4194.699086
 20
4966.379385
 30
0.0
 11
3994.699086
 21
4966.379385
 31
0.0
  0
TEXT
  8
SUNPOU
 10
4730.413386
 20
5211.379385
 30
0.0
 40
45.0
  1
956
  7
K
 72
     1
 11
4794.6991
 21
5211.379385
 31
0.0
  0
INSERT
  8
SUNPOU
  2
ARROWANG
 10
5272.699086
 20
5166.379385
 30
0.0
 41
30.0
 42
30.0
 43
30.0
  0
INSERT
  8
SUNPOU
  2
ARROWANG
 10
4316.699086
 20
5166.379385
 30
0.0
 41
30.0
 42
30.0
 50
180.0
 43
30.0
  0
LINE
  8
SUNPOU
 10
4316.699086
 20
5166.379385
 30
0.0
 11
5272.699086
 21
5166.379385
 31
0.0
  0
LINE
  8
SUNPOU
 10
5272.699086
 20
5073.379385
 30
0.0
 11
5272.699086
 21
5196.379385
 31
0.0
  0
LINE
  8
SUNPOU
 10
4316.699086
 20
5073.379385
 30
0.0
 11
4316.699086
 21
5196.379385
 31
0.0
  0
TEXT
  8
SUNPOU
 10
4730.413386
 20
5311.379385
 30
0.0
 40
45.0
  1
970
  7
K
 72
     1
 11
4794.6991
 21
5311.379385
 31
0.0
  0
INSERT
  8
SUNPOU
  2
ARROWANG
 10
5279.699086
 20
5266.379385
 30
0.0
 41
30.0
 42
30.0
 43
30.0
  0
INSERT
  8
SUNPOU
  2
ARROWANG
 10
4309.699086
 20
5266.379385
 30
0.0
 41
30.0
 42
30.0
 50
180.0
 43
30.0
  0
LINE
  8
SUNPOU
 10
4309.699086
 20
5266.379385
 30
0.0
 11
5279.699086
 21
5266.379385
 31
0.0
  0
LINE
  8
SUNPOU
 10
5279.699086
 20
5096.379385
 30
0.0
 11
5279.699086
 21
5296.379385
 31
0.0
  0
LINE
  8
SUNPOU
 10
4309.699086
 20
5096.379385
 30
0.0
 11
4309.699086
 21
5296.379385
 31
0.0
  0
TEXT
  8
SUNPOU
 10
5237.1991
 20
5411.379385
 30
0.0
 40
45.0
  1
120
  7
K
 72
     1
 11
5304.6991
 21
5411.379385
 31
0.0
  0
INSERT
  8
SUNPOU
  2
ARROWANG
 10
5364.699086
 20
5366.379385
 30
0.0
 41
30.0
 42
30.0
 43
30.0
  0
INSERT
  8
SUNPOU
  2
ARROWANG
 10
5244.699086
 20
5366.379385
 30
0.0
 41
30.0
 42
30.0
 50
180.0
 43
30.0
  0
LINE
  8
SUNPOU
 10
5244.699086
 20
5366.379385
 30
0.0
 11
5364.699086
 21
5366.379385
 31
0.0
  0
LINE
  8
SUNPOU
 10
5364.699086
 20
5096.379385
 30
0.0
 11
5364.699086
 21
5396.379385
 31
0.0
  0
LINE
  8
SUNPOU
 10
5244.699086
 20
5336.379385
 30
0.0
 11
5244.699086
 21
5336.379385
 31
0.0
  0
TEXT
  8
SUNPOU
 10
4730.413386
 20
5411.379385
 30
0.0
 40
45.0
  1
900
  7
K
 72
     1
 11
4794.6991
 21
5411.379385
 31
0.0
  0
INSERT
  8
SUNPOU
  2
ARROWANG
 10
5244.699086
 20
5366.379385
 30
0.0
 41
30.0
 42
30.0
 43
30.0
  0
INSERT
  8
SUNPOU
  2
ARROWANG
 10
4344.699086
 20
5366.379385
 30
0.0
 41
30.0
 42
30.0
 50
180.0
 43
30.0
  0
LINE
  8
SUNPOU
 10
4344.699086
 20
5366.379385
 30
0.0
 11
5244.699086
 21
5366.379385
 31
0.0
  0
LINE
  8
SUNPOU
 10
5244.699086
 20
5096.379385
 30
0.0
 11
5244.699086
 21
5396.379385
 31
0.0
  0
LINE
  8
SUNPOU
 10
4344.699086
 20
5336.379385
 30
0.0
 11
4344.699086
 21
5336.379385
 31
0.0
  0
TEXT
  8
SUNPOU
 10
4217.199086
 20
5411.379385
 30
0.0
 40
45.0
  1
120
  7
K
 72
     1
 11
4284.699086
 21
5411.379385
 31
0.0
  0
INSERT
  8
SUNPOU
  2
ARROWANG
 10
4224.699086
 20
5366.379385
 30
0.0
 41
30.0
 42
30.0
 50
180.0
 43
30.0
  0
INSERT
  8
SUNPOU
  2
ARROWANG
 10
4344.699086
 20
5366.379385
 30
0.0
 41
30.0
 42
30.0
 43
30.0
  0
LINE
  8
SUNPOU
 10
4224.699086
 20
5366.379385
 30
0.0
 11
4344.699086
 21
5366.379385
 31
0.0
  0
LINE
  8
SUNPOU
 10
4344.699086
 20
5096.379385
 30
0.0
 11
4344.699086
 21
5396.379385
 31
0.0
  0
LINE
  8
SUNPOU
 10
4224.699086
 20
5096.379385
 30
0.0
 11
4224.699086
 21
5396.379385
 31
0.0
  0
LINE
  8
JISSEN
 10
5278.699086
 20
4966.379385
 30
0.0
 11
4794.699086
 21
4966.379385
 31
0.0
  0
LINE
  8
JISSEN
 10
4344.699086
 20
4951.379385
 30
0.0
 11
5244.699086
 21
4951.379385
 31
0.0
  0
LINE
  8
JISSEN
 10
4794.699086
 20
5043.379385
 30
0.0
 11
4344.699086
 21
5043.379385
 31
0.0
  0
LINE
  8
TENSEN
 10
5244.699086
 20
5043.379385
 30
0.0
 11
4794.699086
 21
5043.379385
 31
0.0
  0
LINE
  8
JISSEN
 10
4309.699086
 20
5066.379385
 30
0.0
 11
5279.699086
 21
5066.379385
 31
0.0
  0
LINE
  8
TENSEN
 10
5244.699086
 20
5043.379385
 30
0.0
 11
5272.699086
 21
5043.379385
 31
0.0
  0
LINE
  8
TENSEN
 10
5272.699086
 20
5043.379385
 30
0.0
 11
5279.699086
 21
5066.379385
 31
0.0
  0
LINE
  8
JISSEN
 10
5279.699086
 20
5066.379385
 30
0.0
 11
5364.699086
 21
5066.379385
 31
0.0
  0
LINE
  8
JISSEN
 10
5364.699086
 20
4966.379385
 30
0.0
 11
5278.699086
 21
4966.379385
 31
0.0
  0
LINE
  8
JISSEN
 10
5278.699086
 20
4966.379385
 30
0.0
 11
5269.699086
 21
4951.379385
 31
0.0
  0
LINE
  8
JISSEN
 10
5269.699086
 20
4951.379385
 30
0.0
 11
5244.699086
 21
4951.379385
 31
0.0
  0
LINE
  8
JISSEN
 10
5364.699086
 20
5066.379385
 30
0.0
 11
5364.699086
 21
4966.379385
 31
0.0
  0
LINE
  8
TENSEN
 10
5244.699086
 20
5043.379385
 30
0.0
 11
5244.699086
 21
4966.379385
 31
0.0
  0
LINE
  8
JISSEN
 10
4344.699086
 20
5043.379385
 30
0.0
 11
4344.699086
 21
4951.379385
 31
0.0
  0
LINE
  8
JISSEN
 10
4224.699086
 20
5066.379385
 30
0.0
 11
4224.699086
 21
4966.379385
 31
0.0
  0
LINE
  8
JISSEN
 10
4319.699086
 20
4951.379385
 30
0.0
 11
4344.699086
 21
4951.379385
 31
0.0
  0
LINE
  8
JISSEN
 10
4310.699086
 20
4966.379385
 30
0.0
 11
4319.699086
 21
4951.379385
 31
0.0
  0
LINE
  8
JISSEN
 10
4224.699086
 20
4966.379385
 30
0.0
 11
4310.699086
 21
4966.379385
 31
0.0
  0
LINE
  8
JISSEN
 10
4309.699086
 20
5066.379385
 30
0.0
 11
4224.699086
 21
5066.379385
 31
0.0
  0
LINE
  8
JISSEN
 10
4316.699086
 20
5043.379385
 30
0.0
 11
4309.699086
 21
5066.379385
 31
0.0
  0
LINE
  8
JISSEN
 10
4344.699086
 20
5043.379385
 30
0.0
 11
4316.699086
 21
5043.379385
 31
0.0
  0
LINE
  8
SUNPOU
 10
4051.19204
 20
4966.379385
 30
0.0
 11
4054.699086
 21
4966.379385
 31
0.0
  0
LINE
  8
SUNPOU
 10
4051.19204
 20
5066.379385
 30
0.0
 11
4054.699086
 21
5066.379385
 31
0.0
  0
LINE
  8
SUNPOU
 10
4024.699086
 20
4966.379385
 30
0.0
 11
4024.699086
 21
5066.379385
 31
0.0
  0
INSERT
  8
SUNPOU
  2
ARROWANG
 10
4024.699086
 20
4966.379385
 30
0.0
 41
30.0
 42
30.0
 50
270.0
 43
30.0
  0
INSERT
  8
SUNPOU
  2
ARROWANG
 10
4024.699086
 20
5066.379385
 30
0.0
 41
30.0
 42
30.0
 50
90.0
 43
30.0
  0
TEXT
  8
SUNPOU
 10
3979.699086
 20
4948.879385
 30
0.0
 40
45.0
  1
100
 50
90.0
  7
K
 72
     1
 11
3979.699086
 21
5016.379385
 31
0.0
  0
LINE
  8
SUNPOU
 10
4054.831235
 20
4951.379385
 30
0.0
 11
4054.831235
 21
4951.379385
 31
0.0
  0
LINE
  8
SUNPOU
 10
4054.831235
 20
4966.379385
 30
0.0
 11
4054.831235
 21
4966.379385
 31
0.0
  0
LINE
  8
SUNPOU
 10
4024.831235
 20
4951.379385
 30
0.0
 11
4024.831235
 21
4966.379385
 31
0.0
  0
INSERT
  8
SUNPOU
  2
ARROWANG
 10
4024.831235
 20
4951.379385
 30
0.0
 41
30.0
 42
30.0
 50
90.0
 43
30.0
  0
INSERT
  8
SUNPOU
  2
ARROWANG
 10
4024.831235
 20
4966.379385
 30
0.0
 41
30.0
 42
30.0
 50
270.0
 43
30.0
  0
LINE
  8
SUNPOU
 10
4024.831235
 20
4951.379385
 30
0.0
 11
4024.831235
 21
4852.379385
 31
0.0
  0
LINE
  8
SUNPOU
 10
4024.831235
 20
4966.379385
 30
0.0
 11
4024.831235
 21
5026.379385
 31
0.0
  0
TEXT
  8
SUNPOU
 10
3979.831235
 20
4855.807957
 30
0.0
 40
45.0
  1
15
 50
90.0
  7
K
 72
     1
 11
3979.831235
 21
4901.879385
 31
0.0
  0
LINE
  8
JISSEN
 10
5814.00428
 20
5066.379385
 30
0.0
 11
5814.00428
 21
4916.379385
 31
0.0
  0
LINE
  8
JISSEN
 10
5834.00428
 20
4916.379385
 30
0.0
 11
5834.00428
 21
5066.379385
 31
0.0
  0
LINE
  8
ITTEN
 10
5824.00428
 20
5133.951815
 30
0.0
 11
5824.00428
 21
4843.87161
 31
0.0
  0
LINE
  8
ITTEN
 10
6884.00428
 20
5133.951815
 30
0.0
 11
6884.00428
 21
4843.87161
 31
0.0
  0
LINE
  8
TENSEN
 10
6874.00428
 20
4916.379385
 30
0.0
 11
6874.00428
 21
5066.379385
 31
0.0
  0
LINE
  8
TENSEN
 10
6894.00428
 20
5066.379385
 30
0.0
 11
6894.00428
 21
4916.379385
 31
0.0
  0
LINE
  8
JISSEN
 10
4254.699086
 20
5066.379385
 30
0.0
 11
4254.699086
 21
4966.379385
 31
0.0
  0
LINE
  8
JISSEN
 10
4274.699086
 20
5066.379385
 30
0.0
 11
4274.699086
 21
4966.379385
 31
0.0
  0
LINE
  8
ITTEN
 10
4264.699086
 20
5128.670368
 30
0.0
 11
4264.699086
 21
4892.980201
 31
0.0
  0
LINE
  8
ITTEN
 10
5324.699086
 20
5128.670368
 30
0.0
 11
5324.699086
 21
4892.980201
 31
0.0
  0
LINE
  8
TENSEN
 10
5314.699086
 20
5066.379385
 30
0.0
 11
5314.699086
 21
4966.379385
 31
0.0
  0
LINE
  8
TENSEN
 10
5334.699086
 20
5066.379385
 30
0.0
 11
5334.699086
 21
4966.379385
 31
0.0
  0
LINE
  8
TENSEN
 10
3069.50325
 20
4314.79029
 30
0.0
 11
3069.00325
 21
4164.79029
 31
0.0
  0
LINE
  8
TENSEN
 10
3089.50325
 20
4164.79029
 30
0.0
 11
3089.50325
 21
4314.79029
 31
0.0
  0
LINE
  8
ITTEN
 10
3079.50325
 20
4366.789504
 30
0.0
 11
3079.50325
 21
4095.53662
 31
0.0
  0
LINE
  8
TENSEN
 10
3090.00325
 20
4966.379385
 30
0.0
 11
3089.50325
 21
5066.379385
 31
0.0
  0
LINE
  8
TENSEN
 10
3069.50325
 20
5066.379385
 30
0.0
 11
3069.50325
 21
4966.379385
 31
0.0
  0
LINE
  8
JISSEN
 10
3109.50325
 20
5066.379385
 30
0.0
 11
3109.50325
 21
4916.379385
 31
0.0
  0
LINE
  8
TENSEN
 10
1584.43611
 20
5066.379385
 30
0.0
 11
1584.43611
 21
5016.379385
 31
0.0
  0
LINE
  8
TENSEN
 10
1604.43611
 20
5066.379385
 30
0.0
 11
1604.43611
 21
5016.379385
 31
0.0
  0
LINE
  8
ITTEN
 10
1594.43611
 20
5116.007304
 30
0.0
 11
1594.43611
 21
5116.007304
 31
0.0
  0
LINE
  8
ITTEN
 10
1594.43611
 20
5104.617937
 30
0.0
 11
1594.43611
 21
4975.383487
 31
0.0
  0
LINE
  8
ITTEN
 10
3079.503234
 20
5115.014455
 30
0.0
 11
3079.503234
 21
4883.275702
 31
0.0
  0
LINE
  8
JISSEN
 10
9863.597903
 20
5066.379385
 30
0.0
 11
9973.597903
 21
5066.379385
 31
0.0
  0
LINE
  8
JISSEN
 10
9973.597903
 20
5066.379385
 30
0.0
 11
9980.597903
 21
5043.379385
 31
0.0
  0
LINE
  8
JISSEN
 10
9980.597903
 20
5043.379385
 30
0.0
 11
10013.597903
 21
5043.379385
 31
0.0
  0
LINE
  8
JISSEN
 10
9863.597903
 20
5066.379385
 30
0.0
 11
9863.597903
 21
4866.379385
 31
0.0
  0
LINE
  8
JISSEN
 10
9863.597903
 20
4866.379385
 30
0.0
 11
9974.597903
 21
4866.379385
 31
0.0
  0
LINE
  8
JISSEN
 10
9974.597903
 20
4866.379385
 30
0.0
 11
9985.597903
 21
4851.379385
 31
0.0
  0
LINE
  8
JISSEN
 10
9985.597903
 20
4851.379385
 30
0.0
 11
10013.597903
 21
4851.379385
 31
0.0
  0
LINE
  8
JISSEN
 10
10013.597903
 20
4851.379385
 30
0.0
 11
10013.597903
 21
5043.379385
 31
0.0
  0
LINE
  8
JISSEN
 10
11241.597903
 20
4851.379385
 30
0.0
 11
11213.597903
 21
4851.379385
 31
0.0
  0
LINE
  8
JISSEN
 10
11252.597903
 20
4866.379385
 30
0.0
 11
11241.597903
 21
4851.379385
 31
0.0
  0
LINE
  8
JISSEN
 10
11363.597903
 20
4866.379385
 30
0.0
 11
11252.597903
 21
4866.379385
 31
0.0
  0
LINE
  8
JISSEN
 10
11363.597903
 20
5066.379385
 30
0.0
 11
11363.597903
 21
4866.379385
 31
0.0
  0
LINE
  8
TENSEN
 10
11246.597903
 20
5043.379385
 30
0.0
 11
11213.597903
 21
5043.379385
 31
0.0
  0
LINE
  8
TENSEN
 10
11253.597903
 20
5066.379385
 30
0.0
 11
11246.597903
 21
5043.379385
 31
0.0
  0
LINE
  8
JISSEN
 10
11363.597903
 20
5066.379385
 30
0.0
 11
11253.597903
 21
5066.379385
 31
0.0
  0
LINE
  8
JISSEN
 10
9973.597903
 20
5066.379385
 30
0.0
 11
10613.597903
 21
5066.379385
 31
0.0
  0
LINE
  8
JISSEN
 10
10613.597903
 20
5043.379385
 30
0.0
 11
10013.597903
 21
5043.379385
 31
0.0
  0
LINE
  8
JISSEN
 10
11253.597903
 20
5066.379385
 30
0.0
 11
10613.597903
 21
5066.379385
 31
0.0
  0
LINE
  8
TENSEN
 10
10613.597903
 20
5043.379385
 30
0.0
 11
11213.597903
 21
5043.379385
 31
0.0
  0
LINE
  8
JISSEN
 10
10013.597903
 20
4851.379385
 30
0.0
 11
11213.597903
 21
4851.379385
 31
0.0
  0
LINE
  8
JISSEN
 10
11253.597903
 20
4866.379385
 30
0.0
 11
10613.597903
 21
4866.379385
 31
0.0
  0
LINE
  8
ITTEN
 10
10613.597903
 20
5164.154699
 30
0.0
 11
10613.597903
 21
4772.080185
 31
0.0
  0
LINE
  8
TENSEN
 10
11213.597903
 20
4866.379385
 30
0.0
 11
11213.597903
 21
5043.379385
 31
0.0
  0
LINE
  8
SUNPOU
 10
9863.597903
 20
5096.379385
 30
0.0
 11
9863.597903
 21
5396.379385
 31
0.0
  0
LINE
  8
SUNPOU
 10
10013.597903
 20
5073.379385
 30
0.0
 11
10013.597903
 21
5396.379385
 31
0.0
  0
LINE
  8
SUNPOU
 10
9863.597903
 20
5366.379385
 30
0.0
 11
10013.597903
 21
5366.379385
 31
0.0
  0
INSERT
  8
SUNPOU
  2
ARROWANG
 10
10013.597903
 20
5366.379385
 30
0.0
 41
30.0
 42
30.0
 43
30.0
  0
INSERT
  8
SUNPOU
  2
ARROWANG
 10
9863.597903
 20
5366.379385
 30
0.0
 41
30.0
 42
30.0
 50
180.0
 43
30.0
  0
TEXT
  8
SUNPOU
 10
9871.097903
 20
5411.379385
 30
0.0
 40
45.0
  1
150
  7
K
 72
     1
 11
9938.597903
 21
5411.379385
 31
0.0
  0
LINE
  8
SUNPOU
 10
10013.597903
 20
5336.379385
 30
0.0
 11
10013.597903
 21
5336.379385
 31
0.0
  0
LINE
  8
SUNPOU
 10
11213.597903
 20
5073.379385
 30
0.0
 11
11213.597903
 21
5396.379385
 31
0.0
  0
LINE
  8
SUNPOU
 10
10013.597903
 20
5366.379385
 30
0.0
 11
11213.597903
 21
5366.379385
 31
0.0
  0
INSERT
  8
SUNPOU
  2
ARROWANG
 10
10013.597903
 20
5366.379385
 30
0.0
 41
30.0
 42
30.0
 50
180.0
 43
30.0
  0
INSERT
  8
SUNPOU
  2
ARROWANG
 10
11213.597903
 20
5366.379385
 30
0.0
 41
30.0
 42
30.0
 43
30.0
  0
TEXT
  8
SUNPOU
 10
10524.669346
 20
5411.379385
 30
0.0
 40
45.0
  1
1200
  7
K
 72
     1
 11
10613.597918
 21
5411.379385
 31
0.0
  0
LINE
  8
SUNPOU
 10
11213.597903
 20
5336.379385
 30
0.0
 11
11213.597903
 21
5336.379385
 31
0.0
  0
LINE
  8
SUNPOU
 10
11363.597903
 20
5096.379385
 30
0.0
 11
11363.597903
 21
5396.379385
 31
0.0
  0
LINE
  8
SUNPOU
 10
11213.597903
 20
5366.379385
 30
0.0
 11
11363.597903
 21
5366.379385
 31
0.0
  0
INSERT
  8
SUNPOU
  2
ARROWANG
 10
11213.597903
 20
5366.379385
 30
0.0
 41
30.0
 42
30.0
 50
180.0
 43
30.0
  0
INSERT
  8
SUNPOU
  2
ARROWANG
 10
11363.597903
 20
5366.379385
 30
0.0
 41
30.0
 42
30.0
 43
30.0
  0
TEXT
  8
SUNPOU
 10
11221.097918
 20
5411.379385
 30
0.0
 40
45.0
  1
150
  7
K
 72
     1
 11
11288.597918
 21
5411.379385
 31
0.0
  0
LINE
  8
SUNPOU
 10
9973.597903
 20
5096.379385
 30
0.0
 11
9973.597903
 21
5296.379385
 31
0.0
  0
LINE
  8
SUNPOU
 10
11253.597903
 20
5096.379385
 30
0.0
 11
11253.597903
 21
5296.379385
 31
0.0
  0
LINE
  8
SUNPOU
 10
9973.597903
 20
5266.379385
 30
0.0
 11
11253.597903
 21
5266.379385
 31
0.0
  0
INSERT
  8
SUNPOU
  2
ARROWANG
 10
9973.597903
 20
5266.379385
 30
0.0
 41
30.0
 42
30.0
 50
180.0
 43
30.0
  0
INSERT
  8
SUNPOU
  2
ARROWANG
 10
11253.597903
 20
5266.379385
 30
0.0
 41
30.0
 42
30.0
 43
30.0
  0
TEXT
  8
SUNPOU
 10
10524.669346
 20
5311.379385
 30
0.0
 40
45.0
  1
1280
  7
K
 72
     1
 11
10613.597918
 21
5311.379385
 31
0.0
  0
LINE
  8
SUNPOU
 10
9980.597903
 20
5073.379385
 30
0.0
 11
9980.597903
 21
5193.406424
 31
0.0
  0
LINE
  8
SUNPOU
 10
11246.597903
 20
5073.379385
 30
0.0
 11
11246.597903
 21
5193.406424
 31
0.0
  0
LINE
  8
SUNPOU
 10
9980.597903
 20
5163.406424
 30
0.0
 11
11246.597903
 21
5163.406424
 31
0.0
  0
INSERT
  8
SUNPOU
  2
ARROWANG
 10
11246.597903
 20
5163.406424
 30
0.0
 41
30.0
 42
30.0
 43
30.0
  0
INSERT
  8
SUNPOU
  2
ARROWANG
 10
9980.597903
 20
5163.406424
 30
0.0
 41
30.0
 42
30.0
 50
180.0
 43
30.0
  0
TEXT
  8
SUNPOU
 10
10524.669332
 20
5208.406424
 30
0.0
 40
45.0
  1
1266
  7
K
 72
     1
 11
10613.597903
 21
5208.406424
 31
0.0
  0
LINE
  8
SUNPOU
 10
9974.597903
 20
4836.379385
 30
0.0
 11
9974.597903
 21
4524.574806
 31
0.0
  0
LINE
  8
SUNPOU
 10
11252.597903
 20
4836.379385
 30
0.0
 11
11252.597903
 21
4524.574806
 31
0.0
  0
LINE
  8
SUNPOU
 10
9974.597903
 20
4554.574806
 30
0.0
 11
11252.597903
 21
4554.574806
 31
0.0
  0
INSERT
  8
SUNPOU
  2
ARROWANG
 10
9974.597903
 20
4554.574806
 30
0.0
 41
30.0
 42
30.0
 50
180.0
 43
30.0
  0
INSERT
  8
SUNPOU
  2
ARROWANG
 10
11252.597903
 20
4554.574806
 30
0.0
 41
30.0
 42
30.0
 43
30.0
  0
TEXT
  8
SUNPOU
 10
10524.669346
 20
4599.574806
 30
0.0
 40
45.0
  1
1278
  7
K
 72
     1
 11
10613.597918
 21
4599.574806
 31
0.0
  0
LINE
  8
SUNPOU
 10
9985.597903
 20
4821.379385
 30
0.0
 11
9985.597903
 21
4621.569456
 31
0.0
  0
LINE
  8
SUNPOU
 10
11241.597903
 20
4821.379385
 30
0.0
 11
11241.597903
 21
4621.569456
 31
0.0
  0
LINE
  8
SUNPOU
 10
9985.597903
 20
4651.569456
 30
0.0
 11
11241.597903
 21
4651.569456
 31
0.0
  0
INSERT
  8
SUNPOU
  2
ARROWANG
 10
9985.597903
 20
4651.569456
 30
0.0
 41
30.0
 42
30.0
 50
180.0
 43
30.0
  0
INSERT
  8
SUNPOU
  2
ARROWANG
 10
11241.597903
 20
4651.569456
 30
0.0
 41
30.0
 42
30.0
 43
30.0
  0
TEXT
  8
SUNPOU
 10
10524.669346
 20
4696.569456
 30
0.0
 40
45.0
  1
1256
  7
K
 72
     1
 11
10613.597918
 21
4696.569456
 31
0.0
  0
LINE
  8
SUNPOU
 10
9863.597903
 20
4946.832584
 30
0.0
 11
9863.597903
 21
4946.832584
 31
0.0
  0
LINE
  8
SUNPOU
 10
9833.597903
 20
4866.379385
 30
0.0
 11
9629.400494
 21
4866.379385
 31
0.0
  0
LINE
  8
SUNPOU
 10
9833.597903
 20
5066.379385
 30
0.0
 11
9629.400494
 21
5066.379385
 31
0.0
  0
LINE
  8
SUNPOU
 10
9659.400494
 20
4866.379385
 30
0.0
 11
9659.400494
 21
5066.379385
 31
0.0
  0
INSERT
  8
SUNPOU
  2
ARROWANG
 10
9659.400494
 20
4866.379385
 30
0.0
 41
30.0
 42
30.0
 50
270.0
 43
30.0
  0
INSERT
  8
SUNPOU
  2
ARROWANG
 10
9659.400494
 20
5066.379385
 30
0.0
 41
30.0
 42
30.0
 50
90.0
 43
30.0
  0
TEXT
  8
SUNPOU
 10
9614.400494
 20
4902.093671
 30
0.0
 40
45.0
  1
200
 50
90.0
  7
K
 72
     1
 11
9614.400494
 21
4966.379385
 31
0.0
  0
LINE
  8
SUNPOU
 10
9955.597903
 20
4851.379385
 30
0.0
 11
9629.400494
 21
4851.379385
 31
0.0
  0
LINE
  8
SUNPOU
 10
9689.400494
 20
4866.379385
 30
0.0
 11
9689.400494
 21
4866.379385
 31
0.0
  0
LINE
  8
SUNPOU
 10
9659.400494
 20
4851.379385
 30
0.0
 11
9659.400494
 21
4866.379385
 31
0.0
  0
INSERT
  8
SUNPOU
  2
ARROWANG
 10
9659.400494
 20
4851.379385
 30
0.0
 41
30.0
 42
30.0
 50
90.0
 43
30.0
  0
INSERT
  8
SUNPOU
  2
ARROWANG
 10
9659.400494
 20
4866.379385
 30
0.0
 41
30.0
 42
30.0
 50
270.0
 43
30.0
  0
LINE
  8
SUNPOU
 10
9659.400494
 20
4851.379385
 30
0.0
 11
9659.400494
 21
4752.379385
 31
0.0
  0
LINE
  8
SUNPOU
 10
9659.400494
 20
4866.379385
 30
0.0
 11
9659.400494
 21
4926.379385
 31
0.0
  0
TEXT
  8
SUNPOU
 10
9614.400494
 20
4755.807957
 30
0.0
 40
45.0
  1
15
 50
90.0
  7
K
 72
     1
 11
9614.400494
 21
4801.879385
 31
0.0
  0
LINE
  8
SUNPOU
 10
9950.597903
 20
5043.379385
 30
0.0
 11
9733.597903
 21
5043.379385
 31
0.0
  0
LINE
  8
SUNPOU
 10
9793.597903
 20
5066.379385
 30
0.0
 11
9793.597903
 21
5066.379385
 31
0.0
  0
LINE
  8
SUNPOU
 10
9763.597903
 20
5043.379385
 30
0.0
 11
9763.597903
 21
5066.379385
 31
0.0
  0
INSERT
  8
SUNPOU
  2
ARROWANG
 10
9763.597903
 20
5043.379385
 30
0.0
 41
30.0
 42
30.0
 50
90.0
 43
30.0
  0
INSERT
  8
SUNPOU
  2
ARROWANG
 10
9763.597903
 20
5066.379385
 30
0.0
 41
30.0
 42
30.0
 50
270.0
 43
30.0
  0
LINE
  8
SUNPOU
 10
9763.597903
 20
5066.379385
 30
0.0
 11
9763.597903
 21
5165.379385
 31
0.0
  0
LINE
  8
SUNPOU
 10
9763.597903
 20
5043.379385
 30
0.0
 11
9763.597904
 21
4983.379385
 31
0.0
  0
TEXT
  8
SUNPOU
 10
9718.597903
 20
5073.022242
 30
0.0
 40
45.0
  1
23
 50
90.0
  7
K
 72
     1
 11
9718.597903
 21
5115.879385
 31
0.0
  0
CIRCLE
  8
JISSEN
 10
8641.666099
 20
3319.720004
 30
0.0
 40
750.0
  0
CIRCLE
  8
JISSEN
 10
8641.666099
 20
3319.720004
 30
0.0
 40
600.0
  0
CIRCLE
  8
JISSEN
 10
8641.666099
 20
3319.720004
 30
0.0
 40
633.0
  0
CIRCLE
  8
JISSEN
 10
8641.666099
 20
3319.720004
 30
0.0
 40
640.0
  0
CIRCLE
  8
JISSEN
 10
8641.666099
 20
3994.720004
 30
0.0
 40
10.0
  0
ARC
  8
ITTEN
 10
8641.666099
 20
3319.720004
 30
0.0
 40
675.0
 50
85.715514
 51
94.624104
  0
LINE
  8
SUNPOU
 10
8611.666099
 20
3994.720004
 30
0.0
 11
8611.666099
 21
3994.720004
 31
0.0
  0
LINE
  8
SUNPOU
 10
8620.452895
 20
3298.5068
 30
0.0
 11
8620.452895
 21
3298.5068
 31
0.0
  0
LINE
  8
SUNPOU
 10
8164.369022
 20
3797.017081
 30
0.0
 11
8641.666099
 21
3319.720004
 31
0.0
  0
INSERT
  8
SUNPOU
  2
ARROWANG
 10
8641.666099
 20
3319.720004
 30
0.0
 41
30.0
 42
30.0
 50
315.0
 43
30.0
  0
TEXT
  8
SUNPOU
 10
8388.622897
 20
3636.402816
 30
0.0
 40
45.0
  1
675
 50
315.0
  7
K
 72
     1
 11
8434.837376
 21
3590.188337
 31
0.0
  0
LINE
  8
ITTEN
 10
8641.666099
 20
4024.720004
 30
0.0
 11
8641.666099
 21
3964.720004
 31
0.0
  0
LINE
  8
ITTEN
 10
8143.155818
 20
3818.230284
 30
0.0
 11
8185.582225
 21
3775.803877
 31
0.0
  0
INSERT
  8
SUNPOU
  2
ARROWANG
 10
8164.369022
 20
3797.017081
 30
0.0
 41
30.0
 42
30.0
 50
135.0
 43
30.0
  0
LINE
  8
SUNPOU
 10
8143.155818
 20
3775.803877
 30
0.0
 11
8143.155818
 21
3775.803877
 31
0.0
  0
ARC
  8
ITTEN
 10
8641.666099
 20
3319.720004
 30
0.0
 40
675.0
 50
130.715514
 51
139.624104
  0
CIRCLE
  8
JISSEN
 10
8164.369022
 20
3797.017081
 30
0.0
 40
10.0
  0
LINE
  8
ITTEN
 10
7936.666099
 20
3319.720004
 30
0.0
 11
7996.666099
 21
3319.720004
 31
0.0
  0
LINE
  8
SUNPOU
 10
7966.666099
 20
3289.720004
 30
0.0
 11
7966.666099
 21
3289.720004
 31
0.0
  0
ARC
  8
ITTEN
 10
8641.666099
 20
3319.720004
 30
0.0
 40
675.0
 50
175.715514
 51
184.624104
  0
CIRCLE
  8
JISSEN
 10
7966.666099
 20
3319.720004
 30
0.0
 40
10.0
  0
LINE
  8
ITTEN
 10
8143.155818
 20
2821.209723
 30
0.0
 11
8185.582225
 21
2863.63613
 31
0.0
  0
LINE
  8
SUNPOU
 10
8185.582225
 20
2821.209723
 30
0.0
 11
8185.582225
 21
2821.209723
 31
0.0
  0
ARC
  8
ITTEN
 10
8641.666099
 20
3319.720004
 30
0.0
 40
675.0
 50
220.715514
 51
229.624104
  0
CIRCLE
  8
JISSEN
 10
8164.369022
 20
2842.422926
 30
0.0
 40
10.0
  0
LINE
  8
ITTEN
 10
8641.666099
 20
2614.720004
 30
0.0
 11
8641.666099
 21
2674.720004
 31
0.0
  0
LINE
  8
SUNPOU
 10
8671.666099
 20
2644.720004
 30
0.0
 11
8671.666099
 21
2644.720004
 31
0.0
  0
ARC
  8
ITTEN
 10
8641.666099
 20
3319.720004
 30
0.0
 40
675.0
 50
265.715514
 51
274.624104
  0
CIRCLE
  8
JISSEN
 10
8641.666099
 20
2644.720004
 30
0.0
 40
10.0
  0
LINE
  8
ITTEN
 10
9140.17638
 20
2821.209723
 30
0.0
 11
9097.749973
 21
2863.63613
 31
0.0
  0
LINE
  8
SUNPOU
 10
9140.17638
 20
2863.63613
 30
0.0
 11
9140.17638
 21
2863.63613
 31
0.0
  0
ARC
  8
ITTEN
 10
8641.666099
 20
3319.720004
 30
0.0
 40
675.0
 50
310.715514
 51
319.624104
  0
CIRCLE
  8
JISSEN
 10
9118.963176
 20
2842.422926
 30
0.0
 40
10.0
  0
LINE
  8
ITTEN
 10
9346.666099
 20
3319.720004
 30
0.0
 11
9286.666099
 21
3319.720004
 31
0.0
  0
LINE
  8
SUNPOU
 10
9316.666099
 20
3349.720004
 30
0.0
 11
9316.666099
 21
3349.720004
 31
0.0
  0
ARC
  8
ITTEN
 10
8641.666099
 20
3319.720004
 30
0.0
 40
675.0
 50
355.715514
 51
4.624104
  0
CIRCLE
  8
JISSEN
 10
9316.666099
 20
3319.720004
 30
0.0
 40
10.0
  0
LINE
  8
ITTEN
 10
9140.17638
 20
3818.230284
 30
0.0
 11
9097.749973
 21
3775.803877
 31
0.0
  0
LINE
  8
SUNPOU
 10
9097.749973
 20
3818.230284
 30
0.0
 11
9097.749973
 21
3818.230284
 31
0.0
  0
ARC
  8
ITTEN
 10
8641.666099
 20
3319.720004
 30
0.0
 40
675.0
 50
40.715514
 51
49.624104
  0
CIRCLE
  8
JISSEN
 10
9118.963176
 20
3797.017081
 30
0.0
 40
10.0
  0
LINE
  8
ITTEN
 10
8641.666099
 20
4169.720004
 30
0.0
 11
8641.666099
 21
2469.720004
 31
0.0
  0
LINE
  8
ITTEN
 10
9491.666099
 20
3319.720004
 30
0.0
 11
7791.666099
 21
3319.720004
 31
0.0
  0
LINE
  8
JISSEN
 10
9928.597903
 20
5066.379385
 30
0.0
 11
9928.597903
 21
4866.379385
 31
0.0
  0
LINE
  8
JISSEN
 10
9948.597903
 20
4866.379385
 30
0.0
 11
9948.597903
 21
5066.379385
 31
0.0
  0
LINE
  8
ITTEN
 10
9938.597903
 20
5150.547656
 30
0.0
 11
9938.597903
 21
4771.225519
 31
0.0
  0
LINE
  8
ITTEN
 10
11288.597903
 20
5150.547656
 30
0.0
 11
11288.597903
 21
4771.225519
 31
0.0
  0
LINE
  8
TENSEN
 10
11278.597903
 20
4866.379385
 30
0.0
 11
11278.597903
 21
5066.379385
 31
0.0
  0
LINE
  8
TENSEN
 10
11298.597903
 20
5066.379385
 30
0.0
 11
11298.597903
 21
4866.379385
 31
0.0
  0
LINE
  8
TENSEN
 10
9326.666099
 20
5066.379385
 30
0.0
 11
9326.666099
 21
4916.379385
 31
0.0
  0
LINE
  8
TENSEN
 10
9306.666099
 20
4916.379385
 30
0.0
 11
9306.666099
 21
5066.379385
 31
0.0
  0
LINE
  8
ITTEN
 10
9316.666099
 20
5150.547656
 30
0.0
 11
9316.666099
 21
4821.225519
 31
0.0
  0
LINE
  8
ITTEN
 10
7966.666099
 20
5150.547656
 30
0.0
 11
7966.666099
 21
4821.225519
 31
0.0
  0
LINE
  8
JISSEN
 10
7976.666099
 20
4916.379385
 30
0.0
 11
7976.666099
 21
5066.379385
 31
0.0
  0
LINE
  8
JISSEN
 10
7956.666099
 20
5066.379385
 30
0.0
 11
7956.666099
 21
4916.379385
 31
0.0
  0
TEXT
  8
SUNPOU
 10
7746.666099
 20
5073.022242
 30
0.0
 40
45.0
  1
23
 50
90.0
  7
K
 72
     1
 11
7746.666099
 21
5115.879385
 31
0.0
  0
LINE
  8
SUNPOU
 10
7791.666099
 20
5043.379385
 30
0.0
 11
7791.6661
 21
4983.379385
 31
0.0
  0
LINE
  8
SUNPOU
 10
7791.666099
 20
5066.379385
 30
0.0
 11
7791.666099
 21
5165.379385
 31
0.0
  0
INSERT
  8
SUNPOU
  2
ARROWANG
 10
7791.666099
 20
5066.379385
 30
0.0
 41
30.0
 42
30.0
 50
270.0
 43
30.0
  0
INSERT
  8
SUNPOU
  2
ARROWANG
 10
7791.666099
 20
5043.379385
 30
0.0
 41
30.0
 42
30.0
 50
90.0
 43
30.0
  0
LINE
  8
SUNPOU
 10
7791.666099
 20
5043.379385
 30
0.0
 11
7791.666099
 21
5066.379385
 31
0.0
  0
LINE
  8
SUNPOU
 10
7821.666099
 20
5066.379385
 30
0.0
 11
7821.666099
 21
5066.379385
 31
0.0
  0
LINE
  8
SUNPOU
 10
7978.666099
 20
5043.379385
 30
0.0
 11
7761.666099
 21
5043.379385
 31
0.0
  0
TEXT
  8
SUNPOU
 10
7642.46869
 20
4805.807957
 30
0.0
 40
45.0
  1
15
 50
90.0
  7
K
 72
     1
 11
7642.46869
 21
4851.879385
 31
0.0
  0
LINE
  8
SUNPOU
 10
7687.46869
 20
4901.379385
 30
0.0
 11
7687.46869
 21
4802.379385
 31
0.0
  0
INSERT
  8
SUNPOU
  2
ARROWANG
 10
7687.46869
 20
4901.379385
 30
0.0
 41
30.0
 42
30.0
 50
90.0
 43
30.0
  0
LINE
  8
SUNPOU
 10
7687.46869
 20
4901.379385
 30
0.0
 11
7687.46869
 21
4916.379385
 31
0.0
  0
LINE
  8
SUNPOU
 10
7717.46869
 20
4916.379385
 30
0.0
 11
7717.46869
 21
4916.379385
 31
0.0
  0
LINE
  8
SUNPOU
 10
7983.666099
 20
4901.379385
 30
0.0
 11
7657.46869
 21
4901.379385
 31
0.0
  0
LINE
  8
SUNPOU
 10
7861.666099
 20
5066.379385
 30
0.0
 11
7657.46869
 21
5066.379385
 31
0.0
  0
LINE
  8
SUNPOU
 10
7861.666099
 20
4916.379385
 30
0.0
 11
7657.46869
 21
4916.379385
 31
0.0
  0
LINE
  8
SUNPOU
 10
7891.666099
 20
4996.832584
 30
0.0
 11
7891.666099
 21
4996.832584
 31
0.0
  0
TEXT
  8
SUNPOU
 10
8552.737542
 20
4746.569456
 30
0.0
 40
45.0
  1
1256
  7
K
 72
     1
 11
8641.666114
 21
4746.569456
 31
0.0
  0
INSERT
  8
SUNPOU
  2
ARROWANG
 10
9269.666099
 20
4701.569456
 30
0.0
 41
30.0
 42
30.0
 43
30.0
  0
INSERT
  8
SUNPOU
  2
ARROWANG
 10
8013.666099
 20
4701.569456
 30
0.0
 41
30.0
 42
30.0
 50
180.0
 43
30.0
  0
LINE
  8
SUNPOU
 10
8013.666099
 20
4701.569456
 30
0.0
 11
9269.666099
 21
4701.569456
 31
0.0
  0
LINE
  8
SUNPOU
 10
9269.666099
 20
4871.379385
 30
0.0
 11
9269.666099
 21
4671.569456
 31
0.0
  0
LINE
  8
SUNPOU
 10
8013.666099
 20
4871.379385
 30
0.0
 11
8013.666099
 21
4671.569456
 31
0.0
  0
TEXT
  8
SUNPOU
 10
8552.737542
 20
4649.574806
 30
0.0
 40
45.0
  1
1278
  7
K
 72
     1
 11
8641.666114
 21
4649.574806
 31
0.0
  0
INSERT
  8
SUNPOU
  2
ARROWANG
 10
9280.666099
 20
4604.574806
 30
0.0
 41
30.0
 42
30.0
 43
30.0
  0
INSERT
  8
SUNPOU
  2
ARROWANG
 10
8002.666099
 20
4604.574806
 30
0.0
 41
30.0
 42
30.0
 50
180.0
 43
30.0
  0
LINE
  8
SUNPOU
 10
8002.666099
 20
4604.574806
 30
0.0
 11
9280.666099
 21
4604.574806
 31
0.0
  0
LINE
  8
SUNPOU
 10
9280.666099
 20
4886.379385
 30
0.0
 11
9280.666099
 21
4574.574806
 31
0.0
  0
LINE
  8
SUNPOU
 10
8002.666099
 20
4886.379385
 30
0.0
 11
8002.666099
 21
4574.574806
 31
0.0
  0
TEXT
  8
SUNPOU
 10
8552.737527
 20
5208.406424
 30
0.0
 40
45.0
  1
1266
  7
K
 72
     1
 11
8641.666099
 21
5208.406424
 31
0.0
  0
INSERT
  8
SUNPOU
  2
ARROWANG
 10
8008.666099
 20
5163.406424
 30
0.0
 41
30.0
 42
30.0
 50
180.0
 43
30.0
  0
INSERT
  8
SUNPOU
  2
ARROWANG
 10
9274.666099
 20
5163.406424
 30
0.0
 41
30.0
 42
30.0
 43
30.0
  0
LINE
  8
SUNPOU
 10
8008.666099
 20
5163.406424
 30
0.0
 11
9274.666099
 21
5163.406424
 31
0.0
  0
LINE
  8
SUNPOU
 10
9274.666099
 20
5073.379385
 30
0.0
 11
9274.666099
 21
5193.406424
 31
0.0
  0
LINE
  8
SUNPOU
 10
8008.666099
 20
5073.379385
 30
0.0
 11
8008.666099
 21
5193.406424
 31
0.0
  0
TEXT
  8
SUNPOU
 10
8552.737542
 20
5311.379385
 30
0.0
 40
45.0
  1
1280
  7
K
 72
     1
 11
8641.666114
 21
5311.379385
 31
0.0
  0
INSERT
  8
SUNPOU
  2
ARROWANG
 10
9281.666099
 20
5266.379385
 30
0.0
 41
30.0
 42
30.0
 43
30.0
  0
INSERT
  8
SUNPOU
  2
ARROWANG
 10
8001.666099
 20
5266.379385
 30
0.0
 41
30.0
 42
30.0
 50
180.0
 43
30.0
  0
LINE
  8
SUNPOU
 10
8001.666099
 20
5266.379385
 30
0.0
 11
9281.666099
 21
5266.379385
 31
0.0
  0
LINE
  8
SUNPOU
 10
9281.666099
 20
5096.379385
 30
0.0
 11
9281.666099
 21
5296.379385
 31
0.0
  0
LINE
  8
SUNPOU
 10
8001.666099
 20
5096.379385
 30
0.0
 11
8001.666099
 21
5296.379385
 31
0.0
  0
TEXT
  8
SUNPOU
 10
9249.166114
 20
5411.379385
 30
0.0
 40
45.0
  1
150
  7
K
 72
     1
 11
9316.666114
 21
5411.379385
 31
0.0
  0
INSERT
  8
SUNPOU
  2
ARROWANG
 10
9391.666099
 20
5366.379385
 30
0.0
 41
30.0
 42
30.0
 43
30.0
  0
INSERT
  8
SUNPOU
  2
ARROWANG
 10
9241.666099
 20
5366.379385
 30
0.0
 41
30.0
 42
30.0
 50
180.0
 43
30.0
  0
LINE
  8
SUNPOU
 10
9241.666099
 20
5366.379385
 30
0.0
 11
9391.666099
 21
5366.379385
 31
0.0
  0
LINE
  8
SUNPOU
 10
9391.666099
 20
5096.379385
 30
0.0
 11
9391.666099
 21
5396.379385
 31
0.0
  0
LINE
  8
SUNPOU
 10
9241.666099
 20
5336.379385
 30
0.0
 11
9241.666099
 21
5336.379385
 31
0.0
  0
TEXT
  8
SUNPOU
 10
8552.737542
 20
5411.379385
 30
0.0
 40
45.0
  1
1200
  7
K
 72
     1
 11
8641.666114
 21
5411.379385
 31
0.0
  0
INSERT
  8
SUNPOU
  2
ARROWANG
 10
9241.666099
 20
5366.379385
 30
0.0
 41
30.0
 42
30.0
 43
30.0
  0
INSERT
  8
SUNPOU
  2
ARROWANG
 10
8041.666099
 20
5366.379385
 30
0.0
 41
30.0
 42
30.0
 50
180.0
 43
30.0
  0
LINE
  8
SUNPOU
 10
8041.666099
 20
5366.379385
 30
0.0
 11
9241.666099
 21
5366.379385
 31
0.0
  0
LINE
  8
SUNPOU
 10
9241.666099
 20
5073.379385
 30
0.0
 11
9241.666099
 21
5396.379385
 31
0.0
  0
LINE
  8
SUNPOU
 10
8041.666099
 20
5336.379385
 30
0.0
 11
8041.666099
 21
5336.379385
 31
0.0
  0
TEXT
  8
SUNPOU
 10
7899.166099
 20
5411.379385
 30
0.0
 40
45.0
  1
150
  7
K
 72
     1
 11
7966.666099
 21
5411.379385
 31
0.0
  0
INSERT
  8
SUNPOU
  2
ARROWANG
 10
7891.666099
 20
5366.379385
 30
0.0
 41
30.0
 42
30.0
 50
180.0
 43
30.0
  0
INSERT
  8
SUNPOU
  2
ARROWANG
 10
8041.666099
 20
5366.379385
 30
0.0
 41
30.0
 42
30.0
 43
30.0
  0
LINE
  8
SUNPOU
 10
7891.666099
 20
5366.379385
 30
0.0
 11
8041.666099
 21
5366.379385
 31
0.0
  0
LINE
  8
SUNPOU
 10
8041.666099
 20
5073.379385
 30
0.0
 11
8041.666099
 21
5396.379385
 31
0.0
  0
LINE
  8
SUNPOU
 10
7891.666099
 20
5096.379385
 30
0.0
 11
7891.666099
 21
5396.379385
 31
0.0
  0
LINE
  8
TENSEN
 10
9241.666099
 20
4916.379385
 30
0.0
 11
9241.666099
 21
5043.379385
 31
0.0
  0
LINE
  8
ITTEN
 10
8641.666099
 20
5164.154699
 30
0.0
 11
8641.666099
 21
4822.080185
 31
0.0
  0
LINE
  8
JISSEN
 10
9281.666099
 20
4916.379385
 30
0.0
 11
8641.666099
 21
4916.379385
 31
0.0
  0
LINE
  8
JISSEN
 10
8041.666099
 20
4901.379385
 30
0.0
 11
9241.666099
 21
4901.379385
 31
0.0
  0
LINE
  8
TENSEN
 10
8641.666099
 20
5043.379385
 30
0.0
 11
9241.666099
 21
5043.379385
 31
0.0
  0
LINE
  8
JISSEN
 10
9281.666099
 20
5066.379385
 30
0.0
 11
8641.666099
 21
5066.379385
 31
0.0
  0
LINE
  8
JISSEN
 10
8641.666099
 20
5043.379385
 30
0.0
 11
8041.666099
 21
5043.379385
 31
0.0
  0
LINE
  8
JISSEN
 10
8001.666099
 20
5066.379385
 30
0.0
 11
8641.666099
 21
5066.379385
 31
0.0
  0
LINE
  8
JISSEN
 10
9391.666099
 20
5066.379385
 30
0.0
 11
9281.666099
 21
5066.379385
 31
0.0
  0
LINE
  8
TENSEN
 10
9281.666099
 20
5066.379385
 30
0.0
 11
9274.666099
 21
5043.379385
 31
0.0
  0
LINE
  8
TENSEN
 10
9274.666099
 20
5043.379385
 30
0.0
 11
9241.666099
 21
5043.379385
 31
0.0
  0
LINE
  8
JISSEN
 10
9391.666099
 20
5066.379385
 30
0.0
 11
9391.666099
 21
4916.379385
 31
0.0
  0
LINE
  8
JISSEN
 10
9391.666099
 20
4916.379385
 30
0.0
 11
9280.666099
 21
4916.379385
 31
0.0
  0
LINE
  8
JISSEN
 10
9280.666099
 20
4916.379385
 30
0.0
 11
9269.666099
 21
4901.379385
 31
0.0
  0
LINE
  8
JISSEN
 10
9269.666099
 20
4901.379385
 30
0.0
 11
9241.666099
 21
4901.379385
 31
0.0
  0
LINE
  8
JISSEN
 10
8041.666099
 20
4901.379385
 30
0.0
 11
8041.666099
 21
5043.379385
 31
0.0
  0
LINE
  8
JISSEN
 10
8013.666099
 20
4901.379385
 30
0.0
 11
8041.666099
 21
4901.379385
 31
0.0
  0
LINE
  8
JISSEN
 10
8002.666099
 20
4916.379385
 30
0.0
 11
8013.666099
 21
4901.379385
 31
0.0
  0
LINE
  8
JISSEN
 10
7891.666099
 20
4916.379385
 30
0.0
 11
8002.666099
 21
4916.379385
 31
0.0
  0
LINE
  8
JISSEN
 10
7891.666099
 20
5066.379385
 30
0.0
 11
7891.666099
 21
4916.379385
 31
0.0
  0
LINE
  8
JISSEN
 10
8008.666099
 20
5043.379385
 30
0.0
 11
8041.666099
 21
5043.379385
 31
0.0
  0
LINE
  8
JISSEN
 10
8001.666099
 20
5066.379385
 30
0.0
 11
8008.666099
 21
5043.379385
 31
0.0
  0
LINE
  8
JISSEN
 10
7891.666099
 20
5066.379385
 30
0.0
 11
8001.666099
 21
5066.379385
 31
0.0
  0
LINE
  8
SUNPOU
 10
7657.785806
 20
4917.562879
 30
0.0
 11
7657.785806
 21
4917.562879
 31
0.0
  0
LINE
  8
SUNPOU
 10
7657.785806
 20
5066.379385
 30
0.0
 11
7657.785806
 21
5066.379385
 31
0.0
  0
LINE
  8
SUNPOU
 10
7657.46869
 20
4916.379385
 30
0.0
 11
7657.46869
 21
4916.379385
 31
0.0
  0
LINE
  8
SUNPOU
 10
7657.46869
 20
5066.379385
 30
0.0
 11
7657.46869
 21
5066.379385
 31
0.0
  0
LINE
  8
SUNPOU
 10
7687.46869
 20
4916.379385
 30
0.0
 11
7687.46869
 21
5066.379385
 31
0.0
  0
INSERT
  8
SUNPOU
  2
ARROWANG
 10
7687.46869
 20
4916.379385
 30
0.0
 41
30.0
 42
30.0
 50
270.0
 43
30.0
  0
INSERT
  8
SUNPOU
  2
ARROWANG
 10
7687.46869
 20
5066.379385
 30
0.0
 41
30.0
 42
30.0
 50
90.0
 43
30.0
  0
TEXT
  8
SUNPOU
 10
7642.46869
 20
4923.879385
 30
0.0
 40
45.0
  1
150
 50
90.0
  7
K
 72
     1
 11
7642.46869
 21
4991.379385
 31
0.0
  0
TEXT
  8
TEXT
 10
3877.822622
 20
7655.688513
 30
0.0
 40
300.0
  1
組立マンホール構造図
  7
K
  0
TEXT
  8
TEXT
 10
5266.176265
 20
7112.513856
 30
0.0
 40
150.0
  1
調整リング
  7
K
  0
TEXT
  8
TEXT
 10
1063.845145
 20
5201.42825
 30
0.0
 40
90.0
  1
MR5
  7
K
  0
TEXT
  8
TEXT
 10
2494.412019
 20
5177.420897
 30
0.0
 40
90.0
  1
MR10
  7
K
  0
TEXT
  8
TEXT
 10
2488.774061
 20
4395.362948
 30
0.0
 40
90.0
  1
MR15
  7
K
  0
TEXT
  8
TEXT
 10
4565.422107
 20
5499.573764
 30
0.0
 40
90.0
  1
MR910
  7
K
  0
TEXT
  8
TEXT
 10
6125.25729
 20
5499.573764
 30
0.0
 40
90.0
  1
MR915
  7
K
  0
TEXT
  8
TEXT
 10
8397.354564
 20
5499.573764
 30
0.0
 40
90.0
  1
MR1215
  7
K
  0
TEXT
  8
TEXT
 10
10355.605481
 20
5499.573764
 30
0.0
 40
90.0
  1
MR1220
  7
K
  0
POLYLINE
  8
WAKU
 66
     1
 10
0.0
 20
0.0
 30
0.0
 70
     1
  0
VERTEX
  8
WAKU
 10
0.0
 20
0.0
 30
0.0
  0
VERTEX
  8
WAKU
 10
11850.0
 20
0.0
 30
0.0
  0
VERTEX
  8
WAKU
 10
11850.0
 20
8190.0
 30
0.0
  0
VERTEX
  8
WAKU
 10
0.0
 20
8190.0
 30
0.0
  0
SEQEND
  8
WAKU
  0
TEXT
  8
TEXT
 10
11127.642305
 20
763.420284
 30
0.0
 40
150.0
  1
1/30
  7
K
  0
ENDSEC
  0
EOF
