  0
SECTION
  2
HEADER
  9
$ACADVER
  1
AC1014
  9
$ACADMAINTVER
 70
     0
  9
$DWGCODEPAGE
  3
ANSI_932
  9
$INSBASE
 10
0.0
 20
0.0
 30
0.0
  9
$EXTMIN
 10
0.0
 20
-0.146029
 30
0.0
  9
$EXTMAX
 10
3899.999984
 20
2670.0
 30
0.0
  9
$LIMMIN
 10
0.0
 20
0.0
  9
$LIMMAX
 10
3900.0
 20
2670.0
  9
$ORTHOMODE
 70
     0
  9
$REGENMODE
 70
     1
  9
$FILLMODE
 70
     1
  9
$QTEXTMODE
 70
     0
  9
$MIRRTEXT
 70
     1
  9
$DRAGMODE
 70
     2
  9
$LTSCALE
 40
50.0
  9
$OSMODE
 70
     0
  9
$ATTMODE
 70
     1
  9
$TEXTSIZE
 40
20.0
  9
$TRACEWID
 40
1.0
  9
$TEXTSTYLE
  7
STANDARD
  9
$CLAYER
  8
ITTEN
  9
$CELTYPE
  6
BYLAYER
  9
$CECOLOR
 62
   256
  9
$CELTSCALE
 40
1.0
  9
$DELOBJ
 70
     1
  9
$DISPSILH
 70
     0
  9
$DIMSCALE
 40
10.0
  9
$DIMASZ
 40
2.0
  9
$DIMEXO
 40
1.0
  9
$DIMDLI
 40
6.0
  9
$DIMRND
 40
0.0
  9
$DIMDLE
 40
0.0
  9
$DIMEXE
 40
1.0
  9
$DIMTP
 40
495.0
  9
$DIMTM
 40
0.0
  9
$DIMTXT
 40
2.0
  9
$DIMCEN
 40
0.0
  9
$DIMTSZ
 40
0.0
  9
$DIMTOL
 70
     0
  9
$DIMLIM
 70
     0
  9
$DIMTIH
 70
     0
  9
$DIMTOH
 70
     0
  9
$DIMSE1
 70
     0
  9
$DIMSE2
 70
     0
  9
$DIMTAD
 70
     3
  9
$DIMZIN
 70
     8
  9
$DIMBLK
  1
ARROWANG
  9
$DIMASO
 70
     0
  9
$DIMSHO
 70
     1
  9
$DIMPOST
  1

  9
$DIMAPOST
  1

  9
$DIMALT
 70
     0
  9
$DIMALTD
 70
     2
  9
$DIMALTF
 40
25.4
  9
$DIMLFAC
 40
1.0
  9
$DIMTOFL
 70
     1
  9
$DIMTVP
 40
0.0
  9
$DIMTIX
 70
     1
  9
$DIMSOXD
 70
     0
  9
$DIMSAH
 70
     1
  9
$DIMBLK1
  1
ARROWANG
  9
$DIMBLK2
  1
ARROWANG
  9
$DIMSTYLE
  2
ITM
  9
$DIMCLRD
 70
     0
  9
$DIMCLRE
 70
     0
  9
$DIMCLRT
 70
     0
  9
$DIMTFAC
 40
1.0
  9
$DIMGAP
 40
0.5
  9
$DIMJUST
 70
     0
  9
$DIMSD1
 70
     0
  9
$DIMSD2
 70
     0
  9
$DIMTOLJ
 70
     1
  9
$DIMTZIN
 70
     0
  9
$DIMALTZ
 70
     0
  9
$DIMALTTZ
 70
     0
  9
$DIMFIT
 70
     3
  9
$DIMUPT
 70
     0
  9
$DIMUNIT
 70
     2
  9
$DIMDEC
 70
     4
  9
$DIMTDEC
 70
     4
  9
$DIMALTU
 70
     2
  9
$DIMALTTD
 70
     2
  9
$DIMTXSTY
  7
K
  9
$DIMAUNIT
 70
     0
  9
$LUNITS
 70
     2
  9
$LUPREC
 70
     2
  9
$SKETCHINC
 40
1.0
  9
$FILLETRAD
 40
0.0
  9
$AUNITS
 70
     0
  9
$AUPREC
 70
     0
  9
$MENU
  1
.
  9
$ELEVATION
 40
0.0
  9
$PELEVATION
 40
0.0
  9
$THICKNESS
 40
0.0
  9
$LIMCHECK
 70
     0
  9
$BLIPMODE
 70
     1
  9
$CHAMFERA
 40
10.0
  9
$CHAMFERB
 40
10.0
  9
$CHAMFERC
 40
0.0
  9
$CHAMFERD
 40
0.0
  9
$SKPOLY
 70
     0
  9
$TDCREATE
 40
2452236.316924537
  9
$TDUPDATE
 40
2453291.377815509
  9
$TDINDWG
 40
0.0619876157
  9
$TDUSRTIMER
 40
0.0619876157
  9
$USRTIMER
 70
     1
  9
$ANGBASE
 50
0.0
  9
$ANGDIR
 70
     0
  9
$PDMODE
 70
     0
  9
$PDSIZE
 40
0.0
  9
$PLINEWID
 40
0.0
  9
$COORDS
 70
     1
  9
$SPLFRAME
 70
     0
  9
$SPLINETYPE
 70
     6
  9
$SPLINESEGS
 70
     8
  9
$ATTDIA
 70
     0
  9
$ATTREQ
 70
     1
  9
$HANDLING
 70
     1
  9
$HANDSEED
  5
45F
  9
$SURFTAB1
 70
     6
  9
$SURFTAB2
 70
     6
  9
$SURFTYPE
 70
     6
  9
$SURFU
 70
     6
  9
$SURFV
 70
     6
  9
$UCSNAME
  2

  9
$UCSORG
 10
0.0
 20
0.0
 30
0.0
  9
$UCSXDIR
 10
1.0
 20
0.0
 30
0.0
  9
$UCSYDIR
 10
0.0
 20
1.0
 30
0.0
  9
$PUCSNAME
  2

  9
$PUCSORG
 10
0.0
 20
0.0
 30
0.0
  9
$PUCSXDIR
 10
1.0
 20
0.0
 30
0.0
  9
$PUCSYDIR
 10
0.0
 20
1.0
 30
0.0
  9
$USERI1
 70
     3
  9
$USERI2
 70
     1
  9
$USERI3
 70
    10
  9
$USERI4
 70
     0
  9
$USERI5
 70
     0
  9
$USERR1
 40
10.0
  9
$USERR2
 40
1.0
  9
$USERR3
 40
2.0
  9
$USERR4
 40
2.0
  9
$USERR5
 40
10.0
  9
$WORLDVIEW
 70
     1
  9
$SHADEDGE
 70
     3
  9
$SHADEDIF
 70
    70
  9
$TILEMODE
 70
     1
  9
$MAXACTVP
 70
    16
  9
$PINSBASE
 10
0.0
 20
0.0
 30
0.0
  9
$PLIMCHECK
 70
     0
  9
$PEXTMIN
 10
1.000000E+20
 20
1.000000E+20
 30
1.000000E+20
  9
$PEXTMAX
 10
-1.000000E+20
 20
-1.000000E+20
 30
-1.000000E+20
  9
$PLIMMIN
 10
0.0
 20
0.0
  9
$PLIMMAX
 10
420.0
 20
297.0
  9
$UNITMODE
 70
     0
  9
$VISRETAIN
 70
     0
  9
$PLINEGEN
 70
     0
  9
$PSLTSCALE
 70
     1
  9
$TREEDEPTH
 70
  3020
  9
$PICKSTYLE
 70
     1
  9
$CMLSTYLE
  2
STANDARD
  9
$CMLJUST
 70
     0
  9
$CMLSCALE
 40
1.0
  9
$PROXYGRAPHICS
 70
     1
  9
$MEASUREMENT
 70
     0
  0
ENDSEC
  0
SECTION
  2
CLASSES
  0
CLASS
  1
LWPOLYLINE
  2
AcDbPolyline
  3
"AutoCAD"
 90
        0
280
     0
281
     1
  0
ENDSEC
  0
SECTION
  2
TABLES
  0
TABLE
  2
VPORT
  5
8
100
AcDbSymbolTable
 70
     3
  0
VPORT
  5
45E
100
AcDbSymbolTableRecord
100
AcDbViewportTableRecord
  2
*ACTIVE
 70
     0
 10
0.0
 20
0.0
 11
1.0
 21
1.0
 12
1855.257815
 22
1424.955763
 13
0.0
 23
0.0
 14
10.0
 24
10.0
 15
10.0
 25
10.0
 16
0.0
 26
0.0
 36
1.0
 17
0.0
 27
0.0
 37
0.0
 40
2869.911511
 41
1.624196
 42
50.0
 43
0.0
 44
0.0
 50
0.0
 51
0.0
 71
     0
 72
   100
 73
     1
 74
     1
 75
     0
 76
     0
 77
     0
 78
     0
  0
ENDTAB
  0
TABLE
  2
LTYPE
  5
5
100
AcDbSymbolTable
 70
     5
  0
LTYPE
  5
14
100
AcDbSymbolTableRecord
100
AcDbLinetypeTableRecord
  2
BYBLOCK
 70
     0
  3

 72
    65
 73
     0
 40
0.0
  0
LTYPE
  5
15
100
AcDbSymbolTableRecord
100
AcDbLinetypeTableRecord
  2
BYLAYER
 70
     0
  3

 72
    65
 73
     0
 40
0.0
  0
LTYPE
  5
16
100
AcDbSymbolTableRecord
100
AcDbLinetypeTableRecord
  2
CONTINUOUS
 70
     0
  3
Solid line
 72
    65
 73
     0
 40
0.0
  0
LTYPE
  5
55
100
AcDbSymbolTableRecord
100
AcDbLinetypeTableRecord
  2
DASHED
 70
     0
  3
__ __ __ __ __ __ __ __ __ __ __ __ __ __ __
 72
    65
 73
     2
 40
0.75
 49
0.5
 74
     0
 49
-0.25
 74
     0
  0
LTYPE
  5
56
100
AcDbSymbolTableRecord
100
AcDbLinetypeTableRecord
  2
CENTER
 70
     0
  3
____ _ ____ _ ____ _ ____ _ ____ _ ____ _ ____
 72
    65
 73
     4
 40
2.0
 49
1.25
 74
     0
 49
-0.25
 74
     0
 49
0.25
 74
     0
 49
-0.25
 74
     0
  0
LTYPE
  5
57
100
AcDbSymbolTableRecord
100
AcDbLinetypeTableRecord
  2
PHANTOM
 70
     0
  3
_____ _ _ _____ _ _ _____ _ _ _____ _ _ ____
 72
    65
 73
     6
 40
2.5
 49
1.25
 74
     0
 49
-0.25
 74
     0
 49
0.25
 74
     0
 49
-0.25
 74
     0
 49
0.25
 74
     0
 49
-0.25
 74
     0
  0
LTYPE
  5
58
100
AcDbSymbolTableRecord
100
AcDbLinetypeTableRecord
  2
HIDDEN
 70
     0
  3
_ _ _ _ _ _ _ _ _ _ _ _ _ _ _ _ _ _ _ _ _ _ _
 72
    65
 73
     2
 40
0.375
 49
0.25
 74
     0
 49
-0.125
 74
     0
  0
ENDTAB
  0
TABLE
  2
LAYER
  5
2
100
AcDbSymbolTable
 70
    15
  0
LAYER
  5
F
100
AcDbSymbolTableRecord
100
AcDbLayerTableRecord
  2
0
 70
     0
 62
     7
  6
CONTINUOUS
  0
LAYER
  5
59
100
AcDbSymbolTableRecord
100
AcDbLayerTableRecord
  2
HASEN
 70
     0
 62
     2
  6
DASHED
  0
LAYER
  5
5A
100
AcDbSymbolTableRecord
100
AcDbLayerTableRecord
  2
ITTEN
 70
     0
 62
     1
  6
CENTER
  0
LAYER
  5
5B
100
AcDbSymbolTableRecord
100
AcDbLayerTableRecord
  2
NITEN
 70
     0
 62
     2
  6
PHANTOM
  0
LAYER
  5
5C
100
AcDbSymbolTableRecord
100
AcDbLayerTableRecord
  2
HATCH
 70
     0
 62
     4
  6
CONTINUOUS
  0
LAYER
  5
5D
100
AcDbSymbolTableRecord
100
AcDbLayerTableRecord
  2
SUNPOU
 70
     0
 62
     3
  6
CONTINUOUS
  0
LAYER
  5
5E
100
AcDbSymbolTableRecord
100
AcDbLayerTableRecord
  2
TEXT
 70
     0
 62
     3
  6
CONTINUOUS
  0
LAYER
  5
5F
100
AcDbSymbolTableRecord
100
AcDbLayerTableRecord
  2
SAISEN
 70
     0
 62
     4
  6
CONTINUOUS
  0
LAYER
  5
60
100
AcDbSymbolTableRecord
100
AcDbLayerTableRecord
  2
JISSEN
 70
     0
 62
     7
  6
CONTINUOUS
  0
LAYER
  5
61
100
AcDbSymbolTableRecord
100
AcDbLayerTableRecord
  2
HOJO
 70
     0
 62
     6
  6
CONTINUOUS
  0
LAYER
  5
62
100
AcDbSymbolTableRecord
100
AcDbLayerTableRecord
  2
TENSEN
 70
     0
 62
     2
  6
HIDDEN
  0
LAYER
  5
63
100
AcDbSymbolTableRecord
100
AcDbLayerTableRecord
  2
HOJOORG
 70
     0
 62
     1
  6
CONTINUOUS
  0
LAYER
  5
64
100
AcDbSymbolTableRecord
100
AcDbLayerTableRecord
  2
WAKU
 70
     0
 62
     5
  6
CONTINUOUS
  0
LAYER
  5
65
100
AcDbSymbolTableRecord
100
AcDbLayerTableRecord
  2
POINT
 70
     0
 62
     7
  6
CONTINUOUS
  0
LAYER
  5
80
100
AcDbSymbolTableRecord
100
AcDbLayerTableRecord
  2
SUNPOUT
 70
     0
 62
     3
  6
CONTINUOUS
  0
ENDTAB
  0
TABLE
  2
STYLE
  5
3
100
AcDbSymbolTable
 70
     4
  0
STYLE
  5
10
100
AcDbSymbolTableRecord
100
AcDbTextStyleTableRecord
  2
STANDARD
 70
     0
 40
0.0
 41
1.0
 50
0.0
 71
     0
 42
2.5
  3
ROMANS
  4
EXTFONT
  0
STYLE
  5
66
100
AcDbSymbolTableRecord
100
AcDbTextStyleTableRecord
  2
K
 70
     0
 40
0.0
 41
1.0
 50
0.0
 71
     0
 42
20.0
  3
ROMANS
  4
EXTFONT
  0
STYLE
  5
FC
100
AcDbSymbolTableRecord
100
AcDbTextStyleTableRecord
  2
MSGOTHI-P
 70
     0
 40
0.0
 41
1.0
 50
0.0
 71
     0
 42
1.0
  3
C:\r13\com\fonts\msgothi2.TTF
  4

  0
STYLE
  5
FE
100
AcDbSymbolTableRecord
100
AcDbTextStyleTableRecord
  2
MSMINCH-P
 70
     0
 40
0.0
 41
1.0
 50
0.0
 71
     0
 42
1.0
  3
C:\r13\com\fonts\msminch2.TTF
  4

  0
ENDTAB
  0
TABLE
  2
VIEW
  5
6
100
AcDbSymbolTable
 70
     0
  0
ENDTAB
  0
TABLE
  2
UCS
  5
7
100
AcDbSymbolTable
 70
     0
  0
ENDTAB
  0
TABLE
  2
APPID
  5
9
100
AcDbSymbolTable
 70
     2
  0
APPID
  5
11
100
AcDbSymbolTableRecord
100
AcDbRegAppTableRecord
  2
ACAD
 70
     0
  0
APPID
  5
ED
100
AcDbSymbolTableRecord
100
AcDbRegAppTableRecord
  2
COMM
 70
     0
  0
ENDTAB
  0
TABLE
  2
DIMSTYLE
  5
A
100
AcDbSymbolTable
 70
     9
  0
DIMSTYLE
105
1D
100
AcDbSymbolTableRecord
100
AcDbDimStyleTableRecord
  2
STANDARD
 70
     0
  3

  4

  5

  6

  7

 40
1.0
 41
0.18
 42
0.0625
 43
0.38
 44
0.18
 45
0.0
 46
0.0
 47
0.0
 48
0.0
140
0.18
141
0.09
142
0.0
143
25.4
144
1.0
145
0.0
146
1.0
147
0.09
 71
     0
 72
     0
 73
     1
 74
     1
 75
     0
 76
     0
 77
     0
 78
     0
170
     0
171
     2
172
     0
173
     0
174
     0
175
     0
176
     0
177
     0
178
     0
270
     2
271
     4
272
     4
273
     2
274
     2
340
10
275
     0
280
     0
281
     0
282
     0
283
     1
284
     0
285
     0
286
     0
287
     3
288
     0
  0
DIMSTYLE
105
24
100
AcDbSymbolTableRecord
100
AcDbDimStyleTableRecord
  2
ISO-25
 70
     0
  3

  4

  5

  6

  7

 40
1.0
 41
2.5
 42
0.625
 43
3.75
 44
1.25
 45
0.0
 46
0.0
 47
0.0
 48
0.0
140
2.5
141
2.5
142
0.0
143
0.0394
144
1.0
145
1.0
146
1.0
147
0.625
 71
     0
 72
     0
 73
     1
 74
     0
 75
     0
 76
     0
 77
     1
 78
     8
170
     0
171
     2
172
     1
173
     0
174
     0
175
     0
176
     0
177
     0
178
     0
270
     2
271
     4
272
     4
273
     2
274
     2
340
10
275
     0
280
     0
281
     0
282
     0
283
     1
284
     0
285
     0
286
     0
287
     3
288
     0
  0
DIMSTYLE
105
25
100
AcDbSymbolTableRecord
100
AcDbDimStyleTableRecord
  2
ISO-35
 70
     0
  3

  4

  5

  6

  7

 40
1.0
 41
3.5
 42
0.875
 43
5.25
 44
1.75
 45
0.0
 46
0.0
 47
0.0
 48
0.0
140
3.5
141
3.5
142
0.0
143
0.0394
144
1.0
145
1.4
146
1.0
147
0.875
 71
     0
 72
     0
 73
     1
 74
     0
 75
     0
 76
     0
 77
     1
 78
     8
170
     0
171
     2
172
     1
173
     0
174
     0
175
     0
176
     0
177
     0
178
     0
270
     2
271
     4
272
     4
273
     2
274
     2
340
10
275
     0
280
     0
281
     0
282
     0
283
     1
284
     0
285
     0
286
     0
287
     3
288
     0
  0
DIMSTYLE
105
26
100
AcDbSymbolTableRecord
100
AcDbDimStyleTableRecord
  2
ISO-5
 70
     0
  3

  4

  5

  6

  7

 40
1.0
 41
5.0
 42
1.25
 43
7.5
 44
2.5
 45
0.0
 46
0.0
 47
0.0
 48
0.0
140
5.0
141
5.0
142
0.0
143
0.0394
144
1.0
145
2.0
146
1.0
147
1.25
 71
     0
 72
     0
 73
     1
 74
     0
 75
     0
 76
     0
 77
     1
 78
     8
170
     0
171
     2
172
     1
173
     0
174
     0
175
     0
176
     0
177
     0
178
     0
270
     2
271
     4
272
     4
273
     2
274
     2
340
10
275
     0
280
     0
281
     0
282
     0
283
     1
284
     0
285
     0
286
     0
287
     3
288
     0
  0
DIMSTYLE
105
27
100
AcDbSymbolTableRecord
100
AcDbDimStyleTableRecord
  2
ISO-7
 70
     0
  3

  4

  5

  6

  7

 40
1.0
 41
7.0
 42
1.75
 43
10.5
 44
3.5
 45
0.0
 46
0.0
 47
0.0
 48
0.0
140
7.0
141
7.0
142
0.0
143
0.0394
144
1.0
145
2.8
146
1.0
147
1.75
 71
     0
 72
     0
 73
     1
 74
     0
 75
     0
 76
     0
 77
     1
 78
     8
170
     0
171
     2
172
     1
173
     0
174
     0
175
     0
176
     0
177
     0
178
     0
270
     2
271
     4
272
     4
273
     2
274
     2
340
10
275
     0
280
     0
281
     0
282
     0
283
     1
284
     0
285
     0
286
     0
287
     3
288
     0
  0
DIMSTYLE
105
28
100
AcDbSymbolTableRecord
100
AcDbDimStyleTableRecord
  2
ISO1
 70
     0
  3

  4

  5

  6

  7

 40
1.0
 41
10.0
 42
2.5
 43
15.0
 44
5.0
 45
0.0
 46
0.0
 47
0.0
 48
0.0
140
10.0
141
10.0
142
0.0
143
0.0394
144
1.0
145
4.0
146
1.0
147
2.5
 71
     0
 72
     0
 73
     1
 74
     0
 75
     0
 76
     0
 77
     1
 78
     8
170
     0
171
     2
172
     1
173
     0
174
     0
175
     0
176
     0
177
     0
178
     0
270
     2
271
     4
272
     4
273
     2
274
     2
340
10
275
     0
280
     0
281
     0
282
     0
283
     1
284
     0
285
     0
286
     0
287
     3
288
     0
  0
DIMSTYLE
105
29
100
AcDbSymbolTableRecord
100
AcDbDimStyleTableRecord
  2
ISO1-4
 70
     0
  3

  4

  5

  6

  7

 40
1.0
 41
14.0
 42
3.5
 43
21.0
 44
7.0
 45
0.0
 46
0.0
 47
0.0
 48
0.0
140
14.0
141
14.0
142
0.0
143
0.0394
144
1.0
145
5.6
146
1.0
147
3.5
 71
     0
 72
     0
 73
     1
 74
     0
 75
     0
 76
     0
 77
     1
 78
     8
170
     0
171
     2
172
     1
173
     0
174
     0
175
     0
176
     0
177
     0
178
     0
270
     2
271
     4
272
     4
273
     2
274
     2
340
10
275
     0
280
     0
281
     0
282
     0
283
     1
284
     0
285
     0
286
     0
287
     3
288
     0
  0
DIMSTYLE
105
2A
100
AcDbSymbolTableRecord
100
AcDbDimStyleTableRecord
  2
ISO2
 70
     0
  3

  4

  5

  6

  7

 40
1.0
 41
20.0
 42
5.0
 43
30.0
 44
10.0
 45
0.0
 46
0.0
 47
0.0
 48
0.0
140
20.0
141
20.0
142
0.0
143
0.0394
144
1.0
145
8.0
146
1.0
147
5.0
 71
     0
 72
     0
 73
     1
 74
     0
 75
     0
 76
     0
 77
     1
 78
     8
170
     0
171
     2
172
     1
173
     0
174
     0
175
     0
176
     0
177
     0
178
     0
270
     2
271
     4
272
     4
273
     2
274
     2
340
10
275
     0
280
     0
281
     0
282
     0
283
     1
284
     0
285
     0
286
     0
287
     3
288
     0
  0
DIMSTYLE
105
93
100
AcDbSymbolTableRecord
100
AcDbDimStyleTableRecord
  2
ITM
 70
     0
  3

  4

  5
ARROWANG
  6
ARROWANG
  7
ARROWANG
 40
1.0
 41
1.5
 42
1.0
 43
6.0
 44
1.0
 45
0.0
 46
0.0
 47
495.0
 48
0.0
140
3.0
141
0.0
142
0.0
143
25.4
144
1.0
145
0.0
146
1.0
147
0.5
 71
     0
 72
     0
 73
     0
 74
     0
 75
     0
 76
     0
 77
     3
 78
     8
170
     0
171
     2
172
     1
173
     1
174
     1
175
     0
176
     0
177
     0
178
     0
270
     2
271
     4
272
     4
273
     2
274
     2
340
66
275
     0
280
     0
281
     0
282
     0
283
     1
284
     0
285
     0
286
     0
287
     3
288
     0
  0
ENDTAB
  0
TABLE
  2
BLOCK_RECORD
  5
1
100
AcDbSymbolTable
 70
     6
  0
BLOCK_RECORD
  5
1A
100
AcDbSymbolTableRecord
100
AcDbBlockTableRecord
  2
*MODEL_SPACE
  0
BLOCK_RECORD
  5
17
100
AcDbSymbolTableRecord
100
AcDbBlockTableRecord
  2
*PAPER_SPACE
  0
BLOCK_RECORD
  5
2F
100
AcDbSymbolTableRecord
100
AcDbBlockTableRecord
  2
ARROW
  0
BLOCK_RECORD
  5
41
100
AcDbSymbolTableRecord
100
AcDbBlockTableRecord
  2
WAKU
  0
BLOCK_RECORD
  5
50
100
AcDbSymbolTableRecord
100
AcDbBlockTableRecord
  2
ARROWANG
  0
BLOCK_RECORD
  5
E1
100
AcDbSymbolTableRecord
100
AcDbBlockTableRecord
  2
DOT
  0
BLOCK_RECORD
  5
2C9
100
AcDbSymbolTableRecord
100
AcDbBlockTableRecord
  2
A$C9255
  0
BLOCK_RECORD
  5
409
100
AcDbSymbolTableRecord
100
AcDbBlockTableRecord
  2
A$C12E2
  0
ENDTAB
  0
ENDSEC
  0
SECTION
  2
BLOCKS
  0
BLOCK
  5
1B
100
AcDbEntity
  8
0
100
AcDbBlockBegin
  2
*MODEL_SPACE
 70
     0
 10
0.0
 20
0.0
 30
0.0
  3
*MODEL_SPACE
  1

  0
ENDBLK
  5
1C
100
AcDbEntity
  8
0
100
AcDbBlockEnd
  0
BLOCK
  5
18
100
AcDbEntity
 67
     1
  8
0
100
AcDbBlockBegin
  2
*PAPER_SPACE
 70
     0
 10
0.0
 20
0.0
 30
0.0
  3
*PAPER_SPACE
  1

  0
ENDBLK
  5
19
100
AcDbEntity
 67
     1
  8
0
100
AcDbBlockEnd
  0
BLOCK
  5
33
100
AcDbEntity
  8
0
100
AcDbBlockBegin
  2
ARROW
 70
     0
 10
1.0
 20
0.5
 30
0.0
  3
ARROW
  1

  0
LINE
  5
30
100
AcDbEntity
  8
0
100
AcDbLine
 10
1.0
 20
0.5
 30
0.0
 11
-0.5
 21
0.098076
 31
0.0
  0
LINE
  5
31
100
AcDbEntity
  8
0
100
AcDbLine
 10
0.0
 20
0.5
 30
0.0
 11
1.0
 21
0.5
 31
0.0
  0
LINE
  5
32
100
AcDbEntity
  8
0
100
AcDbLine
 10
1.0
 20
0.5
 30
0.0
 11
-0.5
 21
0.901924
 31
0.0
  0
ENDBLK
  5
34
100
AcDbEntity
  8
0
100
AcDbBlockEnd
  0
BLOCK
  5
D1
100
AcDbEntity
  8
0
100
AcDbBlockBegin
  2
WAKU
 70
     0
 10
0.0
 20
0.0
 30
0.0
  3
WAKU
  1

  0
LINE
  5
D2
100
AcDbEntity
  8
0
100
AcDbLine
 10
0.0
 20
0.0
 30
0.0
 11
0.0
 21
1.0
 31
0.0
  0
LINE
  5
D3
100
AcDbEntity
  8
0
100
AcDbLine
 10
1.0
 20
0.0
 30
0.0
 11
1.0
 21
1.0
 31
0.0
  0
LINE
  5
D4
100
AcDbEntity
  8
0
100
AcDbLine
 10
0.0
 20
1.0
 30
0.0
 11
1.0
 21
1.0
 31
0.0
  0
LINE
  5
D5
100
AcDbEntity
  8
0
100
AcDbLine
 10
1.0
 20
0.0
 30
0.0
 11
0.0
 21
0.0
 31
0.0
  0
ENDBLK
  5
D6
100
AcDbEntity
  8
0
100
AcDbBlockEnd
  0
BLOCK
  5
C8
100
AcDbEntity
  8
0
100
AcDbBlockBegin
  2
ARROWANG
 70
     0
 10
0.0
 20
0.0
 30
0.0
  3
ARROWANG
  1

  0
LINE
  5
C9
100
AcDbEntity
  8
0
100
AcDbLine
 10
0.0
 20
0.0
 30
0.0
 11
-1.5
 21
0.401924
 31
0.0
  0
LINE
  5
CA
100
AcDbEntity
  8
0
100
AcDbLine
 10
0.0
 20
0.0
 30
0.0
 11
-1.5
 21
-0.401924
 31
0.0
  0
ENDBLK
  5
CB
100
AcDbEntity
  8
0
100
AcDbBlockEnd
  0
BLOCK
  5
E2
100
AcDbEntity
  8
0
100
AcDbBlockBegin
  2
DOT
 70
     0
 10
0.0
 20
0.0
 30
0.0
  3
DOT
  1

  0
LINE
  5
E3
100
AcDbEntity
  8
JISSEN
100
AcDbLine
 10
0.0
 20
0.0
 30
0.0
 11
-1.0
 21
0.0
 31
0.0
  0
LWPOLYLINE
  5
E4
100
AcDbEntity
  8
JISSEN
100
AcDbPolyline
 90
        2
 70
     1
 43
0.5
 10
-0.25
 20
0.0
 42
1.0
 10
0.25
 20
0.0
 42
1.0
  0
ENDBLK
  5
E8
100
AcDbEntity
  8
0
100
AcDbBlockEnd
  0
BLOCK
  5
407
100
AcDbEntity
  8
0
100
AcDbBlockBegin
  2
A$C9255
 70
     0
 10
0.0
 20
0.0
 30
0.0
  3
A$C9255
  1

  0
LINE
  5
2CA
100
AcDbEntity
  8
SAISEN
100
AcDbLine
 10
1.058497
 20
4.562049
 30
0.0
 11
0.464497
 21
3.148436
 31
0.0
1001
ACAD
1000
ASC_BOUNDS
1002
{
1070
    19
1002
}
  0
LINE
  5
2CB
100
AcDbEntity
  8
SAISEN
100
AcDbLine
 10
0.464497
 20
3.148436
 30
0.0
 11
0.464497
 21
2.186049
 31
0.0
1001
ACAD
1000
ASC_BOUNDS
1002
{
1070
    19
1002
}
  0
LINE
  5
2CC
100
AcDbEntity
  8
SAISEN
100
AcDbLine
 10
0.464497
 20
2.186049
 30
0.0
 11
1.058497
 21
3.506049
 31
0.0
1001
ACAD
1000
ASC_BOUNDS
1002
{
1070
    19
1002
}
  0
LINE
  5
2CD
100
AcDbEntity
  8
SAISEN
100
AcDbLine
 10
1.586497
 20
4.562049
 30
0.0
 11
1.976248
 21
3.634511
 31
0.0
1001
ACAD
1000
ASC_BOUNDS
1002
{
1070
    19
1002
}
  0
LINE
  5
2CE
100
AcDbEntity
  8
SAISEN
100
AcDbLine
 10
1.976248
 20
2.639935
 30
0.0
 11
1.586497
 21
3.506049
 31
0.0
1001
ACAD
1000
ASC_BOUNDS
1002
{
1070
    19
1002
}
  0
LINE
  5
2CF
100
AcDbEntity
  8
SAISEN
100
AcDbLine
 10
1.976248
 20
3.634511
 30
0.0
 11
1.976248
 21
2.639935
 31
0.0
1001
ACAD
1000
ASC_BOUNDS
1002
{
1070
    19
1002
}
  0
LWPOLYLINE
  5
2D0
100
AcDbEntity
  8
SAISEN
100
AcDbPolyline
 90
        5
 70
     0
 43
0.0
 10
1.058497
 20
4.562049
 10
1.058497
 20
4.562049
 10
0.464497
 20
4.562049
 10
0.464497
 20
4.562049
 10
0.464497
 20
5.090049
1001
ACAD
1000
ASC_BOUNDS
1002
{
1070
    19
1002
}
  0
LWPOLYLINE
  5
2D7
100
AcDbEntity
  8
SAISEN
100
AcDbPolyline
 90
       14
 70
     0
 43
0.0
 10
0.464497
 20
5.090049
 10
1.058497
 20
5.090049
 10
1.058497
 20
5.090049
 10
1.058497
 20
5.618049
 10
1.058497
 20
5.618049
 10
1.586497
 20
5.618049
 10
1.586497
 20
5.618049
 10
1.586497
 20
5.090049
 10
1.586497
 20
5.090049
 10
1.976248
 20
5.090049
 10
1.976248
 20
5.090049
 10
1.976248
 20
4.562049
 10
1.976248
 20
4.562049
 10
1.586497
 20
4.562049
1001
ACAD
1000
ASC_BOUNDS
1002
{
1070
    19
1002
}
  0
LWPOLYLINE
  5
2E7
100
AcDbEntity
  8
SAISEN
100
AcDbPolyline
 90
        6
 70
     0
 43
0.0
 10
1.586497
 20
3.506049
 10
1.586497
 20
0.998049
 10
1.586497
 20
0.998049
 10
1.058497
 20
0.998049
 10
1.058497
 20
0.998049
 10
1.058497
 20
3.506049
1001
ACAD
1000
ASC_BOUNDS
1002
{
1070
    19
1002
}
  0
LINE
  5
2EF
100
AcDbEntity
  8
SAISEN
100
AcDbLine
 10
3.461248
 20
5.618049
 30
0.0
 11
3.461248
 21
5.090049
 31
0.0
1001
ACAD
1000
ASC_BOUNDS
1002
{
1070
    19
1002
}
  0
LINE
  5
2F0
100
AcDbEntity
  8
SAISEN
100
AcDbLine
 10
3.461248
 20
0.998049
 30
0.0
 11
3.989248
 21
0.998049
 31
0.0
1001
ACAD
1000
ASC_BOUNDS
1002
{
1070
    19
1002
}
  0
LINE
  5
2F1
100
AcDbEntity
  8
SAISEN
100
AcDbLine
 10
3.989248
 20
0.998049
 30
0.0
 11
3.989248
 21
2.427372
 31
0.0
1001
ACAD
1000
ASC_BOUNDS
1002
{
1070
    19
1002
}
  0
LINE
  5
2F2
100
AcDbEntity
  8
SAISEN
100
AcDbLine
 10
3.989248
 20
5.618049
 30
0.0
 11
3.461248
 21
5.618049
 31
0.0
1001
ACAD
1000
ASC_BOUNDS
1002
{
1070
    19
1002
}
  0
ARC
  5
2F3
100
AcDbEntity
  8
SAISEN
100
AcDbCircle
 10
-0.613703
 20
4.723638
 30
0.0
 40
4.176948
100
AcDbArc
 50
315.62389
 51
343.052094
1001
ACAD
1000
ASC_BOUNDS
1002
{
1070
    19
1002
}
  0
ARC
  5
2F4
100
AcDbEntity
  8
SAISEN
100
AcDbCircle
 10
0.910004
 20
3.231193
 30
0.0
 40
2.669286
100
AcDbArc
 50
303.216426
 51
342.47408
1001
ACAD
1000
ASC_BOUNDS
1002
{
1070
    19
1002
}
  0
ARC
  5
2F5
100
AcDbEntity
  8
SAISEN
100
AcDbCircle
 10
6.540491
 20
3.231193
 30
0.0
 40
2.669286
100
AcDbArc
 50
197.52592
 51
236.783574
1001
ACAD
1000
ASC_BOUNDS
1002
{
1070
    19
1002
}
  0
LINE
  5
2F6
100
AcDbEntity
  8
SAISEN
100
AcDbLine
 10
2.371831
 20
1.802425
 30
0.0
 11
2.372248
 21
0.998049
 31
0.0
1001
ACAD
1000
ASC_BOUNDS
1002
{
1070
    19
1002
}
  0
LINE
  5
2F7
100
AcDbEntity
  8
SAISEN
100
AcDbLine
 10
5.084497
 20
0.998049
 30
0.0
 11
5.084301
 21
1.809263
 31
0.0
1001
ACAD
1000
ASC_BOUNDS
1002
{
1070
    19
1002
}
  0
LWPOLYLINE
  5
2F8
100
AcDbEntity
  8
SAISEN
100
AcDbPolyline
 90
        4
 70
     0
 43
0.0
 10
2.372248
 20
4.034049
 10
2.372248
 20
3.506049
 10
2.372248
 20
3.506049
 10
3.381841
 20
3.506049
1001
ACAD
1000
ASC_BOUNDS
1002
{
1070
    19
1002
}
  0
ARC
  5
2FE
100
AcDbEntity
  8
SAISEN
100
AcDbCircle
 10
8.052877
 20
4.760204
 30
0.0
 40
4.185749
100
AcDbArc
 50
197.43508
 51
224.829305
1001
ACAD
1000
ASC_BOUNDS
1002
{
1070
    19
1002
}
  0
LWPOLYLINE
  5
2FF
100
AcDbEntity
  8
SAISEN
100
AcDbPolyline
 90
        4
 70
     0
 43
0.0
 10
3.461248
 20
5.090049
 10
2.900248
 20
5.090049
 10
2.900248
 20
5.090049
 10
2.900248
 20
5.618049
1001
ACAD
1000
ASC_BOUNDS
1002
{
1070
    19
1002
}
  0
LWPOLYLINE
  5
305
100
AcDbEntity
  8
SAISEN
100
AcDbPolyline
 90
        6
 70
     0
 43
0.0
 10
2.900248
 20
5.618049
 10
2.372248
 20
5.618049
 10
2.372248
 20
5.618049
 10
2.372248
 20
4.958049
 42
0.414214
 10
2.768248
 20
4.562049
 10
3.461248
 20
4.562049
1001
ACAD
1000
ASC_BOUNDS
1002
{
1070
    19
1002
}
  0
LWPOLYLINE
  5
30D
100
AcDbEntity
  8
SAISEN
100
AcDbPolyline
 90
        6
 70
     0
 43
0.0
 10
3.989248
 20
4.562049
 10
5.084497
 20
4.562049
 10
5.084497
 20
4.562049
 10
5.084497
 20
5.090049
 10
5.084497
 20
5.090049
 10
3.989248
 20
5.090049
1001
ACAD
1000
ASC_BOUNDS
1002
{
1070
    19
1002
}
  0
LINE
  5
315
100
AcDbEntity
  8
SAISEN
100
AcDbLine
 10
3.461248
 20
4.562049
 30
0.0
 11
3.461248
 21
4.034049
 31
0.0
1001
ACAD
1000
ASC_BOUNDS
1002
{
1070
    19
1002
}
  0
LINE
  5
316
100
AcDbEntity
  8
SAISEN
100
AcDbLine
 10
3.989248
 20
5.090049
 30
0.0
 11
3.989248
 21
5.618049
 31
0.0
1001
ACAD
1000
ASC_BOUNDS
1002
{
1070
    19
1002
}
  0
LWPOLYLINE
  5
317
100
AcDbEntity
  8
SAISEN
100
AcDbPolyline
 90
        6
 70
     0
 43
0.0
 10
4.059433
 20
3.506049
 10
5.084497
 20
3.506049
 10
5.084497
 20
3.506049
 10
5.084497
 20
4.034049
 10
5.084497
 20
4.034049
 10
3.989248
 20
4.034049
1001
ACAD
1000
ASC_BOUNDS
1002
{
1070
    19
1002
}
  0
LWPOLYLINE
  5
31F
100
AcDbEntity
  8
SAISEN
100
AcDbPolyline
 90
        2
 70
     0
 43
0.0
 10
3.461248
 20
4.034049
 10
2.372248
 20
4.034049
1001
ACAD
1000
ASC_BOUNDS
1002
{
1070
    19
1002
}
  0
LINE
  5
323
100
AcDbEntity
  8
SAISEN
100
AcDbLine
 10
3.461248
 20
2.427372
 30
0.0
 11
3.461248
 21
0.998049
 31
0.0
1001
ACAD
1000
ASC_BOUNDS
1002
{
1070
    19
1002
}
  0
LINE
  5
324
100
AcDbEntity
  8
SAISEN
100
AcDbLine
 10
3.989248
 20
4.034049
 30
0.0
 11
3.989248
 21
4.562049
 31
0.0
1001
ACAD
1000
ASC_BOUNDS
1002
{
1070
    19
1002
}
  0
ARC
  5
325
100
AcDbEntity
  8
SAISEN
100
AcDbCircle
 10
11.32362
 20
3.573622
 30
0.0
 40
2.880176
100
AcDbArc
 50
175.989499
 51
243.411158
1001
ACAD
1000
ASC_BOUNDS
1002
{
1070
    19
1002
}
  0
ARC
  5
326
100
AcDbEntity
  8
SAISEN
100
AcDbCircle
 10
11.417431
 20
3.598447
 30
0.0
 40
2.44532
100
AcDbArc
 50
175.858224
 51
235.559986
1001
ACAD
1000
ASC_BOUNDS
1002
{
1070
    19
1002
}
  0
LWPOLYLINE
  5
327
100
AcDbEntity
  8
SAISEN
100
AcDbPolyline
 90
       10
 70
     0
 43
0.0
 10
6.998497
 20
3.247059
 10
8.054497
 20
3.247059
 10
8.054497
 20
3.775059
 10
5.414497
 20
3.775059
 10
5.414497
 20
3.247059
 10
6.470497
 20
3.247059
 10
6.470497
 20
1.526049
 10
5.414497
 20
1.526049
 10
5.414497
 20
0.998049
 10
6.470497
 20
0.998049
1001
ACAD
1000
ASC_BOUNDS
1002
{
1070
    19
1002
}
  0
ARC
  5
333
100
AcDbEntity
  8
SAISEN
100
AcDbCircle
 10
6.511428
 20
9.108622
 30
0.0
 40
8.110677
100
AcDbArc
 50
269.710851
 51
283.832017
1001
ACAD
1000
ASC_BOUNDS
1002
{
1070
    19
1002
}
  0
ARC
  5
334
100
AcDbEntity
  8
SAISEN
100
AcDbCircle
 10
6.511428
 20
9.636622
 30
0.0
 40
8.110677
100
AcDbArc
 50
269.710851
 51
269.710851
1001
ACAD
1000
ASC_BOUNDS
1002
{
1070
    19
1002
}
  0
LINE
  5
335
100
AcDbEntity
  8
SAISEN
100
AcDbLine
 10
8.450497
 20
1.761148
 30
0.0
 11
8.450497
 21
1.233148
 31
0.0
1001
ACAD
1000
ASC_BOUNDS
1002
{
1070
    19
1002
}
  0
LINE
  5
336
100
AcDbEntity
  8
SAISEN
100
AcDbLine
 10
6.998497
 20
1.526049
 30
0.0
 11
6.998497
 21
3.247059
 31
0.0
1001
ACAD
1000
ASC_BOUNDS
1002
{
1070
    19
1002
}
  0
ARC
  5
337
100
AcDbEntity
  8
SAISEN
100
AcDbCircle
 10
6.511428
 20
9.636622
 30
0.0
 40
8.110677
100
AcDbArc
 50
273.436689
 51
283.832017
1001
ACAD
1000
ASC_BOUNDS
1002
{
1070
    19
1002
}
  0
LINE
  5
338
100
AcDbEntity
  8
SAISEN
100
AcDbLine
 10
10.034497
 20
1.581745
 30
0.0
 11
10.034497
 21
0.998049
 31
0.0
1001
ACAD
1000
ASC_BOUNDS
1002
{
1070
    19
1002
}
  0
LINE
  5
339
100
AcDbEntity
  8
SAISEN
100
AcDbLine
 10
5.414497
 20
5.090049
 30
0.0
 11
5.414497
 21
4.562049
 31
0.0
1001
ACAD
1000
ASC_BOUNDS
1002
{
1070
    19
1002
}
  0
LWPOLYLINE
  5
33A
100
AcDbEntity
  8
SAISEN
100
AcDbPolyline
 90
        2
 70
     0
 43
0.0
 10
5.414497
 20
5.090049
 10
8.450497
 20
5.090049
1001
ACAD
1000
ASC_BOUNDS
1002
{
1070
    19
1002
}
  0
LWPOLYLINE
  5
33E
100
AcDbEntity
  8
SAISEN
100
AcDbPolyline
 90
        2
 70
     0
 43
0.0
 10
8.450497
 20
3.775059
 10
8.450497
 20
4.562049
1001
ACAD
1000
ASC_BOUNDS
1002
{
1070
    19
1002
}
  0
LWPOLYLINE
  5
342
100
AcDbEntity
  8
SAISEN
100
AcDbPolyline
 90
        7
 70
     0
 43
0.0
 10
8.978497
 20
5.090049
 10
9.506497
 20
5.090049
 10
9.506497
 20
5.618049
 10
10.034497
 20
5.618049
 10
10.034497
 20
4.958049
 42
-0.414214
 10
9.638497
 20
4.562049
 10
8.978497
 20
4.562049
1001
ACAD
1000
ASC_BOUNDS
1002
{
1070
    19
1002
}
  0
LWPOLYLINE
  5
34B
100
AcDbEntity
  8
SAISEN
100
AcDbPolyline
 90
        2
 70
     0
 43
0.0
 10
8.450497
 20
4.562049
 10
5.414497
 20
4.562049
1001
ACAD
1000
ASC_BOUNDS
1002
{
1070
    19
1002
}
  0
LWPOLYLINE
  5
34F
100
AcDbEntity
  8
SAISEN
100
AcDbPolyline
 90
        6
 70
     0
 43
0.0
 10
8.450497
 20
5.090049
 10
8.450497
 20
5.618049
 10
8.450497
 20
5.618049
 10
8.978497
 20
5.618049
 10
8.978497
 20
5.618049
 10
8.978497
 20
5.090049
1001
ACAD
1000
ASC_BOUNDS
1002
{
1070
    19
1002
}
  0
LWPOLYLINE
  5
357
100
AcDbEntity
  8
SAISEN
100
AcDbPolyline
 90
        2
 70
     0
 43
0.0
 10
8.978497
 20
4.562049
 10
8.978497
 20
3.775059
1001
ACAD
1000
ASC_BOUNDS
1002
{
1070
    19
1002
}
  0
LWPOLYLINE
  5
35B
100
AcDbEntity
  8
SAISEN
100
AcDbPolyline
 90
        5
 70
     1
 43
0.0
 10
10.892497
 20
4.303059
 10
14.324497
 20
4.303059
 42
-0.414214
 10
14.456497
 20
4.171059
 10
14.456497
 20
3.775059
 10
10.892497
 20
3.775059
1001
ACAD
1000
ASC_BOUNDS
1002
{
1070
    19
1002
}
  0
ARC
  5
362
100
AcDbEntity
  8
SAISEN
100
AcDbCircle
 10
9.886883
 20
8.453505
 30
0.0
 40
3.791491
100
AcDbArc
 50
277.236775
 51
311.595744
1001
ACAD
1000
ASC_BOUNDS
1002
{
1070
    19
1002
}
  0
ARC
  5
363
100
AcDbEntity
  8
SAISEN
100
AcDbCircle
 10
9.973848
 20
7.981576
 30
0.0
 40
3.791491
100
AcDbArc
 50
275.913845
 51
315.4217
1001
ACAD
1000
ASC_BOUNDS
1002
{
1070
    19
1002
}
  0
ARC
  5
364
100
AcDbEntity
  8
SAISEN
100
AcDbCircle
 10
15.462111
 20
8.453505
 30
0.0
 40
3.791491
100
AcDbArc
 50
228.404256
 51
262.763225
1001
ACAD
1000
ASC_BOUNDS
1002
{
1070
    19
1002
}
  0
ARC
  5
365
100
AcDbEntity
  8
SAISEN
100
AcDbCircle
 10
9.973848
 20
7.981576
 30
0.0
 40
3.791491
100
AcDbArc
 50
321.436848
 51
321.436848
1001
ACAD
1000
ASC_BOUNDS
1002
{
1070
    19
1002
}
  0
ARC
  5
366
100
AcDbEntity
  8
SAISEN
100
AcDbCircle
 10
15.375145
 20
7.981576
 30
0.0
 40
3.791491
100
AcDbArc
 50
224.5783
 51
264.086155
1001
ACAD
1000
ASC_BOUNDS
1002
{
1070
    19
1002
}
  0
LINE
  5
367
100
AcDbEntity
  8
SAISEN
100
AcDbLine
 10
12.403942
 20
5.618049
 30
0.0
 11
12.945051
 21
5.618049
 31
0.0
1001
ACAD
1000
ASC_BOUNDS
1002
{
1070
    19
1002
}
  0
LINE
  5
368
100
AcDbEntity
  8
SAISEN
100
AcDbLine
 10
10.364497
 20
4.692217
 30
0.0
 11
10.364497
 21
4.210264
 31
0.0
1001
ACAD
1000
ASC_BOUNDS
1002
{
1070
    19
1002
}
  0
LINE
  5
369
100
AcDbEntity
  8
SAISEN
100
AcDbLine
 10
14.984497
 20
4.210264
 30
0.0
 11
14.984497
 21
4.692217
 31
0.0
1001
ACAD
1000
ASC_BOUNDS
1002
{
1070
    19
1002
}
  0
LINE
  5
36A
100
AcDbEntity
  8
SAISEN
100
AcDbLine
 10
14.592296
 20
1.608179
 30
0.0
 11
14.305685
 21
2.054049
 31
0.0
1001
ACAD
1000
ASC_BOUNDS
1002
{
1070
    19
1002
}
  0
LINE
  5
36B
100
AcDbEntity
  8
SAISEN
100
AcDbLine
 10
14.001763
 20
1.526049
 30
0.0
 11
13.662357
 21
2.054049
 31
0.0
1001
ACAD
1000
ASC_BOUNDS
1002
{
1070
    19
1002
}
  0
LWPOLYLINE
  5
36C
100
AcDbEntity
  8
SAISEN
100
AcDbPolyline
 90
        4
 70
     0
 43
0.0
 10
10.364497
 20
3.247059
 10
14.984497
 20
3.247059
 10
14.984497
 20
2.719059
 10
12.114114
 20
2.719059
1001
ACAD
1000
ASC_BOUNDS
1002
{
1070
    19
1002
}
  0
LWPOLYLINE
  5
372
100
AcDbEntity
  8
SAISEN
100
AcDbPolyline
 90
        3
 70
     0
 43
0.0
 10
11.470787
 20
2.719059
 10
10.364497
 20
2.719059
 10
10.364497
 20
3.247059
1001
ACAD
1000
ASC_BOUNDS
1002
{
1070
    19
1002
}
  0
LINE
  5
377
100
AcDbEntity
  8
SAISEN
100
AcDbLine
 10
11.34723
 20
1.526049
 30
0.0
 11
14.001763
 21
1.526049
 31
0.0
1001
ACAD
1000
ASC_BOUNDS
1002
{
1070
    19
1002
}
  0
LINE
  5
378
100
AcDbEntity
  8
SAISEN
100
AcDbLine
 10
11.08981
 20
0.998049
 30
0.0
 11
14.259183
 21
0.998049
 31
0.0
1001
ACAD
1000
ASC_BOUNDS
1002
{
1070
    19
1002
}
  0
LINE
  5
379
100
AcDbEntity
  8
SAISEN
100
AcDbLine
 10
11.470787
 20
2.719059
 30
0.0
 11
10.756697
 21
1.608179
 31
0.0
1001
ACAD
1000
ASC_BOUNDS
1002
{
1070
    19
1002
}
  0
LINE
  5
37A
100
AcDbEntity
  8
SAISEN
100
AcDbLine
 10
12.114114
 20
2.719059
 30
0.0
 11
11.34723
 21
1.526049
 31
0.0
1001
ACAD
1000
ASC_BOUNDS
1002
{
1070
    19
1002
}
  0
ARC
  5
37B
100
AcDbEntity
  8
SAISEN
100
AcDbCircle
 10
11.08981
 20
1.394049
 30
0.0
 40
0.396
100
AcDbArc
 50
147.266508
 51
270.0
1001
ACAD
1000
ASC_BOUNDS
1002
{
1070
    19
1002
}
  0
ARC
  5
37C
100
AcDbEntity
  8
SAISEN
100
AcDbCircle
 10
14.259183
 20
1.394049
 30
0.0
 40
0.396
100
AcDbArc
 50
270.0
 51
32.733492
1001
ACAD
1000
ASC_BOUNDS
1002
{
1070
    19
1002
}
  0
LINE
  5
37D
100
AcDbEntity
  8
SAISEN
100
AcDbLine
 10
13.662357
 20
2.054049
 30
0.0
 11
14.305685
 21
2.054049
 31
0.0
1001
ACAD
1000
ASC_BOUNDS
1002
{
1070
    19
1002
}
  0
LWPOLYLINE
  5
37E
100
AcDbEntity
  8
SAISEN
100
AcDbPolyline
 90
        5
 70
     0
 43
0.0
 10
16.304497
 20
4.562049
 10
16.304497
 20
4.562049
 10
15.320746
 20
4.562049
 10
15.320746
 20
4.562049
 10
15.320746
 20
5.090049
1001
ACAD
1000
ASC_BOUNDS
1002
{
1070
    19
1002
}
  0
ARC
  5
385
100
AcDbEntity
  8
SAISEN
100
AcDbCircle
 10
12.871293
 20
5.398885
 30
0.0
 40
3.533721
100
AcDbArc
 50
313.881195
 51
346.301397
1001
ACAD
1000
ASC_BOUNDS
1002
{
1070
    19
1002
}
  0
LINE
  5
386
100
AcDbEntity
  8
SAISEN
100
AcDbLine
 10
15.320746
 20
2.851855
 30
0.0
 11
15.320746
 21
2.186049
 31
0.0
1001
ACAD
1000
ASC_BOUNDS
1002
{
1070
    19
1002
}
  0
LWPOLYLINE
  5
387
100
AcDbEntity
  8
SAISEN
100
AcDbPolyline
 90
       17
 70
     0
 43
0.0
 10
17.393497
 20
5.090049
 10
17.393497
 20
4.562049
 10
18.317497
 20
4.562049
 10
18.317497
 20
1.526049
 10
17.135746
 20
1.526049
 10
17.135746
 20
0.998049
 10
19.940746
 20
0.998049
 10
19.940746
 20
1.526049
 10
18.845497
 20
1.526049
 10
18.845497
 20
4.562049
 10
19.940746
 20
4.562049
 10
19.940746
 20
5.090049
 10
18.845497
 20
5.090049
 10
18.845497
 20
5.618049
 10
18.317497
 20
5.618049
 10
18.317497
 20
5.090049
 10
17.393497
 20
5.090049
1001
ACAD
1000
ASC_BOUNDS
1002
{
1070
    19
1002
}
  0
ARC
  5
39A
100
AcDbEntity
  8
SAISEN
100
AcDbCircle
 10
12.683574
 20
5.788977
 30
0.0
 40
4.464949
100
AcDbArc
 50
306.202341
 51
316.358725
1001
ACAD
1000
ASC_BOUNDS
1002
{
1070
    19
1002
}
  0
LINE
  5
39B
100
AcDbEntity
  8
SAISEN
100
AcDbLine
 10
17.036746
 20
2.851855
 30
0.0
 11
17.036746
 21
2.186049
 31
0.0
1001
ACAD
1000
ASC_BOUNDS
1002
{
1070
    19
1002
}
  0
ARC
  5
39C
100
AcDbEntity
  8
SAISEN
100
AcDbCircle
 10
19.479185
 20
5.378823
 30
0.0
 40
3.51441
100
AcDbArc
 50
211.170813
 51
225.974507
1001
ACAD
1000
ASC_BOUNDS
1002
{
1070
    19
1002
}
  0
ARC
  5
39D
100
AcDbEntity
  8
SAISEN
100
AcDbCircle
 10
19.784769
 20
5.658718
 30
0.0
 40
4.428438
100
AcDbArc
 50
221.003188
 51
231.644421
1001
ACAD
1000
ASC_BOUNDS
1002
{
1070
    19
1002
}
  0
LWPOLYLINE
  5
39E
100
AcDbEntity
  8
SAISEN
100
AcDbPolyline
 90
       10
 70
     0
 43
0.0
 10
15.320746
 20
5.090049
 10
15.914746
 20
5.090049
 10
15.914746
 20
5.090049
 10
15.914746
 20
5.618049
 10
15.914746
 20
5.618049
 10
16.442746
 20
5.618049
 10
16.442746
 20
5.618049
 10
16.442746
 20
5.090049
 10
16.442746
 20
5.090049
 10
16.964497
 20
5.090049
1001
ACAD
1000
ASC_BOUNDS
1002
{
1070
    19
1002
}
  0
ARC
  5
3AA
100
AcDbEntity
  8
SAISEN
100
AcDbCircle
 10
12.572722
 20
5.658718
 30
0.0
 40
4.428438
100
AcDbArc
 50
331.708042
 51
352.622097
1001
ACAD
1000
ASC_BOUNDS
1002
{
1070
    19
1002
}
  0
LWPOLYLINE
  5
3AB
100
AcDbEntity
  8
SAISEN
100
AcDbPolyline
 90
        6
 70
     0
 43
0.0
 10
16.442746
 20
2.753216
 10
16.442746
 20
0.998049
 10
16.442746
 20
0.998049
 10
15.914746
 20
0.998049
 10
15.914746
 20
0.998049
 10
15.914746
 20
2.707533
1001
ACAD
1000
ASC_BOUNDS
1002
{
1070
    19
1002
}
  0
LWPOLYLINE
  5
3B3
100
AcDbEntity
  8
SAISEN
100
AcDbPolyline
 90
       11
 70
     0
 43
0.0
 10
53.26884
 20
4.940179
 10
49.359135
 20
4.940179
 10
49.359135
 20
6.066522
 10
54.420165
 20
6.066522
 42
-0.146772
 10
53.748559
 20
2.879212
 10
55.523517
 20
0.33895
 10
54.204291
 20
0.33895
 10
53.004995
 20
2.016481
 42
-0.224149
 10
49.239206
 20
0.314985
 10
49.239206
 20
1.321504
 42
0.369879
 10
53.26884
 20
4.940179
 42
9.304636
  0
LWPOLYLINE
  5
3C0
100
AcDbEntity
  8
SAISEN
100
AcDbPolyline
 90
        9
 70
     0
 43
0.0
 10
43.760831
 20
6.044917
 10
48.486057
 20
6.044917
 42
-0.515276
 10
42.657479
 20
0.34131
 10
42.657479
 20
1.275934
 42
0.445156
 10
47.382705
 20
4.990468
 10
44.600338
 20
4.990468
 42
-0.349892
 10
42.201746
 20
3.312937
 10
42.201746
 20
4.295491
 42
0.407785
 10
43.760831
 20
6.044917
 42
-4.15231
  0
LWPOLYLINE
  5
3CB
100
AcDbEntity
  8
SAISEN
100
AcDbPolyline
 90
        5
 70
     0
 43
0.0
 10
40.210915
 20
4.84904
 10
41.314267
 20
4.84904
 42
-0.504891
 10
36.732956
 20
0.34367
 42
0.008357
 10
36.732956
 20
1.302259
 42
0.552676
 10
40.210915
 20
4.84904
 42
694.571672
  0
LWPOLYLINE
  5
3D2
100
AcDbEntity
  8
SAISEN
100
AcDbPolyline
 90
        4
 70
     1
 43
0.0
 10
38.148126
 20
4.753181
 10
39.155534
 20
4.753181
 10
39.155534
 20
2.764108
 10
38.148126
 20
2.764108
  0
LWPOLYLINE
  5
3D8
100
AcDbEntity
  8
SAISEN
100
AcDbPolyline
 90
        4
 70
     1
 43
0.0
 10
36.373167
 20
4.753181
 10
37.380576
 20
4.753181
 10
37.380576
 20
2.764108
 10
36.373167
 20
2.764108
  0
LWPOLYLINE
  5
3DE
100
AcDbEntity
  8
SAISEN
100
AcDbPolyline
 90
       20
 70
     0
 43
0.0
 10
33.890636
 20
4.537499
 10
29.333311
 20
4.537499
 10
29.333311
 20
5.424194
 10
31.755889
 20
5.424194
 10
31.755889
 20
6.191065
 10
32.739312
 20
6.191065
 10
32.739312
 20
5.400229
 10
35.041961
 20
5.400229
 10
35.041961
 20
4.321816
 42
-0.08884
 10
33.530847
 20
3.003755
 10
35.353777
 20
2.500496
 10
35.353777
 20
1.589836
 10
35.353777
 20
1.589836
 10
32.715326
 20
2.308778
 10
32.715326
 20
0.34367
 10
31.731903
 20
0.34367
 10
31.731903
 20
1.997236
 42
-0.11771
 10
29.093452
 20
1.541906
 10
29.093452
 20
2.524461
 42
0.232752
 10
33.890636
 20
4.537499
 42
0.604071
  0
LWPOLYLINE
  5
3F4
100
AcDbEntity
  8
SAISEN
100
AcDbPolyline
 90
        8
 70
     0
 43
0.0
 10
26.119198
 20
2.332743
 10
26.119198
 20
6.071242
 10
27.246536
 20
6.071242
 10
27.246536
 20
2.452566
 42
0.509964
 10
28.661706
 20
1.326224
 10
28.661706
 20
0.367634
 10
27.774227
 20
0.367634
 42
-0.352347
 10
26.119198
 20
2.332743
 42
-8.699537
  0
LWPOLYLINE
  5
3FE
100
AcDbEntity
  8
SAISEN
100
AcDbPolyline
 90
        7
 70
     0
 43
0.0
 10
23.480747
 20
2.260849
 10
23.480747
 20
6.071242
 10
24.512142
 20
6.071242
 10
24.512142
 20
2.141025
 42
-0.444763
 10
22.065578
 20
0.34367
 10
22.065578
 20
1.326224
 42
0.470015
 10
23.480747
 20
2.260849
 42
0.283015
  0
ENDBLK
  5
408
100
AcDbEntity
  8
0
100
AcDbBlockEnd
  0
BLOCK
  5
428
100
AcDbEntity
  8
0
100
AcDbBlockBegin
  2
A$C12E2
 70
     0
 10
0.0
 20
0.0
 30
0.0
  3
A$C12E2
  1

  0
LINE
  5
40A
100
AcDbEntity
  8
JISSEN
100
AcDbLine
 10
0.349848
 20
0.35607
 30
0.0
 11
390.349847
 21
0.35607
 31
0.0
  0
LINE
  5
40B
100
AcDbEntity
  8
JISSEN
100
AcDbLine
 10
0.349848
 20
15.35607
 30
0.0
 11
390.349847
 21
15.35607
 31
0.0
  0
LINE
  5
40C
100
AcDbEntity
  8
JISSEN
100
AcDbLine
 10
13.418996
 20
15.35607
 30
0.0
 11
13.418996
 21
0.35607
 31
0.0
  0
LINE
  5
40D
100
AcDbEntity
  8
JISSEN
100
AcDbLine
 10
109.145183
 20
15.35607
 30
0.0
 11
109.145183
 21
0.35607
 31
0.0
  0
LINE
  5
40E
100
AcDbEntity
  8
JISSEN
100
AcDbLine
 10
13.418996
 20
7.85607
 30
0.0
 11
109.145183
 21
7.85607
 31
0.0
  0
LINE
  5
40F
100
AcDbEntity
  8
JISSEN
100
AcDbLine
 10
180.724223
 20
15.35607
 30
0.0
 11
180.724223
 21
0.35607
 31
0.0
  0
TEXT
  5
410
100
AcDbEntity
  8
TEXT
100
AcDbText
 10
5.167297
 20
9.333853
 30
0.0
 40
3.0
  1
記
  7
K
100
AcDbText
  0
TEXT
  5
411
100
AcDbEntity
  8
TEXT
100
AcDbText
 10
5.167297
 20
3.122236
 30
0.0
 40
3.0
  1
事
  7
K
100
AcDbText
  0
TEXT
  5
412
100
AcDbEntity
  8
TEXT
100
AcDbText
 10
183.450343
 20
11.044547
 30
0.0
 40
3.0
  1
御承認印
  7
K
100
AcDbText
  0
TEXT
  5
413
100
AcDbEntity
  8
TEXT
100
AcDbText
 10
210.225677
 20
1.325841
 30
0.0
 40
3.0
  1
年     月      日
  7
K
100
AcDbText
  0
LINE
  5
414
100
AcDbEntity
  8
JISSEN
100
AcDbLine
 10
242.385686
 20
15.35607
 30
0.0
 11
242.385686
 21
0.35607
 31
0.0
  0
LINE
  5
415
100
AcDbEntity
  8
JISSEN
100
AcDbLine
 10
260.496045
 20
15.35607
 30
0.0
 11
260.496045
 21
0.35607
 31
0.0
  0
LINE
  5
416
100
AcDbEntity
  8
JISSEN
100
AcDbLine
 10
292.835972
 20
15.35607
 30
0.0
 11
292.835972
 21
0.35607
 31
0.0
  0
TEXT
  5
417
100
AcDbEntity
  8
TEXT
100
AcDbText
 10
244.003478
 20
12.292861
 30
0.0
 40
2.5
  1
検図
  7
K
100
AcDbText
  0
TEXT
  5
418
100
AcDbEntity
  8
TEXT
100
AcDbText
 10
244.003478
 20
5.200709
 30
0.0
 40
2.5
  1
作図
  7
K
100
AcDbText
  0
TEXT
  5
419
100
AcDbEntity
  8
TEXT
100
AcDbText
 10
262.464566
 20
12.366073
 30
0.0
 40
2.5
  1
日付
  7
K
100
AcDbText
  0
TEXT
  5
41A
100
AcDbEntity
  8
TEXT
100
AcDbText
 10
262.464566
 20
5.264438
 30
0.0
 40
2.5
  1
縮尺
  7
K
100
AcDbText
  0
TEXT
  5
41B
100
AcDbEntity
  8
TEXT
100
AcDbText
 10
294.405179
 20
12.366073
 30
0.0
 40
2.5
  1
工事名称
  7
K
100
AcDbText
  0
TEXT
  5
41C
100
AcDbEntity
  8
TEXT
100
AcDbText
 10
294.405179
 20
5.118012
 30
0.0
 40
2.5
  1
図面名称
  7
K
100
AcDbText
  0
TEXT
  5
41D
100
AcDbEntity
  8
TEXT
100
AcDbText
 10
357.978467
 20
12.146435
 30
0.0
 40
2.5
  1
図番
  7
K
100
AcDbText
  0
LINE
  5
41E
100
AcDbEntity
  8
JISSEN
100
AcDbLine
 10
356.860869
 20
15.35607
 30
0.0
 11
356.860869
 21
0.35607
 31
0.0
  0
LINE
  5
41F
100
AcDbEntity
  8
JISSEN
100
AcDbLine
 10
242.385686
 20
7.85607
 30
0.0
 11
356.860869
 21
7.85607
 31
0.0
  0
TEXT
  5
420
100
AcDbEntity
  8
TEXT
100
AcDbText
 10
249.75896
 20
1.333048
 30
0.0
 40
3.0
  1
A.N
  7
K
100
AcDbText
  0
TEXT
  5
421
100
AcDbEntity
  8
TEXT
100
AcDbText
 10
362.132114
 20
1.738184
 30
0.0
 40
3.0
  1
AAA-3
  7
K
100
AcDbText
  0
TEXT
  5
422
100
AcDbEntity
  8
TEXT
100
AcDbText
 10
268.782961
 20
8.528002
 30
0.0
 40
3.0
  1
10.8.26
  7
K
100
AcDbText
  0
LINE
  5
423
100
AcDbEntity
  8
JISSEN
100
AcDbLine
 10
0.349848
 20
267.35607
 30
0.0
 11
390.349847
 21
267.35607
 31
0.0
  0
LINE
  5
424
100
AcDbEntity
  8
JISSEN
100
AcDbLine
 10
0.349848
 20
267.35607
 30
0.0
 11
0.349848
 21
0.35607
 31
0.0
  0
LINE
  5
425
100
AcDbEntity
  8
JISSEN
100
AcDbLine
 10
390.349847
 20
267.35607
 30
0.0
 11
390.349847
 21
0.35607
 31
0.0
  0
INSERT
  5
426
100
AcDbEntity
  8
JISSEN
100
AcDbBlockReference
  2
A$C9255
 10
118.329238
 20
3.90247
 30
0.0
  0
INSERT
  5
427
100
AcDbEntity
  8
WAKU
100
AcDbBlockReference
  2
WAKU
 10
0.349848
 20
0.35607
 30
0.0
 41
390.0
 42
267.0
 43
390.0
  0
ENDBLK
  5
429
100
AcDbEntity
  8
0
100
AcDbBlockEnd
  0
ENDSEC
  0
SECTION
  2
ENTITIES
  0
ARC
  5
117
100
AcDbEntity
  8
JISSEN
100
AcDbCircle
 10
1261.736003
 20
1700.693594
 30
0.0
 40
375.0
100
AcDbArc
 50
270.0
 51
90.0
  0
ARC
  5
119
100
AcDbEntity
  8
TENSEN
100
AcDbCircle
 10
961.736003
 20
1700.693594
 30
0.0
 40
375.0
100
AcDbArc
 50
90.0
 51
270.0
  0
LINE
  5
11A
100
AcDbEntity
  8
JISSEN
100
AcDbLine
 10
1261.736003
 20
2075.693594
 30
0.0
 11
1162.491848
 21
2075.693594
 31
0.0
  0
LINE
  5
11B
100
AcDbEntity
  8
JISSEN
100
AcDbLine
 10
1261.736003
 20
1325.693594
 30
0.0
 11
1162.491848
 21
1325.693594
 31
0.0
  0
CIRCLE
  5
11E
100
AcDbEntity
  8
JISSEN
100
AcDbCircle
 10
996.736003
 20
1700.693594
 30
0.0
 40
300.0
  0
LINE
  5
120
100
AcDbEntity
  8
ITTEN
100
AcDbLine
 10
1456.736003
 20
1700.693594
 30
0.0
 11
536.736003
 21
1700.693594
 31
0.0
  0
LINE
  5
121
100
AcDbEntity
  8
ITTEN
100
AcDbLine
 10
996.736003
 20
1240.693594
 30
0.0
 11
996.736003
 21
2160.693594
 31
0.0
  0
LINE
  5
129
100
AcDbEntity
  8
JISSEN
100
AcDbLine
 10
586.736003
 20
793.163112
 30
0.0
 11
1636.736003
 21
793.163112
 31
0.0
  0
LINE
  5
12B
100
AcDbEntity
  8
JISSEN
100
AcDbLine
 10
1636.736003
 20
793.163112
 30
0.0
 11
1636.736003
 21
648.163112
 31
0.0
  0
LINE
  5
12C
100
AcDbEntity
  8
JISSEN
100
AcDbLine
 10
586.736003
 20
793.163112
 30
0.0
 11
586.736003
 21
648.163112
 31
0.0
  0
ARC
  5
137
100
AcDbEntity
  8
TENSEN
100
AcDbCircle
 10
961.736003
 20
1700.693594
 30
0.0
 40
300.0
100
AcDbArc
 50
90.0
 51
270.0
  0
LINE
  5
142
100
AcDbEntity
  8
JISSEN
100
AcDbLine
 10
1611.736003
 20
648.163112
 30
0.0
 11
1636.736003
 21
648.163112
 31
0.0
  0
LINE
  5
143
100
AcDbEntity
  8
JISSEN
100
AcDbLine
 10
1611.736003
 20
648.163112
 30
0.0
 11
1602.736003
 21
633.163112
 31
0.0
  0
LINE
  5
146
100
AcDbEntity
  8
JISSEN
100
AcDbLine
 10
586.736003
 20
648.163112
 30
0.0
 11
611.736003
 21
648.163112
 31
0.0
  0
LINE
  5
147
100
AcDbEntity
  8
JISSEN
100
AcDbLine
 10
611.736003
 20
648.163112
 30
0.0
 11
620.736003
 21
633.163112
 31
0.0
  0
LINE
  5
148
100
AcDbEntity
  8
JISSEN
100
AcDbLine
 10
620.736003
 20
633.163112
 30
0.0
 11
1602.736003
 21
633.163112
 31
0.0
  0
LINE
  5
14A
100
AcDbEntity
  8
JISSEN
100
AcDbLine
 10
696.736003
 20
778.163112
 30
0.0
 11
661.736003
 21
633.163112
 31
0.0
  0
LINE
  5
14D
100
AcDbEntity
  8
JISSEN
100
AcDbLine
 10
664.736003
 20
793.163112
 30
0.0
 11
670.736003
 21
778.163112
 31
0.0
  0
LINE
  5
14E
100
AcDbEntity
  8
JISSEN
100
AcDbLine
 10
670.736003
 20
778.163112
 30
0.0
 11
696.736003
 21
778.163112
 31
0.0
  0
LINE
  5
151
100
AcDbEntity
  8
JISSEN
100
AcDbLine
 10
1322.736003
 20
778.163112
 30
0.0
 11
1296.736003
 21
778.163112
 31
0.0
  0
LINE
  5
152
100
AcDbEntity
  8
JISSEN
100
AcDbLine
 10
1328.736003
 20
793.163112
 30
0.0
 11
1322.736003
 21
778.163112
 31
0.0
  0
LINE
  5
153
100
AcDbEntity
  8
JISSEN
100
AcDbLine
 10
696.736003
 20
778.163112
 30
0.0
 11
1296.736003
 21
778.163112
 31
0.0
  0
LINE
  5
154
100
AcDbEntity
  8
JISSEN
100
AcDbLine
 10
1296.736003
 20
778.163112
 30
0.0
 11
1296.736003
 21
633.163112
 31
0.0
  0
LINE
  5
159
100
AcDbEntity
  8
JISSEN
100
AcDbLine
 10
2251.100042
 20
1400.693594
 30
0.0
 11
2251.100042
 21
2000.693594
 31
0.0
  0
LINE
  5
15A
100
AcDbEntity
  8
JISSEN
100
AcDbLine
 10
2236.100042
 20
2032.693594
 30
0.0
 11
2251.100042
 21
2026.693594
 31
0.0
  0
LINE
  5
15B
100
AcDbEntity
  8
JISSEN
100
AcDbLine
 10
2251.100042
 20
2026.693594
 30
0.0
 11
2251.100042
 21
2000.693594
 31
0.0
  0
LINE
  5
15C
100
AcDbEntity
  8
JISSEN
100
AcDbLine
 10
2251.100042
 20
1374.693594
 30
0.0
 11
2251.100042
 21
1400.693594
 31
0.0
  0
LINE
  5
15D
100
AcDbEntity
  8
JISSEN
100
AcDbLine
 10
2236.100042
 20
1368.693594
 30
0.0
 11
2251.100042
 21
1374.693594
 31
0.0
  0
LINE
  5
162
100
AcDbEntity
  8
JISSEN
100
AcDbLine
 10
2236.100042
 20
2110.693594
 30
0.0
 11
2236.100042
 21
1290.693594
 31
0.0
  0
LINE
  5
165
100
AcDbEntity
  8
JISSEN
100
AcDbLine
 10
2236.100042
 20
2110.693594
 30
0.0
 11
2286.100042
 21
2110.693594
 31
0.0
  0
LINE
  5
167
100
AcDbEntity
  8
JISSEN
100
AcDbLine
 10
2286.100042
 20
2110.693594
 30
0.0
 11
2371.100042
 21
2075.693594
 31
0.0
  0
LINE
  5
169
100
AcDbEntity
  8
JISSEN
100
AcDbLine
 10
2371.100042
 20
2075.693594
 30
0.0
 11
2381.100042
 21
2075.693594
 31
0.0
  0
LINE
  5
16A
100
AcDbEntity
  8
JISSEN
100
AcDbLine
 10
2371.100042
 20
1325.693594
 30
0.0
 11
2381.100042
 21
1325.693594
 31
0.0
  0
LINE
  5
16B
100
AcDbEntity
  8
JISSEN
100
AcDbLine
 10
2286.100042
 20
1290.693594
 30
0.0
 11
2371.100042
 21
1325.693594
 31
0.0
  0
LINE
  5
16C
100
AcDbEntity
  8
JISSEN
100
AcDbLine
 10
2236.100042
 20
1290.693594
 30
0.0
 11
2286.100042
 21
1290.693594
 31
0.0
  0
LINE
  5
16D
100
AcDbEntity
  8
JISSEN
100
AcDbLine
 10
2236.100042
 20
1368.693594
 30
0.0
 11
2251.100042
 21
1374.693594
 31
0.0
  0
LINE
  5
16F
100
AcDbEntity
  8
JISSEN
100
AcDbLine
 10
2381.100042
 20
1366.693594
 30
0.0
 11
2381.100042
 21
1325.693594
 31
0.0
  0
LINE
  5
172
100
AcDbEntity
  8
JISSEN
100
AcDbLine
 10
2381.100042
 20
1366.693594
 30
0.0
 11
2396.100042
 21
1375.693594
 31
0.0
  0
LINE
  5
174
100
AcDbEntity
  8
JISSEN
100
AcDbLine
 10
2396.100042
 20
1400.693594
 30
0.0
 11
2396.100042
 21
1375.693594
 31
0.0
  0
LINE
  5
175
100
AcDbEntity
  8
JISSEN
100
AcDbLine
 10
2396.100042
 20
2000.693594
 30
0.0
 11
2396.100042
 21
2025.693594
 31
0.0
  0
LINE
  5
176
100
AcDbEntity
  8
JISSEN
100
AcDbLine
 10
2381.100042
 20
2034.693594
 30
0.0
 11
2396.100042
 21
2025.693594
 31
0.0
  0
LINE
  5
177
100
AcDbEntity
  8
JISSEN
100
AcDbLine
 10
2381.100042
 20
2034.693594
 30
0.0
 11
2381.100042
 21
2075.693594
 31
0.0
  0
LINE
  5
178
100
AcDbEntity
  8
JISSEN
100
AcDbLine
 10
2251.100042
 20
1400.693594
 30
0.0
 11
2396.100042
 21
1400.693594
 31
0.0
  0
LINE
  5
179
100
AcDbEntity
  8
JISSEN
100
AcDbLine
 10
2251.100042
 20
2000.693594
 30
0.0
 11
2396.100042
 21
2000.693594
 31
0.0
  0
LINE
  5
17A
100
AcDbEntity
  8
JISSEN
100
AcDbLine
 10
2396.100042
 20
2000.693594
 30
0.0
 11
2396.100042
 21
1400.693594
 31
0.0
  0
LINE
  5
17D
100
AcDbEntity
  8
ITTEN
100
AcDbLine
 10
2163.5436
 20
1700.693594
 30
0.0
 11
2483.124624
 21
1700.693594
 31
0.0
  0
LINE
  5
193
100
AcDbEntity
  8
SUNPOU
100
AcDbLine
 10
2406.100042
 20
1400.693594
 30
0.0
 11
2532.835361
 21
1400.693594
 31
0.0
  0
LINE
  5
194
100
AcDbEntity
  8
SUNPOU
100
AcDbLine
 10
2406.100042
 20
2000.693594
 30
0.0
 11
2532.835361
 21
2000.693594
 31
0.0
  0
LINE
  5
195
100
AcDbEntity
  8
SUNPOU
100
AcDbLine
 10
2522.835361
 20
1400.693594
 30
0.0
 11
2522.835361
 21
2000.693594
 31
0.0
  0
INSERT
  5
196
100
AcDbEntity
  8
SUNPOU
100
AcDbBlockReference
  2
ARROWANG
 10
2522.835361
 20
1400.693594
 30
0.0
 41
20.0
 42
20.0
 43
20.0
 50
270.0
  0
INSERT
  5
197
100
AcDbEntity
  8
SUNPOU
100
AcDbBlockReference
  2
ARROWANG
 10
2522.835361
 20
2000.693594
 30
0.0
 41
20.0
 42
20.0
 43
20.0
 50
90.0
  0
TEXT
  5
198
100
AcDbEntity
  8
SUNPOUT
100
AcDbText
 10
2507.835361
 20
1671.645975
 30
0.0
 40
20.0
  1
600
 50
90.0
  7
K
 72
     1
 11
2507.835361
 21
1700.693594
 31
0.0
100
AcDbText
  0
LINE
  5
199
100
AcDbEntity
  8
SUNPOU
100
AcDbLine
 10
2406.100042
 20
1375.693594
 30
0.0
 11
2596.53401
 21
1375.693594
 31
0.0
  0
LINE
  5
19A
100
AcDbEntity
  8
SUNPOU
100
AcDbLine
 10
2406.100042
 20
2025.693594
 30
0.0
 11
2596.53401
 21
2025.693594
 31
0.0
  0
LINE
  5
19B
100
AcDbEntity
  8
SUNPOU
100
AcDbLine
 10
2586.53401
 20
1375.693594
 30
0.0
 11
2586.53401
 21
2025.693594
 31
0.0
  0
INSERT
  5
19C
100
AcDbEntity
  8
SUNPOU
100
AcDbBlockReference
  2
ARROWANG
 10
2586.53401
 20
1375.693594
 30
0.0
 41
20.0
 42
20.0
 43
20.0
 50
270.0
  0
INSERT
  5
19D
100
AcDbEntity
  8
SUNPOU
100
AcDbBlockReference
  2
ARROWANG
 10
2586.53401
 20
2025.693594
 30
0.0
 41
20.0
 42
20.0
 43
20.0
 50
90.0
  0
TEXT
  5
19E
100
AcDbEntity
  8
SUNPOUT
100
AcDbText
 10
2571.53401
 20
1671.645975
 30
0.0
 40
20.0
  1
650
 50
90.0
  7
K
 72
     1
 11
2571.53401
 21
1700.693594
 31
0.0
100
AcDbText
  0
LINE
  5
19F
100
AcDbEntity
  8
SUNPOU
100
AcDbLine
 10
2391.100042
 20
1366.693594
 30
0.0
 11
2657.463149
 21
1366.693594
 31
0.0
  0
LINE
  5
1A0
100
AcDbEntity
  8
SUNPOU
100
AcDbLine
 10
2391.100042
 20
2034.693594
 30
0.0
 11
2657.463149
 21
2034.693594
 31
0.0
  0
LINE
  5
1A1
100
AcDbEntity
  8
SUNPOU
100
AcDbLine
 10
2647.463149
 20
1366.693594
 30
0.0
 11
2647.463149
 21
2034.693594
 31
0.0
  0
INSERT
  5
1A2
100
AcDbEntity
  8
SUNPOU
100
AcDbBlockReference
  2
ARROWANG
 10
2647.463149
 20
1366.693594
 30
0.0
 41
20.0
 42
20.0
 43
20.0
 50
270.0
  0
INSERT
  5
1A3
100
AcDbEntity
  8
SUNPOU
100
AcDbBlockReference
  2
ARROWANG
 10
2647.463149
 20
2034.693594
 30
0.0
 41
20.0
 42
20.0
 43
20.0
 50
90.0
  0
TEXT
  5
1A4
100
AcDbEntity
  8
SUNPOUT
100
AcDbText
 10
2632.463149
 20
1671.645975
 30
0.0
 40
20.0
  1
668
 50
90.0
  7
K
 72
     1
 11
2632.463149
 21
1700.693594
 31
0.0
100
AcDbText
  0
LINE
  5
1A5
100
AcDbEntity
  8
SUNPOU
100
AcDbLine
 10
2391.100042
 20
1325.693594
 30
0.0
 11
2740.548347
 21
1325.693594
 31
0.0
  0
LINE
  5
1A6
100
AcDbEntity
  8
SUNPOU
100
AcDbLine
 10
2391.100042
 20
2075.693594
 30
0.0
 11
2740.548347
 21
2075.693594
 31
0.0
  0
LINE
  5
1A7
100
AcDbEntity
  8
SUNPOU
100
AcDbLine
 10
2730.548347
 20
1325.693594
 30
0.0
 11
2730.548347
 21
2075.693594
 31
0.0
  0
INSERT
  5
1A8
100
AcDbEntity
  8
SUNPOU
100
AcDbBlockReference
  2
ARROWANG
 10
2730.548347
 20
1325.693594
 30
0.0
 41
20.0
 42
20.0
 43
20.0
 50
270.0
  0
INSERT
  5
1A9
100
AcDbEntity
  8
SUNPOU
100
AcDbBlockReference
  2
ARROWANG
 10
2730.548347
 20
2075.693594
 30
0.0
 41
20.0
 42
20.0
 43
20.0
 50
90.0
  0
TEXT
  5
1AA
100
AcDbEntity
  8
SUNPOUT
100
AcDbText
 10
2715.548347
 20
1672.122165
 30
0.0
 40
20.0
  1
750
 50
90.0
  7
K
 72
     1
 11
2715.548347
 21
1700.693594
 31
0.0
100
AcDbText
  0
LINE
  5
1AB
100
AcDbEntity
  8
SUNPOU
100
AcDbLine
 10
2241.100042
 20
1400.693594
 30
0.0
 11
2156.934776
 21
1400.693594
 31
0.0
  0
LINE
  5
1AC
100
AcDbEntity
  8
SUNPOU
100
AcDbLine
 10
2241.100042
 20
2000.693594
 30
0.0
 11
2156.934776
 21
2000.693594
 31
0.0
  0
LINE
  5
1AD
100
AcDbEntity
  8
SUNPOU
100
AcDbLine
 10
2166.934776
 20
1400.693594
 30
0.0
 11
2166.934776
 21
2000.693594
 31
0.0
  0
INSERT
  5
1AE
100
AcDbEntity
  8
SUNPOU
100
AcDbBlockReference
  2
ARROWANG
 10
2166.934776
 20
1400.693594
 30
0.0
 41
20.0
 42
20.0
 43
20.0
 50
270.0
  0
INSERT
  5
1AF
100
AcDbEntity
  8
SUNPOU
100
AcDbBlockReference
  2
ARROWANG
 10
2166.934776
 20
2000.693594
 30
0.0
 41
20.0
 42
20.0
 43
20.0
 50
90.0
  0
TEXT
  5
1B0
100
AcDbEntity
  8
SUNPOUT
100
AcDbText
 10
2151.934776
 20
1671.645975
 30
0.0
 40
20.0
  1
600
 50
90.0
  7
K
 72
     1
 11
2151.934776
 21
1700.693594
 31
0.0
100
AcDbText
  0
LINE
  5
1B1
100
AcDbEntity
  8
SUNPOU
100
AcDbLine
 10
2241.100042
 20
1374.693594
 30
0.0
 11
2097.47482
 21
1374.693594
 31
0.0
  0
LINE
  5
1B2
100
AcDbEntity
  8
SUNPOU
100
AcDbLine
 10
2241.100042
 20
2026.693594
 30
0.0
 11
2097.47482
 21
2026.693594
 31
0.0
  0
LINE
  5
1B3
100
AcDbEntity
  8
SUNPOU
100
AcDbLine
 10
2107.47482
 20
1374.693594
 30
0.0
 11
2107.47482
 21
2026.693594
 31
0.0
  0
INSERT
  5
1B4
100
AcDbEntity
  8
SUNPOU
100
AcDbBlockReference
  2
ARROWANG
 10
2107.47482
 20
1374.693594
 30
0.0
 41
20.0
 42
20.0
 43
20.0
 50
270.0
  0
INSERT
  5
1B5
100
AcDbEntity
  8
SUNPOU
100
AcDbBlockReference
  2
ARROWANG
 10
2107.47482
 20
2026.693594
 30
0.0
 41
20.0
 42
20.0
 43
20.0
 50
90.0
  0
TEXT
  5
1B6
100
AcDbEntity
  8
SUNPOUT
100
AcDbText
 10
2092.47482
 20
1671.645975
 30
0.0
 40
20.0
  1
652
 50
90.0
  7
K
 72
     1
 11
2092.47482
 21
1700.693594
 31
0.0
100
AcDbText
  0
LINE
  5
1B7
100
AcDbEntity
  8
SUNPOU
100
AcDbLine
 10
2226.100042
 20
1368.693594
 30
0.0
 11
2029.520588
 21
1368.693594
 31
0.0
  0
LINE
  5
1B8
100
AcDbEntity
  8
SUNPOU
100
AcDbLine
 10
2226.100042
 20
2032.693594
 30
0.0
 11
2029.520588
 21
2032.693594
 31
0.0
  0
LINE
  5
1B9
100
AcDbEntity
  8
SUNPOU
100
AcDbLine
 10
2039.520588
 20
1368.693594
 30
0.0
 11
2039.520588
 21
2032.693594
 31
0.0
  0
INSERT
  5
1BA
100
AcDbEntity
  8
SUNPOU
100
AcDbBlockReference
  2
ARROWANG
 10
2039.520588
 20
1368.693594
 30
0.0
 41
20.0
 42
20.0
 43
20.0
 50
270.0
  0
INSERT
  5
1BB
100
AcDbEntity
  8
SUNPOU
100
AcDbBlockReference
  2
ARROWANG
 10
2039.520588
 20
2032.693594
 30
0.0
 41
20.0
 42
20.0
 43
20.0
 50
90.0
  0
TEXT
  5
1BC
100
AcDbEntity
  8
SUNPOUT
100
AcDbText
 10
2024.520588
 20
1671.169784
 30
0.0
 40
20.0
  1
664
 50
90.0
  7
K
 72
     1
 11
2024.520588
 21
1700.693594
 31
0.0
100
AcDbText
  0
LINE
  5
1BD
100
AcDbEntity
  8
SUNPOU
100
AcDbLine
 10
2226.100042
 20
1290.693594
 30
0.0
 11
1963.689919
 21
1290.693594
 31
0.0
  0
LINE
  5
1BE
100
AcDbEntity
  8
SUNPOU
100
AcDbLine
 10
2226.100042
 20
2110.693594
 30
0.0
 11
1963.689919
 21
2110.693594
 31
0.0
  0
LINE
  5
1BF
100
AcDbEntity
  8
SUNPOU
100
AcDbLine
 10
1973.689919
 20
1290.693594
 30
0.0
 11
1973.689919
 21
2110.693594
 31
0.0
  0
INSERT
  5
1C0
100
AcDbEntity
  8
SUNPOU
100
AcDbBlockReference
  2
ARROWANG
 10
1973.689919
 20
1290.693594
 30
0.0
 41
20.0
 42
20.0
 43
20.0
 50
270.0
  0
INSERT
  5
1C1
100
AcDbEntity
  8
SUNPOU
100
AcDbBlockReference
  2
ARROWANG
 10
1973.689919
 20
2110.693594
 30
0.0
 41
20.0
 42
20.0
 43
20.0
 50
90.0
  0
TEXT
  5
1C2
100
AcDbEntity
  8
SUNPOUT
100
AcDbText
 10
1958.689919
 20
1672.122165
 30
0.0
 40
20.0
  1
820
 50
90.0
  7
K
 72
     1
 11
1958.689919
 21
1700.693594
 31
0.0
100
AcDbText
  0
LINE
  5
1CA
100
AcDbEntity
  8
SUNPOU
100
AcDbLine
 10
2286.100042
 20
2120.693594
 30
0.0
 11
2286.100042
 21
2174.537449
 31
0.0
  0
LINE
  5
1CB
100
AcDbEntity
  8
SUNPOU
100
AcDbLine
 10
2236.100042
 20
2164.537449
 30
0.0
 11
2286.100042
 21
2164.537449
 31
0.0
  0
INSERT
  5
1CC
100
AcDbEntity
  8
SUNPOU
100
AcDbBlockReference
  2
ARROWANG
 10
2236.100042
 20
2164.537449
 30
0.0
 41
20.0
 42
20.0
 43
20.0
 50
180.0
  0
INSERT
  5
1CD
100
AcDbEntity
  8
SUNPOU
100
AcDbBlockReference
  2
ARROWANG
 10
2286.100042
 20
2164.537449
 30
0.0
 41
20.0
 42
20.0
 43
20.0
  0
TEXT
  5
1CE
100
AcDbEntity
  8
SUNPOUT
100
AcDbText
 10
2242.052423
 20
2179.537449
 30
0.0
 40
20.0
  1
50
  7
K
 72
     1
 11
2261.100042
 21
2179.537449
 31
0.0
100
AcDbText
  0
LINE
  5
1CF
100
AcDbEntity
  8
SUNPOU
100
AcDbLine
 10
2286.100042
 20
2154.537449
 30
0.0
 11
2286.100042
 21
2154.537449
 31
0.0
  0
LINE
  5
1D1
100
AcDbEntity
  8
SUNPOU
100
AcDbLine
 10
2286.100042
 20
2164.537449
 30
0.0
 11
2371.100042
 21
2164.537449
 31
0.0
  0
INSERT
  5
1D2
100
AcDbEntity
  8
SUNPOU
100
AcDbBlockReference
  2
ARROWANG
 10
2286.100042
 20
2164.537449
 30
0.0
 41
20.0
 42
20.0
 43
20.0
 50
180.0
  0
INSERT
  5
1D3
100
AcDbEntity
  8
SUNPOU
100
AcDbBlockReference
  2
ARROWANG
 10
2371.100042
 20
2164.537449
 30
0.0
 41
20.0
 42
20.0
 43
20.0
  0
TEXT
  5
1D4
100
AcDbEntity
  8
SUNPOUT
100
AcDbText
 10
2309.552423
 20
2179.537449
 30
0.0
 40
20.0
  1
85
  7
K
 72
     1
 11
2328.600042
 21
2179.537449
 31
0.0
100
AcDbText
  0
LINE
  5
1D6
100
AcDbEntity
  8
SUNPOU
100
AcDbLine
 10
2361.100042
 20
2164.537449
 30
0.0
 11
2361.100042
 21
2164.537449
 31
0.0
  0
LINE
  5
1E9
100
AcDbEntity
  8
SUNPOU
100
AcDbLine
 10
2371.100042
 20
2085.693594
 30
0.0
 11
2371.100042
 21
2174.537449
 31
0.0
  0
LINE
  5
1EB
100
AcDbEntity
  8
SUNPOU
100
AcDbLine
 10
2371.100042
 20
2164.537449
 30
0.0
 11
2381.100042
 21
2164.537449
 31
0.0
  0
INSERT
  5
1ED
100
AcDbEntity
  8
SUNPOU
100
AcDbBlockReference
  2
ARROWANG
 10
2381.100042
 20
2164.537449
 30
0.0
 41
20.0
 42
20.0
 43
20.0
 50
180.0
  0
LINE
  5
1EE
100
AcDbEntity
  8
SUNPOU
100
AcDbLine
 10
2381.100042
 20
2164.537449
 30
0.0
 11
2449.100042
 21
2164.537449
 31
0.0
  0
TEXT
  5
1F0
100
AcDbEntity
  8
SUNPOUT
100
AcDbText
 10
2406.623852
 20
2179.537449
 30
0.0
 40
20.0
  1
10
  7
K
 72
     1
 11
2427.100042
 21
2179.537449
 31
0.0
100
AcDbText
  0
LINE
  5
1FF
100
AcDbEntity
  8
SUNPOU
100
AcDbLine
 10
2236.100042
 20
1280.693594
 30
0.0
 11
2236.100042
 21
1201.669308
 31
0.0
  0
LINE
  5
200
100
AcDbEntity
  8
SUNPOU
100
AcDbLine
 10
2251.100042
 20
1364.693594
 30
0.0
 11
2251.100042
 21
1201.669308
 31
0.0
  0
LINE
  5
201
100
AcDbEntity
  8
SUNPOU
100
AcDbLine
 10
2236.100042
 20
1211.669308
 30
0.0
 11
2251.100042
 21
1211.669308
 31
0.0
  0
INSERT
  5
202
100
AcDbEntity
  8
SUNPOU
100
AcDbBlockReference
  2
ARROWANG
 10
2236.100042
 20
1211.669308
 30
0.0
 41
20.0
 42
20.0
 43
20.0
  0
INSERT
  5
203
100
AcDbEntity
  8
SUNPOU
100
AcDbBlockReference
  2
ARROWANG
 10
2251.100042
 20
1211.669308
 30
0.0
 41
20.0
 42
20.0
 43
20.0
 50
180.0
  0
LINE
  5
204
100
AcDbEntity
  8
SUNPOU
100
AcDbLine
 10
2236.100042
 20
1211.669308
 30
0.0
 11
2168.100042
 21
1211.669308
 31
0.0
  0
LINE
  5
205
100
AcDbEntity
  8
SUNPOU
100
AcDbLine
 10
2251.100042
 20
1211.669308
 30
0.0
 11
2291.100042
 21
1211.669308
 31
0.0
  0
TEXT
  5
206
100
AcDbEntity
  8
SUNPOUT
100
AcDbText
 10
2169.623852
 20
1226.669308
 30
0.0
 40
20.0
  1
15
  7
K
 72
     1
 11
2190.100042
 21
1226.669308
 31
0.0
100
AcDbText
  0
LINE
  5
215
100
AcDbEntity
  8
SUNPOU
100
AcDbLine
 10
2381.100042
 20
1315.693594
 30
0.0
 11
2381.100042
 21
1201.669308
 31
0.0
  0
LINE
  5
216
100
AcDbEntity
  8
SUNPOU
100
AcDbLine
 10
2396.100042
 20
1365.693594
 30
0.0
 11
2396.100042
 21
1201.669308
 31
0.0
  0
LINE
  5
217
100
AcDbEntity
  8
SUNPOU
100
AcDbLine
 10
2381.100042
 20
1211.669308
 30
0.0
 11
2396.100042
 21
1211.669308
 31
0.0
  0
INSERT
  5
218
100
AcDbEntity
  8
SUNPOU
100
AcDbBlockReference
  2
ARROWANG
 10
2381.100042
 20
1211.669308
 30
0.0
 41
20.0
 42
20.0
 43
20.0
  0
INSERT
  5
219
100
AcDbEntity
  8
SUNPOU
100
AcDbBlockReference
  2
ARROWANG
 10
2396.100042
 20
1211.669308
 30
0.0
 41
20.0
 42
20.0
 43
20.0
 50
180.0
  0
LINE
  5
21A
100
AcDbEntity
  8
SUNPOU
100
AcDbLine
 10
2396.100042
 20
1211.669308
 30
0.0
 11
2464.100042
 21
1211.669308
 31
0.0
  0
LINE
  5
21B
100
AcDbEntity
  8
SUNPOU
100
AcDbLine
 10
2381.100042
 20
1211.669308
 30
0.0
 11
2341.100042
 21
1211.669308
 31
0.0
  0
TEXT
  5
21C
100
AcDbEntity
  8
SUNPOUT
100
AcDbText
 10
2421.623852
 20
1226.669308
 30
0.0
 40
20.0
  1
15
  7
K
 72
     1
 11
2442.100042
 21
1226.669308
 31
0.0
100
AcDbText
  0
ARC
  5
21D
100
AcDbEntity
  8
JISSEN
100
AcDbCircle
 10
996.736003
 20
1700.693594
 30
0.0
 40
410.0
100
AcDbArc
 50
66.153824
 51
293.846176
  0
LINE
  5
21E
100
AcDbEntity
  8
TENSEN
100
AcDbLine
 10
1162.491848
 20
2075.693594
 30
0.0
 11
961.736003
 21
2075.693594
 31
0.0
  0
LINE
  5
21F
100
AcDbEntity
  8
TENSEN
100
AcDbLine
 10
1162.491848
 20
1325.693594
 30
0.0
 11
961.736003
 21
1325.693594
 31
0.0
  0
CIRCLE
  5
220
100
AcDbEntity
  8
ITTEN
100
AcDbCircle
 10
996.736003
 20
1700.693594
 30
0.0
 40
380.0
  0
LINE
  5
223
100
AcDbEntity
  8
ITTEN
100
AcDbLine
 10
1261.736003
 20
1298.769531
 30
0.0
 11
1261.736003
 21
2099.78135
 31
0.0
  0
LINE
  5
225
100
AcDbEntity
  8
ITTEN
100
AcDbLine
 10
961.736003
 20
1298.769531
 30
0.0
 11
961.736003
 21
2099.78135
 31
0.0
  0
CIRCLE
  5
227
100
AcDbEntity
  8
SAISEN
100
AcDbCircle
 10
667.64635
 20
1510.693594
 30
0.0
 40
10.0
  0
LINE
  5
228
100
AcDbEntity
  8
ITTEN
100
AcDbLine
 10
650.325842
 20
1500.693594
 30
0.0
 11
684.966858
 21
1520.693594
 31
0.0
  0
LINE
  5
22A
100
AcDbEntity
  8
ITTEN
100
AcDbLine
 10
996.736003
 20
2100.693594
 30
0.0
 11
996.736003
 21
2060.693594
 31
0.0
  0
CIRCLE
  5
22B
100
AcDbEntity
  8
SAISEN
100
AcDbCircle
 10
996.736003
 20
2080.693594
 30
0.0
 40
10.0
  0
LINE
  5
22C
100
AcDbEntity
  8
ITTEN
100
AcDbLine
 10
1343.146165
 20
1500.693594
 30
0.0
 11
1308.505149
 21
1520.693594
 31
0.0
  0
CIRCLE
  5
22D
100
AcDbEntity
  8
SAISEN
100
AcDbCircle
 10
1325.825657
 20
1510.693594
 30
0.0
 40
10.0
  0
INSERT
  5
232
100
AcDbEntity
  8
SUNPOU
100
AcDbBlockReference
  2
ARROWANG
 10
1334.485911
 20
1505.693594
 30
0.0
 41
20.0
 42
20.0
 43
20.0
 50
111.70673
  0
LINE
  5
233
100
AcDbEntity
  8
SUNPOU
100
AcDbLine
 10
1334.485911
 20
1505.693594
 30
0.0
 11
1447.464728
 21
1221.887403
 31
0.0
  0
TEXT
  5
234
100
AcDbEntity
  8
SUNPOUT
100
AcDbText
 10
1485.789595
 20
1235.355402
 30
0.0
 40
20.0
  1
Ｍ１６インサートアンカー
  7
K
100
AcDbText
  0
LINE
  5
235
100
AcDbEntity
  8
SUNPOU
100
AcDbLine
 10
1447.464728
 20
1221.887403
 30
0.0
 11
1778.591588
 21
1221.887403
 31
0.0
  0
LWPOLYLINE
  5
239
100
AcDbEntity
  8
TENSEN
100
AcDbPolyline
 90
        4
 70
     1
 43
0.0
 10
2236.100042
 20
2090.693594
 10
2236.100042
 20
2070.693594
 10
2295.554553
 20
2070.693594
 10
2295.554553
 20
2090.693594
  0
LINE
  5
242
100
AcDbEntity
  8
ITTEN
100
AcDbLine
 10
2215.740302
 20
2080.693594
 30
0.0
 11
2309.501834
 21
2080.693594
 31
0.0
  0
LINE
  5
243
100
AcDbEntity
  8
SUNPOU
100
AcDbLine
 10
1589.568835
 20
1882.766751
 30
0.0
 11
1261.736003
 21
1700.693594
 31
0.0
  0
INSERT
  5
244
100
AcDbEntity
  8
SUNPOU
100
AcDbBlockReference
  2
ARROWANG
 10
1589.568835
 20
1882.766751
 30
0.0
 41
20.0
 42
20.0
 43
20.0
 50
29.047099
  0
TEXT
  5
245
100
AcDbEntity
  8
SUNPOUT
100
AcDbText
 10
1384.233249
 20
1785.884757
 30
0.0
 40
20.0
  1
R375
 50
29.047099
  7
K
 72
     1
 11
1418.369493
 21
1804.843485
 31
0.0
100
AcDbText
  0
LINE
  5
246
100
AcDbEntity
  8
SUNPOU
100
AcDbLine
 10
1292.188037
 20
1461.720592
 30
0.0
 11
996.736003
 21
1700.693594
 31
0.0
  0
INSERT
  5
247
100
AcDbEntity
  8
SUNPOU
100
AcDbBlockReference
  2
ARROWANG
 10
1292.188037
 20
1461.720592
 30
0.0
 41
20.0
 42
20.0
 43
20.0
 50
321.032732
  0
TEXT
  5
248
100
AcDbEntity
  8
SUNPOUT
100
AcDbText
 10
1123.535432
 20
1617.425796
 30
0.0
 40
20.0
  1
R380
 50
321.032732
  7
K
 72
     1
 11
1153.895165
 21
1592.869673
 31
0.0
100
AcDbText
  0
LINE
  5
249
100
AcDbEntity
  8
SUNPOU
100
AcDbLine
 10
1279.100001
 20
1802.037428
 30
0.0
 11
714.372006
 21
1599.349759
 31
0.0
  0
INSERT
  5
24A
100
AcDbEntity
  8
SUNPOU
100
AcDbBlockReference
  2
ARROWANG
 10
1279.100001
 20
1802.037428
 30
0.0
 41
20.0
 42
20.0
 43
20.0
 50
19.743673
  0
INSERT
  5
24B
100
AcDbEntity
  8
SUNPOU
100
AcDbBlockReference
  2
ARROWANG
 10
714.372006
 20
1599.349759
 30
0.0
 41
20.0
 42
20.0
 43
20.0
 50
199.743673
  0
TEXT
  5
24C
100
AcDbEntity
  8
SUNPOUT
100
AcDbText
 10
1075.616987
 20
1741.051766
 30
0.0
 40
20.0
  1
%%C600
 50
19.743673
  7
K
 72
     1
 11
1111.024536
 21
1753.759961
 31
0.0
100
AcDbText
  0
LINE
  5
24D
100
AcDbEntity
  8
SUNPOU
100
AcDbLine
 10
861.926345
 20
2087.896843
 30
0.0
 11
996.736003
 21
1700.693594
 31
0.0
  0
INSERT
  5
24E
100
AcDbEntity
  8
SUNPOU
100
AcDbBlockReference
  2
ARROWANG
 10
861.926345
 20
2087.896843
 30
0.0
 41
20.0
 42
20.0
 43
20.0
 50
109.196202
  0
TEXT
  5
24F
100
AcDbEntity
  8
SUNPOUT
100
AcDbText
 10
930.658132
 20
1936.103779
 30
0.0
 40
20.0
  1
R410
 50
289.196202
  7
K
 72
     1
 11
943.497147
 21
1899.227279
 31
0.0
100
AcDbText
  0
LINE
  5
252
100
AcDbEntity
  8
ITTEN
100
AcDbLine
 10
1456.736003
 20
1700.693594
 30
0.0
 11
1705.120947
 21
1700.693594
 31
0.0
  0
LINE
  5
259
100
AcDbEntity
  8
SUNPOU
100
AcDbLine
 10
1261.736003
 20
2109.78135
 30
0.0
 11
1261.736003
 21
2279.199225
 31
0.0
  0
LINE
  5
25B
100
AcDbEntity
  8
SUNPOU
100
AcDbLine
 10
1261.736003
 20
2269.199225
 30
0.0
 11
1636.736003
 21
2269.199225
 31
0.0
  0
INSERT
  5
25C
100
AcDbEntity
  8
SUNPOU
100
AcDbBlockReference
  2
ARROWANG
 10
1261.736003
 20
2269.199225
 30
0.0
 41
20.0
 42
20.0
 43
20.0
 50
180.0
  0
INSERT
  5
25D
100
AcDbEntity
  8
SUNPOU
100
AcDbBlockReference
  2
ARROWANG
 10
1636.736003
 20
2269.199225
 30
0.0
 41
20.0
 42
20.0
 43
20.0
  0
TEXT
  5
25E
100
AcDbEntity
  8
SUNPOUT
100
AcDbText
 10
1420.664575
 20
2284.199225
 30
0.0
 40
20.0
  1
375
  7
K
 72
     1
 11
1449.236003
 21
2284.199225
 31
0.0
100
AcDbText
  0
LINE
  5
265
100
AcDbEntity
  8
SUNPOU
100
AcDbLine
 10
961.736003
 20
2109.78135
 30
0.0
 11
961.736003
 21
2279.199225
 31
0.0
  0
LINE
  5
266
100
AcDbEntity
  8
SUNPOU
100
AcDbLine
 10
1261.736003
 20
2259.199225
 30
0.0
 11
1261.736003
 21
2259.199225
 31
0.0
  0
LINE
  5
267
100
AcDbEntity
  8
SUNPOU
100
AcDbLine
 10
961.736003
 20
2269.199225
 30
0.0
 11
1261.736003
 21
2269.199225
 31
0.0
  0
INSERT
  5
268
100
AcDbEntity
  8
SUNPOU
100
AcDbBlockReference
  2
ARROWANG
 10
961.736003
 20
2269.199225
 30
0.0
 41
20.0
 42
20.0
 43
20.0
 50
180.0
  0
INSERT
  5
269
100
AcDbEntity
  8
SUNPOU
100
AcDbBlockReference
  2
ARROWANG
 10
1261.736003
 20
2269.199225
 30
0.0
 41
20.0
 42
20.0
 43
20.0
  0
TEXT
  5
26A
100
AcDbEntity
  8
SUNPOUT
100
AcDbText
 10
1083.164575
 20
2284.199225
 30
0.0
 40
20.0
  1
300
  7
K
 72
     1
 11
1111.736003
 21
2284.199225
 31
0.0
100
AcDbText
  0
LINE
  5
26C
100
AcDbEntity
  8
SUNPOU
100
AcDbLine
 10
961.736003
 20
2259.199225
 30
0.0
 11
961.736003
 21
2259.199225
 31
0.0
  0
LINE
  5
26D
100
AcDbEntity
  8
SUNPOU
100
AcDbLine
 10
586.736003
 20
2269.199225
 30
0.0
 11
961.736003
 21
2269.199225
 31
0.0
  0
INSERT
  5
26E
100
AcDbEntity
  8
SUNPOU
100
AcDbBlockReference
  2
ARROWANG
 10
586.736003
 20
2269.199225
 30
0.0
 41
20.0
 42
20.0
 43
20.0
 50
180.0
  0
INSERT
  5
26F
100
AcDbEntity
  8
SUNPOU
100
AcDbBlockReference
  2
ARROWANG
 10
961.736003
 20
2269.199225
 30
0.0
 41
20.0
 42
20.0
 43
20.0
  0
TEXT
  5
270
100
AcDbEntity
  8
SUNPOUT
100
AcDbText
 10
745.664575
 20
2284.199225
 30
0.0
 40
20.0
  1
375
  7
K
 72
     1
 11
774.236003
 21
2284.199225
 31
0.0
100
AcDbText
  0
LINE
  5
271
100
AcDbEntity
  8
SUNPOU
100
AcDbLine
 10
586.736003
 20
1710.693594
 30
0.0
 11
586.736003
 21
2354.394538
 31
0.0
  0
LINE
  5
272
100
AcDbEntity
  8
SUNPOU
100
AcDbLine
 10
1636.736003
 20
1710.693594
 30
0.0
 11
1636.736003
 21
2354.394538
 31
0.0
  0
LINE
  5
273
100
AcDbEntity
  8
SUNPOU
100
AcDbLine
 10
586.736003
 20
2344.394538
 30
0.0
 11
1636.736003
 21
2344.394538
 31
0.0
  0
INSERT
  5
274
100
AcDbEntity
  8
SUNPOU
100
AcDbBlockReference
  2
ARROWANG
 10
586.736003
 20
2344.394538
 30
0.0
 41
20.0
 42
20.0
 43
20.0
 50
180.0
  0
INSERT
  5
275
100
AcDbEntity
  8
SUNPOU
100
AcDbBlockReference
  2
ARROWANG
 10
1636.736003
 20
2344.394538
 30
0.0
 41
20.0
 42
20.0
 43
20.0
  0
TEXT
  5
276
100
AcDbEntity
  8
SUNPOUT
100
AcDbText
 10
1072.212194
 20
2359.394538
 30
0.0
 40
20.0
  1
1050
  7
K
 72
     1
 11
1111.736003
 21
2359.394538
 31
0.0
100
AcDbText
  0
LINE
  5
277
100
AcDbEntity
  8
SUNPOU
100
AcDbLine
 10
986.736003
 20
1290.693594
 30
0.0
 11
435.175667
 21
1290.693594
 31
0.0
  0
LINE
  5
278
100
AcDbEntity
  8
SUNPOU
100
AcDbLine
 10
986.736003
 20
2110.693594
 30
0.0
 11
435.175667
 21
2110.693594
 31
0.0
  0
LINE
  5
279
100
AcDbEntity
  8
SUNPOU
100
AcDbLine
 10
445.175667
 20
1290.693594
 30
0.0
 11
445.175667
 21
2110.693594
 31
0.0
  0
INSERT
  5
27A
100
AcDbEntity
  8
SUNPOU
100
AcDbBlockReference
  2
ARROWANG
 10
445.175667
 20
1290.693594
 30
0.0
 41
20.0
 42
20.0
 43
20.0
 50
270.0
  0
INSERT
  5
27B
100
AcDbEntity
  8
SUNPOU
100
AcDbBlockReference
  2
ARROWANG
 10
445.175667
 20
2110.693594
 30
0.0
 41
20.0
 42
20.0
 43
20.0
 50
90.0
  0
TEXT
  5
27C
100
AcDbEntity
  8
SUNPOUT
100
AcDbText
 10
430.175667
 20
1672.122165
 30
0.0
 40
20.0
  1
820
 50
90.0
  7
K
 72
     1
 11
430.175667
 21
1700.693594
 31
0.0
100
AcDbText
  0
LINE
  5
27D
100
AcDbEntity
  8
SUNPOU
100
AcDbLine
 10
586.736003
 20
638.163112
 30
0.0
 11
586.736003
 21
488.319828
 31
0.0
  0
LINE
  5
27E
100
AcDbEntity
  8
SUNPOU
100
AcDbLine
 10
661.736003
 20
623.163112
 30
0.0
 11
661.736003
 21
488.319828
 31
0.0
  0
LINE
  5
27F
100
AcDbEntity
  8
SUNPOU
100
AcDbLine
 10
586.736003
 20
498.319828
 30
0.0
 11
661.736003
 21
498.319828
 31
0.0
  0
INSERT
  5
280
100
AcDbEntity
  8
SUNPOU
100
AcDbBlockReference
  2
ARROWANG
 10
586.736003
 20
498.319828
 30
0.0
 41
20.0
 42
20.0
 43
20.0
 50
180.0
  0
INSERT
  5
281
100
AcDbEntity
  8
SUNPOU
100
AcDbBlockReference
  2
ARROWANG
 10
661.736003
 20
498.319828
 30
0.0
 41
20.0
 42
20.0
 43
20.0
  0
TEXT
  5
282
100
AcDbEntity
  8
SUNPOUT
100
AcDbText
 10
605.188384
 20
513.319828
 30
0.0
 40
20.0
  1
75
  7
K
 72
     1
 11
624.236003
 21
513.319828
 31
0.0
100
AcDbText
  0
LINE
  5
283
100
AcDbEntity
  8
SUNPOU
100
AcDbLine
 10
661.736003
 20
488.319828
 30
0.0
 11
661.736003
 21
488.319828
 31
0.0
  0
LINE
  5
284
100
AcDbEntity
  8
SUNPOU
100
AcDbLine
 10
1296.736003
 20
623.163112
 30
0.0
 11
1296.736003
 21
488.319828
 31
0.0
  0
LINE
  5
285
100
AcDbEntity
  8
SUNPOU
100
AcDbLine
 10
661.736003
 20
498.319828
 30
0.0
 11
1296.736003
 21
498.319828
 31
0.0
  0
INSERT
  5
286
100
AcDbEntity
  8
SUNPOU
100
AcDbBlockReference
  2
ARROWANG
 10
661.736003
 20
498.319828
 30
0.0
 41
20.0
 42
20.0
 43
20.0
 50
180.0
  0
INSERT
  5
287
100
AcDbEntity
  8
SUNPOU
100
AcDbBlockReference
  2
ARROWANG
 10
1296.736003
 20
498.319828
 30
0.0
 41
20.0
 42
20.0
 43
20.0
  0
TEXT
  5
288
100
AcDbEntity
  8
SUNPOUT
100
AcDbText
 10
950.188384
 20
513.319828
 30
0.0
 40
20.0
  1
635
  7
K
 72
     1
 11
979.236003
 21
513.319828
 31
0.0
100
AcDbText
  0
LINE
  5
289
100
AcDbEntity
  8
SUNPOU
100
AcDbLine
 10
1296.736003
 20
488.319828
 30
0.0
 11
1296.736003
 21
488.319828
 31
0.0
  0
LINE
  5
28A
100
AcDbEntity
  8
SUNPOU
100
AcDbLine
 10
1636.736003
 20
638.163112
 30
0.0
 11
1636.736003
 21
488.319828
 31
0.0
  0
LINE
  5
28B
100
AcDbEntity
  8
SUNPOU
100
AcDbLine
 10
1296.736003
 20
498.319828
 30
0.0
 11
1636.736003
 21
498.319828
 31
0.0
  0
INSERT
  5
28C
100
AcDbEntity
  8
SUNPOU
100
AcDbBlockReference
  2
ARROWANG
 10
1296.736003
 20
498.319828
 30
0.0
 41
20.0
 42
20.0
 43
20.0
 50
180.0
  0
INSERT
  5
28D
100
AcDbEntity
  8
SUNPOU
100
AcDbBlockReference
  2
ARROWANG
 10
1636.736003
 20
498.319828
 30
0.0
 41
20.0
 42
20.0
 43
20.0
  0
TEXT
  5
28E
100
AcDbEntity
  8
SUNPOUT
100
AcDbText
 10
1438.164575
 20
513.319828
 30
0.0
 40
20.0
  1
340
  7
K
 72
     1
 11
1466.736003
 21
513.319828
 31
0.0
100
AcDbText
  0
LINE
  5
28F
100
AcDbEntity
  8
SUNPOU
100
AcDbLine
 10
586.736003
 20
803.163112
 30
0.0
 11
586.736003
 21
892.466178
 31
0.0
  0
LINE
  5
290
100
AcDbEntity
  8
SUNPOU
100
AcDbLine
 10
696.736003
 20
788.163112
 30
0.0
 11
696.736003
 21
892.466178
 31
0.0
  0
LINE
  5
291
100
AcDbEntity
  8
SUNPOU
100
AcDbLine
 10
586.736003
 20
882.466178
 30
0.0
 11
696.736003
 21
882.466178
 31
0.0
  0
INSERT
  5
292
100
AcDbEntity
  8
SUNPOU
100
AcDbBlockReference
  2
ARROWANG
 10
586.736003
 20
882.466178
 30
0.0
 41
20.0
 42
20.0
 43
20.0
 50
180.0
  0
INSERT
  5
293
100
AcDbEntity
  8
SUNPOU
100
AcDbBlockReference
  2
ARROWANG
 10
696.736003
 20
882.466178
 30
0.0
 41
20.0
 42
20.0
 43
20.0
  0
TEXT
  5
294
100
AcDbEntity
  8
SUNPOUT
100
AcDbText
 10
611.736003
 20
897.466178
 30
0.0
 40
20.0
  1
110
  7
K
 72
     1
 11
641.736003
 21
897.466178
 31
0.0
100
AcDbText
  0
LINE
  5
295
100
AcDbEntity
  8
SUNPOU
100
AcDbLine
 10
696.736003
 20
872.466178
 30
0.0
 11
696.736003
 21
872.466178
 31
0.0
  0
LINE
  5
296
100
AcDbEntity
  8
SUNPOU
100
AcDbLine
 10
1296.736003
 20
788.163112
 30
0.0
 11
1296.736003
 21
892.466178
 31
0.0
  0
LINE
  5
297
100
AcDbEntity
  8
SUNPOU
100
AcDbLine
 10
696.736003
 20
882.466178
 30
0.0
 11
1296.736003
 21
882.466178
 31
0.0
  0
INSERT
  5
298
100
AcDbEntity
  8
SUNPOU
100
AcDbBlockReference
  2
ARROWANG
 10
696.736003
 20
882.466178
 30
0.0
 41
20.0
 42
20.0
 43
20.0
 50
180.0
  0
INSERT
  5
299
100
AcDbEntity
  8
SUNPOU
100
AcDbBlockReference
  2
ARROWANG
 10
1296.736003
 20
882.466178
 30
0.0
 41
20.0
 42
20.0
 43
20.0
  0
TEXT
  5
29A
100
AcDbEntity
  8
SUNPOUT
100
AcDbText
 10
967.688384
 20
897.466178
 30
0.0
 40
20.0
  1
600
  7
K
 72
     1
 11
996.736003
 21
897.466178
 31
0.0
100
AcDbText
  0
LINE
  5
29B
100
AcDbEntity
  8
SUNPOU
100
AcDbLine
 10
1296.736003
 20
872.466178
 30
0.0
 11
1296.736003
 21
872.466178
 31
0.0
  0
LINE
  5
29C
100
AcDbEntity
  8
SUNPOU
100
AcDbLine
 10
1636.736003
 20
803.163112
 30
0.0
 11
1636.736003
 21
892.466178
 31
0.0
  0
LINE
  5
29D
100
AcDbEntity
  8
SUNPOU
100
AcDbLine
 10
1296.736003
 20
882.466178
 30
0.0
 11
1636.736003
 21
882.466178
 31
0.0
  0
INSERT
  5
29E
100
AcDbEntity
  8
SUNPOU
100
AcDbBlockReference
  2
ARROWANG
 10
1296.736003
 20
882.466178
 30
0.0
 41
20.0
 42
20.0
 43
20.0
 50
180.0
  0
INSERT
  5
29F
100
AcDbEntity
  8
SUNPOU
100
AcDbBlockReference
  2
ARROWANG
 10
1636.736003
 20
882.466178
 30
0.0
 41
20.0
 42
20.0
 43
20.0
  0
TEXT
  5
2A0
100
AcDbEntity
  8
SUNPOUT
100
AcDbText
 10
1438.164575
 20
897.466178
 30
0.0
 40
20.0
  1
340
  7
K
 72
     1
 11
1466.736003
 21
897.466178
 31
0.0
100
AcDbText
  0
LINE
  5
2A2
100
AcDbEntity
  8
SUNPOU
100
AcDbLine
 10
1636.736003
 20
638.163112
 30
0.0
 11
1636.736003
 21
626.562497
 31
0.0
  0
LINE
  5
2A3
100
AcDbEntity
  8
SUNPOU
100
AcDbLine
 10
1636.736003
 20
636.562497
 30
0.0
 11
1636.736003
 21
636.562497
 31
0.0
  0
LINE
  5
2A7
100
AcDbEntity
  8
SUNPOU
100
AcDbLine
 10
1646.736003
 20
648.163112
 30
0.0
 11
1767.985147
 21
648.163112
 31
0.0
  0
LINE
  5
2A8
100
AcDbEntity
  8
SUNPOU
100
AcDbLine
 10
1646.736003
 20
793.163112
 30
0.0
 11
1767.985147
 21
793.163112
 31
0.0
  0
LINE
  5
2A9
100
AcDbEntity
  8
SUNPOU
100
AcDbLine
 10
1757.985147
 20
648.163112
 30
0.0
 11
1757.985147
 21
793.163112
 31
0.0
  0
INSERT
  5
2AA
100
AcDbEntity
  8
SUNPOU
100
AcDbBlockReference
  2
ARROWANG
 10
1757.985147
 20
648.163112
 30
0.0
 41
20.0
 42
20.0
 43
20.0
 50
270.0
  0
INSERT
  5
2AB
100
AcDbEntity
  8
SUNPOU
100
AcDbBlockReference
  2
ARROWANG
 10
1757.985147
 20
793.163112
 30
0.0
 41
20.0
 42
20.0
 43
20.0
 50
90.0
  0
TEXT
  5
2AC
100
AcDbEntity
  8
SUNPOUT
100
AcDbText
 10
1742.985147
 20
690.663112
 30
0.0
 40
20.0
  1
145
 50
90.0
  7
K
 72
     1
 11
1742.985147
 21
720.663112
 31
0.0
100
AcDbText
  0
LINE
  5
2BB
100
AcDbEntity
  8
SUNPOU
100
AcDbLine
 10
1612.736003
 20
633.163112
 30
0.0
 11
1767.985147
 21
633.163112
 31
0.0
  0
LINE
  5
2BC
100
AcDbEntity
  8
SUNPOU
100
AcDbLine
 10
1767.985147
 20
648.163112
 30
0.0
 11
1767.985147
 21
648.163112
 31
0.0
  0
LINE
  5
2BD
100
AcDbEntity
  8
SUNPOU
100
AcDbLine
 10
1757.985147
 20
633.163112
 30
0.0
 11
1757.985147
 21
648.163112
 31
0.0
  0
INSERT
  5
2BE
100
AcDbEntity
  8
SUNPOU
100
AcDbBlockReference
  2
ARROWANG
 10
1757.985147
 20
633.163112
 30
0.0
 41
20.0
 42
20.0
 43
20.0
 50
90.0
  0
LINE
  5
2C0
100
AcDbEntity
  8
SUNPOU
100
AcDbLine
 10
1757.985147
 20
633.163112
 30
0.0
 11
1757.985147
 21
565.163112
 31
0.0
  0
TEXT
  5
2C2
100
AcDbEntity
  8
SUNPOUT
100
AcDbText
 10
1742.985147
 20
566.686921
 30
0.0
 40
20.0
  1
15
 50
90.0
  7
K
 72
     1
 11
1742.985147
 21
587.163112
 31
0.0
100
AcDbText
  0
LINE
  5
444
100
AcDbEntity
  8
JISSEN
100
AcDbLine
 10
0.0
 20
2670.0
 30
0.0
 11
3899.999984
 21
2670.0
 31
0.0
  0
LINE
  5
445
100
AcDbEntity
  8
JISSEN
100
AcDbLine
 10
0.0
 20
2670.0
 30
0.0
 11
0.0
 21
0.0
 31
0.0
  0
LINE
  5
446
100
AcDbEntity
  8
JISSEN
100
AcDbLine
 10
3899.999984
 20
2670.0
 30
0.0
 11
3899.999984
 21
0.0
 31
0.0
  0
INSERT
  5
448
100
AcDbEntity
  8
WAKU
100
AcDbBlockReference
  2
WAKU
 10
0.0
 20
0.0
 30
0.0
 41
3900.0
 42
2670.0
 43
3900.0
  0
TEXT
  5
44C
100
AcDbEntity
  8
JISSEN
100
AcDbText
 10
1651.67981
 20
2477.388686
 30
0.0
 40
60.0
  1
ME1TP
  7
K
100
AcDbText
  0
LINE
  5
44F
100
AcDbEntity
  8
SUNPOU
100
AcDbLine
 10
2236.100042
 20
2120.693594
 30
0.0
 11
2236.100042
 21
2245.637058
 31
0.0
  0
LINE
  5
450
100
AcDbEntity
  8
SUNPOU
100
AcDbLine
 10
2381.100042
 20
2085.693594
 30
0.0
 11
2381.100042
 21
2245.637058
 31
0.0
  0
LINE
  5
451
100
AcDbEntity
  8
SUNPOU
100
AcDbLine
 10
2236.100042
 20
2235.637058
 30
0.0
 11
2381.100042
 21
2235.637058
 31
0.0
  0
INSERT
  5
452
100
AcDbEntity
  8
SUNPOU
100
AcDbBlockReference
  2
ARROWANG
 10
2236.100042
 20
2235.637058
 30
0.0
 41
20.0
 42
20.0
 43
20.0
 50
180.0
  0
INSERT
  5
453
100
AcDbEntity
  8
SUNPOU
100
AcDbBlockReference
  2
ARROWANG
 10
2381.100042
 20
2235.637058
 30
0.0
 41
20.0
 42
20.0
 43
20.0
  0
TEXT
  5
454
100
AcDbEntity
  8
SUNPOUT
100
AcDbText
 10
2278.600042
 20
2250.637058
 30
0.0
 40
20.0
  1
145
  7
K
 72
     1
 11
2308.600042
 21
2250.637058
 31
0.0
100
AcDbText
  0
VIEWPORT
  5
22
100
AcDbEntity
 67
     1
  8
0
100
AcDbViewport
 10
261.517699
 20
148.5
 30
0.0
 40
523.035398
 41
297.0
 68
    -1
 69
     1
1001
ACAD
1000
MVIEW
1002
{
1070
    16
1010
0.0
1020
0.0
1030
0.0
1010
0.0
1020
0.0
1030
1.0
1040
0.0
1040
297.0
1040
261.517699
1040
148.5
1040
50.0
1040
0.0
1040
0.0
1070
     0
1070
   100
1070
     1
1070
     1
1070
     0
1070
     0
1070
     0
1070
     0
1040
0.0
1040
0.0
1040
0.0
1040
1.0
1040
1.0
1040
10.0
1040
10.0
1070
     0
1002
{
1002
}
1002
}
  0
ENDSEC
  0
SECTION
  2
OBJECTS
  0
DICTIONARY
  5
C
100
AcDbDictionary
  3
ACAD_GROUP
350
D
  3
ACAD_MLINESTYLE
350
E
  0
DICTIONARY
  5
D
102
{ACAD_REACTORS
330
C
102
}
100
AcDbDictionary
  0
DICTIONARY
  5
E
102
{ACAD_REACTORS
330
C
102
}
100
AcDbDictionary
  3
STANDARD
350
13
  0
MLINESTYLE
  5
13
102
{ACAD_REACTORS
330
E
102
}
100
AcDbMlineStyle
  2
STANDARD
 70
     0
  3

 62
     0
 51
90.0
 52
90.0
 71
     2
 49
0.5
 62
   256
  6
BYLAYER
 49
-0.5
 62
   256
  6
BYLAYER
  0
ENDSEC
  0
EOF
