  0
SECTION
  2
HEADER
  9
$ACADVER
  1
AC1012
  9
$DWGCODEPAGE
  3
dos932
  9
$INSBASE
 10
0.0
 20
0.0
 30
0.0
  9
$EXTMIN
 10
253.791792
 20
1209.526283
 30
0.0
  9
$EXTMAX
 10
6918.336022
 20
5192.30342
 30
0.0
  9
$LIMMIN
 10
0.0
 20
0.0
  9
$LIMMAX
 10
7800.0
 20
5340.0
  9
$ORTHOMODE
 70
     0
  9
$REGENMODE
 70
     1
  9
$FILLMODE
 70
     1
  9
$QTEXTMODE
 70
     0
  9
$MIRRTEXT
 70
     1
  9
$DRAGMODE
 70
     2
  9
$LTSCALE
 40
100.0
  9
$OSMODE
 70
     0
  9
$ATTMODE
 70
     1
  9
$TEXTSIZE
 40
40.0
  9
$TRACEWID
 40
1.0
  9
$TEXTSTYLE
  7
STANDARD
  9
$CLAYER
  8
ITTEN
  9
$CELTYPE
  6
BYLAYER
  9
$CECOLOR
 62
   256
  9
$CELTSCALE
 40
1.0
  9
$DELOBJ
 70
     1
  9
$DISPSILH
 70
     0
  9
$DIMSCALE
 40
20.0
  9
$DIMASZ
 40
1.5
  9
$DIMEXO
 40
1.0
  9
$DIMDLI
 40
6.0
  9
$DIMRND
 40
0.0
  9
$DIMDLE
 40
0.0
  9
$DIMEXE
 40
1.0
  9
$DIMTP
 40
495.0
  9
$DIMTM
 40
0.0
  9
$DIMTXT
 40
2.0
  9
$DIMCEN
 40
0.0
  9
$DIMTSZ
 40
0.0
  9
$DIMTOL
 70
     0
  9
$DIMLIM
 70
     0
  9
$DIMTIH
 70
     0
  9
$DIMTOH
 70
     0
  9
$DIMSE1
 70
     0
  9
$DIMSE2
 70
     0
  9
$DIMTAD
 70
     3
  9
$DIMZIN
 70
     8
  9
$DIMBLK
  1
ARROWANG
  9
$DIMASO
 70
     0
  9
$DIMSHO
 70
     1
  9
$DIMPOST
  1

  9
$DIMAPOST
  1

  9
$DIMALT
 70
     0
  9
$DIMALTD
 70
     2
  9
$DIMALTF
 40
25.4
  9
$DIMLFAC
 40
1.0
  9
$DIMTOFL
 70
     1
  9
$DIMTVP
 40
0.0
  9
$DIMTIX
 70
     1
  9
$DIMSOXD
 70
     0
  9
$DIMSAH
 70
     1
  9
$DIMBLK1
  1
ARROWANG
  9
$DIMBLK2
  1
ARROWANG
  9
$DIMSTYLE
  2
ITM
  9
$DIMCLRD
 70
     0
  9
$DIMCLRE
 70
     0
  9
$DIMCLRT
 70
     0
  9
$DIMTFAC
 40
1.0
  9
$DIMGAP
 40
0.5
  9
$DIMJUST
 70
     0
  9
$DIMSD1
 70
     0
  9
$DIMSD2
 70
     0
  9
$DIMTOLJ
 70
     1
  9
$DIMTZIN
 70
     0
  9
$DIMALTZ
 70
     0
  9
$DIMALTTZ
 70
     0
  9
$DIMFIT
 70
     3
  9
$DIMUPT
 70
     0
  9
$DIMUNIT
 70
     2
  9
$DIMDEC
 70
     4
  9
$DIMTDEC
 70
     4
  9
$DIMALTU
 70
     2
  9
$DIMALTTD
 70
     2
  9
$DIMTXSTY
  7
K
  9
$DIMAUNIT
 70
     0
  9
$LUNITS
 70
     2
  9
$LUPREC
 70
     2
  9
$SKETCHINC
 40
1.0
  9
$FILLETRAD
 40
0.0
  9
$AUNITS
 70
     0
  9
$AUPREC
 70
     0
  9
$MENU
  1
.
  9
$ELEVATION
 40
0.0
  9
$PELEVATION
 40
0.0
  9
$THICKNESS
 40
0.0
  9
$LIMCHECK
 70
     0
  9
$BLIPMODE
 70
     1
  9
$CHAMFERA
 40
10.0
  9
$CHAMFERB
 40
10.0
  9
$CHAMFERC
 40
0.0
  9
$CHAMFERD
 40
0.0
  9
$SKPOLY
 70
     0
  9
$TDCREATE
 40
2451884.607900578
  9
$TDUPDATE
 40
2452065.647190046
  9
$TDINDWG
 40
0.0212599537
  9
$TDUSRTIMER
 40
0.0212599537
  9
$USRTIMER
 70
     1
  9
$ANGBASE
 50
0.0
  9
$ANGDIR
 70
     0
  9
$PDMODE
 70
     0
  9
$PDSIZE
 40
0.0
  9
$PLINEWID
 40
0.0
  9
$COORDS
 70
     1
  9
$SPLFRAME
 70
     0
  9
$SPLINETYPE
 70
     6
  9
$SPLINESEGS
 70
     8
  9
$ATTDIA
 70
     0
  9
$ATTREQ
 70
     1
  9
$HANDLING
 70
     1
  9
$HANDSEED
  5
96B
  9
$SURFTAB1
 70
     6
  9
$SURFTAB2
 70
     6
  9
$SURFTYPE
 70
     6
  9
$SURFU
 70
     6
  9
$SURFV
 70
     6
  9
$UCSNAME
  2

  9
$UCSORG
 10
0.0
 20
0.0
 30
0.0
  9
$UCSXDIR
 10
1.0
 20
0.0
 30
0.0
  9
$UCSYDIR
 10
0.0
 20
1.0
 30
0.0
  9
$PUCSNAME
  2

  9
$PUCSORG
 10
0.0
 20
0.0
 30
0.0
  9
$PUCSXDIR
 10
1.0
 20
0.0
 30
0.0
  9
$PUCSYDIR
 10
0.0
 20
1.0
 30
0.0
  9
$USERI1
 70
     3
  9
$USERI2
 70
     1
  9
$USERI3
 70
    20
  9
$USERI4
 70
     0
  9
$USERI5
 70
     0
  9
$USERR1
 40
20.0
  9
$USERR2
 40
1.0
  9
$USERR3
 40
2.0
  9
$USERR4
 40
1.5
  9
$USERR5
 40
10.0
  9
$WORLDVIEW
 70
     1
  9
$SHADEDGE
 70
     3
  9
$SHADEDIF
 70
    70
  9
$TILEMODE
 70
     1
  9
$MAXACTVP
 70
    16
  9
$PINSBASE
 10
0.0
 20
0.0
 30
0.0
  9
$PLIMCHECK
 70
     0
  9
$PEXTMIN
 10
1.000000E+20
 20
1.000000E+20
 30
1.000000E+20
  9
$PEXTMAX
 10
-1.000000E+20
 20
-1.000000E+20
 30
-1.000000E+20
  9
$PLIMMIN
 10
0.0
 20
0.0
  9
$PLIMMAX
 10
420.0
 20
297.0
  9
$UNITMODE
 70
     0
  9
$VISRETAIN
 70
     0
  9
$PLINEGEN
 70
     0
  9
$PSLTSCALE
 70
     1
  9
$TREEDEPTH
 70
  3020
  9
$PICKSTYLE
 70
     1
  9
$CMLSTYLE
  2
STANDARD
  9
$CMLJUST
 70
     0
  9
$CMLSCALE
 40
1.0
  9
$SAVEIMAGES
 70
     0
  0
ENDSEC
  0
SECTION
  2
CLASSES
  0
ENDSEC
  0
SECTION
  2
TABLES
  0
TABLE
  2
VPORT
  5
8
100
AcDbSymbolTable
 70
     2
  0
VPORT
  5
96A
100
AcDbSymbolTableRecord
100
AcDbViewportTableRecord
  2
*ACTIVE
 70
     0
 10
0.0
 20
0.0
 11
1.0
 21
1.0
 12
3875.948885
 22
3200.914851
 13
0.0
 23
0.0
 14
10.0
 24
10.0
 15
10.0
 25
10.0
 16
0.0
 26
0.0
 36
1.0
 17
0.0
 27
0.0
 37
0.0
 40
3982.777137
 41
1.81891
 42
50.0
 43
0.0
 44
0.0
 50
0.0
 51
0.0
 71
     0
 72
   100
 73
     1
 74
     1
 75
     0
 76
     0
 77
     0
 78
     0
  0
ENDTAB
  0
TABLE
  2
LTYPE
  5
5
100
AcDbSymbolTable
 70
     5
  0
LTYPE
  5
14
100
AcDbSymbolTableRecord
100
AcDbLinetypeTableRecord
  2
BYBLOCK
 70
     0
  3

 72
    65
 73
     0
 40
0.0
  0
LTYPE
  5
15
100
AcDbSymbolTableRecord
100
AcDbLinetypeTableRecord
  2
BYLAYER
 70
     0
  3

 72
    65
 73
     0
 40
0.0
  0
LTYPE
  5
16
100
AcDbSymbolTableRecord
100
AcDbLinetypeTableRecord
  2
CONTINUOUS
 70
    64
  3
Solid line
 72
    65
 73
     0
 40
0.0
  0
LTYPE
  5
55
100
AcDbSymbolTableRecord
100
AcDbLinetypeTableRecord
  2
DASHED
 70
    64
  3
__ __ __ __ __ __ __ __ __ __ __ __ __ __ __
 72
    65
 73
     2
 40
0.75
 49
0.5
 74
     0
 49
-0.25
 74
     0
  0
LTYPE
  5
56
100
AcDbSymbolTableRecord
100
AcDbLinetypeTableRecord
  2
CENTER
 70
    64
  3
____ _ ____ _ ____ _ ____ _ ____ _ ____ _ ____
 72
    65
 73
     4
 40
2.0
 49
1.25
 74
     0
 49
-0.25
 74
     0
 49
0.25
 74
     0
 49
-0.25
 74
     0
  0
LTYPE
  5
57
100
AcDbSymbolTableRecord
100
AcDbLinetypeTableRecord
  2
PHANTOM
 70
    64
  3
_____ _ _ _____ _ _ _____ _ _ _____ _ _ ____
 72
    65
 73
     6
 40
2.5
 49
1.25
 74
     0
 49
-0.25
 74
     0
 49
0.25
 74
     0
 49
-0.25
 74
     0
 49
0.25
 74
     0
 49
-0.25
 74
     0
  0
LTYPE
  5
58
100
AcDbSymbolTableRecord
100
AcDbLinetypeTableRecord
  2
HIDDEN
 70
    64
  3
_ _ _ _ _ _ _ _ _ _ _ _ _ _ _ _ _ _ _ _ _ _ _
 72
    65
 73
     2
 40
0.375
 49
0.25
 74
     0
 49
-0.125
 74
     0
  0
ENDTAB
  0
TABLE
  2
LAYER
  5
2
100
AcDbSymbolTable
 70
    15
  0
LAYER
  5
F
100
AcDbSymbolTableRecord
100
AcDbLayerTableRecord
  2
0
 70
     0
 62
     7
  6
CONTINUOUS
  0
LAYER
  5
59
100
AcDbSymbolTableRecord
100
AcDbLayerTableRecord
  2
HASEN
 70
     0
 62
     2
  6
DASHED
  0
LAYER
  5
5A
100
AcDbSymbolTableRecord
100
AcDbLayerTableRecord
  2
ITTEN
 70
     0
 62
     1
  6
CENTER
  0
LAYER
  5
5B
100
AcDbSymbolTableRecord
100
AcDbLayerTableRecord
  2
NITEN
 70
     0
 62
     2
  6
PHANTOM
  0
LAYER
  5
5C
100
AcDbSymbolTableRecord
100
AcDbLayerTableRecord
  2
HATCH
 70
     0
 62
     4
  6
CONTINUOUS
  0
LAYER
  5
5D
100
AcDbSymbolTableRecord
100
AcDbLayerTableRecord
  2
SUNPOU
 70
    64
 62
     3
  6
CONTINUOUS
  0
LAYER
  5
5E
100
AcDbSymbolTableRecord
100
AcDbLayerTableRecord
  2
TEXT
 70
     0
 62
     3
  6
CONTINUOUS
  0
LAYER
  5
5F
100
AcDbSymbolTableRecord
100
AcDbLayerTableRecord
  2
SAISEN
 70
     0
 62
     4
  6
CONTINUOUS
  0
LAYER
  5
60
100
AcDbSymbolTableRecord
100
AcDbLayerTableRecord
  2
JISSEN
 70
    64
 62
     7
  6
CONTINUOUS
  0
LAYER
  5
61
100
AcDbSymbolTableRecord
100
AcDbLayerTableRecord
  2
HOJO
 70
    64
 62
     6
  6
CONTINUOUS
  0
LAYER
  5
62
100
AcDbSymbolTableRecord
100
AcDbLayerTableRecord
  2
TENSEN
 70
     0
 62
     2
  6
HIDDEN
  0
LAYER
  5
63
100
AcDbSymbolTableRecord
100
AcDbLayerTableRecord
  2
HOJOORG
 70
    64
 62
     1
  6
CONTINUOUS
  0
LAYER
  5
64
100
AcDbSymbolTableRecord
100
AcDbLayerTableRecord
  2
WAKU
 70
    64
 62
     5
  6
CONTINUOUS
  0
LAYER
  5
65
100
AcDbSymbolTableRecord
100
AcDbLayerTableRecord
  2
POINT
 70
     0
 62
     7
  6
CONTINUOUS
  0
LAYER
  5
80
100
AcDbSymbolTableRecord
100
AcDbLayerTableRecord
  2
SUNPOUT
 70
    64
 62
     3
  6
CONTINUOUS
  0
ENDTAB
  0
TABLE
  2
STYLE
  5
3
100
AcDbSymbolTable
 70
     4
  0
STYLE
  5
10
100
AcDbSymbolTableRecord
100
AcDbTextStyleTableRecord
  2
STANDARD
 70
    64
 40
0.0
 41
1.0
 50
0.0
 71
     0
 42
2.5
  3
ROMANS
  4
EXTFONT
  0
STYLE
  5
66
100
AcDbSymbolTableRecord
100
AcDbTextStyleTableRecord
  2
K
 70
    64
 40
0.0
 41
1.0
 50
0.0
 71
     0
 42
40.0
  3
ROMANS
  4
EXTFONT
  0
STYLE
  5
FC
100
AcDbSymbolTableRecord
100
AcDbTextStyleTableRecord
  2
MSGOTHI-P
 70
    64
 40
0.0
 41
1.0
 50
0.0
 71
     0
 42
1.0
  3
C:\r13\com\fonts\msgothi2.TTF
  4

  0
STYLE
  5
FE
100
AcDbSymbolTableRecord
100
AcDbTextStyleTableRecord
  2
MSMINCH-P
 70
    64
 40
0.0
 41
1.0
 50
0.0
 71
     0
 42
1.0
  3
C:\r13\com\fonts\msminch2.TTF
  4

  0
ENDTAB
  0
TABLE
  2
VIEW
  5
6
100
AcDbSymbolTable
 70
     0
  0
ENDTAB
  0
TABLE
  2
UCS
  5
7
100
AcDbSymbolTable
 70
     0
  0
ENDTAB
  0
TABLE
  2
APPID
  5
9
100
AcDbSymbolTable
 70
     2
  0
APPID
  5
11
100
AcDbSymbolTableRecord
100
AcDbRegAppTableRecord
  2
ACAD
 70
     0
  0
APPID
  5
ED
100
AcDbSymbolTableRecord
100
AcDbRegAppTableRecord
  2
COMM
 70
     0
  0
ENDTAB
  0
TABLE
  2
DIMSTYLE
  5
A
100
AcDbSymbolTable
 70
     9
  0
DIMSTYLE
105
1D
100
AcDbSymbolTableRecord
100
AcDbDimStyleTableRecord
  2
STANDARD
 70
     0
  3

  4

  5

  6

  7

 40
1.0
 41
0.18
 42
0.0625
 43
0.38
 44
0.18
 45
0.0
 46
0.0
 47
0.0
 48
0.0
140
0.18
141
0.09
142
0.0
143
25.4
144
1.0
145
0.0
146
1.0
147
0.09
 71
     0
 72
     0
 73
     1
 74
     1
 75
     0
 76
     0
 77
     0
 78
     0
170
     0
171
     2
172
     0
173
     0
174
     0
175
     0
176
     0
177
     0
178
     0
270
     2
271
     4
272
     4
273
     2
274
     2
340
10
275
     0
280
     0
281
     0
282
     0
283
     1
284
     0
285
     0
286
     0
287
     3
288
     0
  0
DIMSTYLE
105
24
100
AcDbSymbolTableRecord
100
AcDbDimStyleTableRecord
  2
ISO-25
 70
     0
  3

  4

  5

  6

  7

 40
1.0
 41
2.5
 42
0.625
 43
3.75
 44
1.25
 45
0.0
 46
0.0
 47
0.0
 48
0.0
140
2.5
141
2.5
142
0.0
143
0.0394
144
1.0
145
1.0
146
1.0
147
0.625
 71
     0
 72
     0
 73
     1
 74
     0
 75
     0
 76
     0
 77
     1
 78
     8
170
     0
171
     2
172
     1
173
     0
174
     0
175
     0
176
     0
177
     0
178
     0
270
     2
271
     4
272
     4
273
     2
274
     2
340
10
275
     0
280
     0
281
     0
282
     0
283
     1
284
     0
285
     0
286
     0
287
     3
288
     0
  0
DIMSTYLE
105
25
100
AcDbSymbolTableRecord
100
AcDbDimStyleTableRecord
  2
ISO-35
 70
     0
  3

  4

  5

  6

  7

 40
1.0
 41
3.5
 42
0.875
 43
5.25
 44
1.75
 45
0.0
 46
0.0
 47
0.0
 48
0.0
140
3.5
141
3.5
142
0.0
143
0.0394
144
1.0
145
1.4
146
1.0
147
0.875
 71
     0
 72
     0
 73
     1
 74
     0
 75
     0
 76
     0
 77
     1
 78
     8
170
     0
171
     2
172
     1
173
     0
174
     0
175
     0
176
     0
177
     0
178
     0
270
     2
271
     4
272
     4
273
     2
274
     2
340
10
275
     0
280
     0
281
     0
282
     0
283
     1
284
     0
285
     0
286
     0
287
     3
288
     0
  0
DIMSTYLE
105
26
100
AcDbSymbolTableRecord
100
AcDbDimStyleTableRecord
  2
ISO-5
 70
     0
  3

  4

  5

  6

  7

 40
1.0
 41
5.0
 42
1.25
 43
7.5
 44
2.5
 45
0.0
 46
0.0
 47
0.0
 48
0.0
140
5.0
141
5.0
142
0.0
143
0.0394
144
1.0
145
2.0
146
1.0
147
1.25
 71
     0
 72
     0
 73
     1
 74
     0
 75
     0
 76
     0
 77
     1
 78
     8
170
     0
171
     2
172
     1
173
     0
174
     0
175
     0
176
     0
177
     0
178
     0
270
     2
271
     4
272
     4
273
     2
274
     2
340
10
275
     0
280
     0
281
     0
282
     0
283
     1
284
     0
285
     0
286
     0
287
     3
288
     0
  0
DIMSTYLE
105
27
100
AcDbSymbolTableRecord
100
AcDbDimStyleTableRecord
  2
ISO-7
 70
     0
  3

  4

  5

  6

  7

 40
1.0
 41
7.0
 42
1.75
 43
10.5
 44
3.5
 45
0.0
 46
0.0
 47
0.0
 48
0.0
140
7.0
141
7.0
142
0.0
143
0.0394
144
1.0
145
2.8
146
1.0
147
1.75
 71
     0
 72
     0
 73
     1
 74
     0
 75
     0
 76
     0
 77
     1
 78
     8
170
     0
171
     2
172
     1
173
     0
174
     0
175
     0
176
     0
177
     0
178
     0
270
     2
271
     4
272
     4
273
     2
274
     2
340
10
275
     0
280
     0
281
     0
282
     0
283
     1
284
     0
285
     0
286
     0
287
     3
288
     0
  0
DIMSTYLE
105
28
100
AcDbSymbolTableRecord
100
AcDbDimStyleTableRecord
  2
ISO1
 70
     0
  3

  4

  5

  6

  7

 40
1.0
 41
10.0
 42
2.5
 43
15.0
 44
5.0
 45
0.0
 46
0.0
 47
0.0
 48
0.0
140
10.0
141
10.0
142
0.0
143
0.0394
144
1.0
145
4.0
146
1.0
147
2.5
 71
     0
 72
     0
 73
     1
 74
     0
 75
     0
 76
     0
 77
     1
 78
     8
170
     0
171
     2
172
     1
173
     0
174
     0
175
     0
176
     0
177
     0
178
     0
270
     2
271
     4
272
     4
273
     2
274
     2
340
10
275
     0
280
     0
281
     0
282
     0
283
     1
284
     0
285
     0
286
     0
287
     3
288
     0
  0
DIMSTYLE
105
29
100
AcDbSymbolTableRecord
100
AcDbDimStyleTableRecord
  2
ISO1-4
 70
     0
  3

  4

  5

  6

  7

 40
1.0
 41
14.0
 42
3.5
 43
21.0
 44
7.0
 45
0.0
 46
0.0
 47
0.0
 48
0.0
140
14.0
141
14.0
142
0.0
143
0.0394
144
1.0
145
5.6
146
1.0
147
3.5
 71
     0
 72
     0
 73
     1
 74
     0
 75
     0
 76
     0
 77
     1
 78
     8
170
     0
171
     2
172
     1
173
     0
174
     0
175
     0
176
     0
177
     0
178
     0
270
     2
271
     4
272
     4
273
     2
274
     2
340
10
275
     0
280
     0
281
     0
282
     0
283
     1
284
     0
285
     0
286
     0
287
     3
288
     0
  0
DIMSTYLE
105
2A
100
AcDbSymbolTableRecord
100
AcDbDimStyleTableRecord
  2
ISO2
 70
     0
  3

  4

  5

  6

  7

 40
1.0
 41
20.0
 42
5.0
 43
30.0
 44
10.0
 45
0.0
 46
0.0
 47
0.0
 48
0.0
140
20.0
141
20.0
142
0.0
143
0.0394
144
1.0
145
8.0
146
1.0
147
5.0
 71
     0
 72
     0
 73
     1
 74
     0
 75
     0
 76
     0
 77
     1
 78
     8
170
     0
171
     2
172
     1
173
     0
174
     0
175
     0
176
     0
177
     0
178
     0
270
     2
271
     4
272
     4
273
     2
274
     2
340
10
275
     0
280
     0
281
     0
282
     0
283
     1
284
     0
285
     0
286
     0
287
     3
288
     0
  0
DIMSTYLE
105
93
100
AcDbSymbolTableRecord
100
AcDbDimStyleTableRecord
  2
ITM
 70
     0
  3

  4

  5
ARROWANG
  6
ARROWANG
  7
ARROWANG
 40
1.0
 41
1.5
 42
1.0
 43
6.0
 44
1.0
 45
0.0
 46
0.0
 47
495.0
 48
0.0
140
3.0
141
0.0
142
0.0
143
25.4
144
1.0
145
0.0
146
1.0
147
0.5
 71
     0
 72
     0
 73
     0
 74
     0
 75
     0
 76
     0
 77
     3
 78
     8
170
     0
171
     2
172
     1
173
     1
174
     1
175
     0
176
     0
177
     0
178
     0
270
     2
271
     4
272
     4
273
     2
274
     2
340
66
275
     0
280
     0
281
     0
282
     0
283
     1
284
     0
285
     0
286
     0
287
     3
288
     0
  0
ENDTAB
  0
TABLE
  2
BLOCK_RECORD
  5
1
100
AcDbSymbolTable
 70
     8
  0
BLOCK_RECORD
  5
1A
100
AcDbSymbolTableRecord
100
AcDbBlockTableRecord
  2
*MODEL_SPACE
  0
BLOCK_RECORD
  5
17
100
AcDbSymbolTableRecord
100
AcDbBlockTableRecord
  2
*PAPER_SPACE
  0
BLOCK_RECORD
  5
2F
100
AcDbSymbolTableRecord
100
AcDbBlockTableRecord
  2
ARROW
  0
BLOCK_RECORD
  5
41
100
AcDbSymbolTableRecord
100
AcDbBlockTableRecord
  2
WAKU
  0
BLOCK_RECORD
  5
50
100
AcDbSymbolTableRecord
100
AcDbBlockTableRecord
  2
ARROWANG
  0
BLOCK_RECORD
  5
E1
100
AcDbSymbolTableRecord
100
AcDbBlockTableRecord
  2
DOT
  0
BLOCK_RECORD
  5
113
100
AcDbSymbolTableRecord
100
AcDbBlockTableRecord
  2
A$C4372
  0
BLOCK_RECORD
  5
789
100
AcDbSymbolTableRecord
100
AcDbBlockTableRecord
  2
A$CD230
  0
BLOCK_RECORD
  5
918
100
AcDbSymbolTableRecord
100
AcDbBlockTableRecord
  2
A$CE0A5
  0
BLOCK_RECORD
  5
938
100
AcDbSymbolTableRecord
100
AcDbBlockTableRecord
  2
A$C4094
  0
ENDTAB
  0
ENDSEC
  0
SECTION
  2
BLOCKS
  0
BLOCK
  5
1B
100
AcDbEntity
  8
0
100
AcDbBlockBegin
  2
*MODEL_SPACE
 70
     0
 10
0.0
 20
0.0
 30
0.0
  3
*MODEL_SPACE
  1

  0
ENDBLK
  5
1C
100
AcDbEntity
  8
0
100
AcDbBlockEnd
  0
BLOCK
  5
18
100
AcDbEntity
 67
     1
  8
0
100
AcDbBlockBegin
  2
*PAPER_SPACE
 70
     0
 10
0.0
 20
0.0
 30
0.0
  3
*PAPER_SPACE
  1

  0
ENDBLK
  5
19
100
AcDbEntity
 67
     1
  8
0
100
AcDbBlockEnd
  0
BLOCK
  5
33
100
AcDbEntity
  8
0
100
AcDbBlockBegin
  2
ARROW
 70
     0
 10
1.0
 20
0.5
 30
0.0
  3
ARROW
  1

  0
LINE
  5
30
100
AcDbEntity
  8
0
100
AcDbLine
 10
1.0
 20
0.5
 30
0.0
 11
-0.5
 21
0.098076
 31
0.0
  0
LINE
  5
31
100
AcDbEntity
  8
0
100
AcDbLine
 10
0.0
 20
0.5
 30
0.0
 11
1.0
 21
0.5
 31
0.0
  0
LINE
  5
32
100
AcDbEntity
  8
0
100
AcDbLine
 10
1.0
 20
0.5
 30
0.0
 11
-0.5
 21
0.901924
 31
0.0
  0
ENDBLK
  5
34
100
AcDbEntity
  8
0
100
AcDbBlockEnd
  0
BLOCK
  5
D1
100
AcDbEntity
  8
0
100
AcDbBlockBegin
  2
WAKU
 70
    64
 10
0.0
 20
0.0
 30
0.0
  3
WAKU
  1

  0
LINE
  5
D2
100
AcDbEntity
  8
0
100
AcDbLine
 10
0.0
 20
0.0
 30
0.0
 11
0.0
 21
1.0
 31
0.0
  0
LINE
  5
D3
100
AcDbEntity
  8
0
100
AcDbLine
 10
1.0
 20
0.0
 30
0.0
 11
1.0
 21
1.0
 31
0.0
  0
LINE
  5
D4
100
AcDbEntity
  8
0
100
AcDbLine
 10
0.0
 20
1.0
 30
0.0
 11
1.0
 21
1.0
 31
0.0
  0
LINE
  5
D5
100
AcDbEntity
  8
0
100
AcDbLine
 10
1.0
 20
0.0
 30
0.0
 11
0.0
 21
0.0
 31
0.0
  0
ENDBLK
  5
D6
100
AcDbEntity
  8
0
100
AcDbBlockEnd
  0
BLOCK
  5
C8
100
AcDbEntity
  8
0
100
AcDbBlockBegin
  2
ARROWANG
 70
    64
 10
0.0
 20
0.0
 30
0.0
  3
ARROWANG
  1

  0
LINE
  5
C9
100
AcDbEntity
  8
0
100
AcDbLine
 10
0.0
 20
0.0
 30
0.0
 11
-1.5
 21
0.401924
 31
0.0
  0
LINE
  5
CA
100
AcDbEntity
  8
0
100
AcDbLine
 10
0.0
 20
0.0
 30
0.0
 11
-1.5
 21
-0.401924
 31
0.0
  0
ENDBLK
  5
CB
100
AcDbEntity
  8
0
100
AcDbBlockEnd
  0
BLOCK
  5
E2
100
AcDbEntity
  8
0
100
AcDbBlockBegin
  2
DOT
 70
    64
 10
0.0
 20
0.0
 30
0.0
  3
DOT
  1

  0
LINE
  5
E3
100
AcDbEntity
  8
JISSEN
100
AcDbLine
 10
0.0
 20
0.0
 30
0.0
 11
-1.0
 21
0.0
 31
0.0
  0
POLYLINE
  5
E4
100
AcDbEntity
  8
JISSEN
100
AcDb2dPolyline
 66
     1
 10
0.0
 20
0.0
 30
0.0
 70
     1
 40
0.5
 41
0.5
  0
VERTEX
  5
E5
100
AcDbEntity
  8
JISSEN
100
AcDbVertex
100
AcDb2dVertex
 10
-0.25
 20
0.0
 30
0.0
 42
1.0
  0
VERTEX
  5
E6
100
AcDbEntity
  8
JISSEN
100
AcDbVertex
100
AcDb2dVertex
 10
0.25
 20
0.0
 30
0.0
 42
1.0
  0
SEQEND
  5
E7
100
AcDbEntity
  8
JISSEN
  0
ENDBLK
  5
E8
100
AcDbEntity
  8
0
100
AcDbBlockEnd
  0
BLOCK
  5
3FD
100
AcDbEntity
  8
JISSEN
100
AcDbBlockBegin
  2
A$C4372
 70
     0
 10
0.0
 20
0.0
 30
0.0
  3
A$C4372
  1

  0
TEXT
  5
114
100
AcDbEntity
  8
TEXT
100
AcDbText
 10
12608.652226
 20
3148.42846
 30
0.0
 40
150.0
  1
MA1S30
  7
K
100
AcDbText
  0
TEXT
  5
115
100
AcDbEntity
  8
TEXT
100
AcDbText
 10
7407.580706
 20
3133.126083
 30
0.0
 40
150.0
  1
MA1S60
  7
K
100
AcDbText
  0
TEXT
  5
116
100
AcDbEntity
  8
TEXT
100
AcDbText
 10
2198.748966
 20
3143.151778
 30
0.0
 40
150.0
  1
MA1S90
  7
K
100
AcDbText
  0
TEXT
  5
117
100
AcDbEntity
  8
TEXT
100
AcDbText
 10
6.05585
 20
3194.335591
 30
0.0
 40
240.0
  1
直壁
  7
K
100
AcDbText
  0
LINE
  5
118
100
AcDbEntity
  8
ITTEN
100
AcDbLine
 10
1985.106495
 20
1104.999987
 30
0.0
 11
1985.106495
 21
1024.999987
 31
0.0
  0
LINE
  5
119
100
AcDbEntity
  8
ITTEN
100
AcDbLine
 10
1985.106495
 20
394.999987
 30
0.0
 11
1985.106495
 21
314.999987
 31
0.0
  0
LINE
  5
11A
100
AcDbEntity
  8
TENSEN
100
AcDbLine
 10
1995.106495
 20
374.999987
 30
0.0
 11
1995.106495
 21
334.999987
 31
0.0
  0
LINE
  5
11B
100
AcDbEntity
  8
TENSEN
100
AcDbLine
 10
1975.106495
 20
374.999987
 30
0.0
 11
1975.106495
 21
334.999987
 31
0.0
  0
TEXT
  5
11C
100
AcDbEntity
  8
SUNPOU
100
AcDbText
 10
11625.106495
 20
2285.714273
 30
0.0
 40
45.0
  1
300
 50
90.0
  7
K
 72
     1
 11
11625.106495
 21
2349.999987
 31
0.0
100
AcDbText
  0
INSERT
  5
11D
100
AcDbEntity
  8
SUNPOU
100
AcDbBlockReference
  2
ARROWANG
 10
11670.106495
 20
2499.999987
 30
0.0
 41
30.0
 42
30.0
 43
30.0
 50
90.0
  0
INSERT
  5
11E
100
AcDbEntity
  8
SUNPOU
100
AcDbBlockReference
  2
ARROWANG
 10
11670.106495
 20
2199.999987
 30
0.0
 41
30.0
 42
30.0
 43
30.0
 50
270.0
  0
LINE
  5
11F
100
AcDbEntity
  8
SUNPOU
100
AcDbLine
 10
11670.106495
 20
2199.999987
 30
0.0
 11
11670.106495
 21
2499.999987
 31
0.0
  0
LINE
  5
120
100
AcDbEntity
  8
SUNPOU
100
AcDbLine
 10
11640.106495
 20
2499.999987
 30
0.0
 11
11640.106495
 21
2499.999987
 31
0.0
  0
LINE
  5
121
100
AcDbEntity
  8
SUNPOU
100
AcDbLine
 10
11640.106495
 20
2199.999987
 30
0.0
 11
11640.106495
 21
2199.999987
 31
0.0
  0
LINE
  5
122
100
AcDbEntity
  8
ITTEN
100
AcDbLine
 10
12415.106495
 20
2399.999987
 30
0.0
 11
12355.106495
 21
2399.999987
 31
0.0
  0
LINE
  5
123
100
AcDbEntity
  8
ITTEN
100
AcDbLine
 10
12385.106495
 20
2429.999987
 30
0.0
 11
12385.106495
 21
2369.999987
 31
0.0
  0
TEXT
  5
124
100
AcDbEntity
  8
SUNPOU
100
AcDbText
 10
12215.186299
 20
2266.714273
 30
0.0
 40
45.0
  1
292
 50
90.0
  7
K
 72
     1
 11
12215.186299
 21
2330.999987
 31
0.0
100
AcDbText
  0
INSERT
  5
125
100
AcDbEntity
  8
SUNPOU
100
AcDbBlockReference
  2
ARROWANG
 10
12260.186299
 20
2476.999987
 30
0.0
 41
30.0
 42
30.0
 43
30.0
 50
90.0
  0
INSERT
  5
126
100
AcDbEntity
  8
SUNPOU
100
AcDbBlockReference
  2
ARROWANG
 10
12260.186299
 20
2184.999987
 30
0.0
 41
30.0
 42
30.0
 43
30.0
 50
270.0
  0
LINE
  5
127
100
AcDbEntity
  8
SUNPOU
100
AcDbLine
 10
12260.186299
 20
2184.999987
 30
0.0
 11
12260.186299
 21
2476.999987
 31
0.0
  0
LINE
  5
128
100
AcDbEntity
  8
SUNPOU
100
AcDbLine
 10
12230.186299
 20
2476.999987
 30
0.0
 11
12230.186299
 21
2476.999987
 31
0.0
  0
LINE
  5
129
100
AcDbEntity
  8
SUNPOU
100
AcDbLine
 10
12230.186299
 20
2184.999987
 30
0.0
 11
12230.186299
 21
2184.999987
 31
0.0
  0
TEXT
  5
12A
100
AcDbEntity
  8
SUNPOU
100
AcDbText
 10
12490.106495
 20
2058.249987
 30
0.0
 40
45.0
  1
100
 50
90.0
  7
K
 72
     1
 11
12490.106495
 21
2125.749987
 31
0.0
100
AcDbText
  0
LINE
  5
12B
100
AcDbEntity
  8
SUNPOU
100
AcDbLine
 10
12535.106495
 20
2299.999987
 30
0.0
 11
12535.106495
 21
2359.999987
 31
0.0
  0
LINE
  5
12C
100
AcDbEntity
  8
SUNPOU
100
AcDbLine
 10
12535.106495
 20
2199.999987
 30
0.0
 11
12535.106495
 21
2051.499987
 31
0.0
  0
INSERT
  5
12D
100
AcDbEntity
  8
SUNPOU
100
AcDbBlockReference
  2
ARROWANG
 10
12535.106495
 20
2299.999987
 30
0.0
 41
30.0
 42
30.0
 43
30.0
 50
270.0
  0
INSERT
  5
12E
100
AcDbEntity
  8
SUNPOU
100
AcDbBlockReference
  2
ARROWANG
 10
12535.106495
 20
2199.999987
 30
0.0
 41
30.0
 42
30.0
 43
30.0
 50
90.0
  0
LINE
  5
12F
100
AcDbEntity
  8
SUNPOU
100
AcDbLine
 10
12445.106495
 20
2299.999987
 30
0.0
 11
12565.106495
 21
2299.999987
 31
0.0
  0
LINE
  5
130
100
AcDbEntity
  8
SUNPOU
100
AcDbLine
 10
12565.106495
 20
2199.999987
 30
0.0
 11
12565.106495
 21
2199.999987
 31
0.0
  0
TEXT
  5
131
100
AcDbEntity
  8
SUNPOU
100
AcDbText
 10
12490.106495
 20
2506.749987
 30
0.0
 40
45.0
  1
100
 50
90.0
  7
K
 72
     1
 11
12490.106495
 21
2574.249987
 31
0.0
100
AcDbText
  0
LINE
  5
132
100
AcDbEntity
  8
SUNPOU
100
AcDbLine
 10
12535.106495
 20
2399.999987
 30
0.0
 11
12535.106496
 21
2339.999987
 31
0.0
  0
LINE
  5
133
100
AcDbEntity
  8
SUNPOU
100
AcDbLine
 10
12535.106495
 20
2499.999987
 30
0.0
 11
12535.106495
 21
2648.499987
 31
0.0
  0
INSERT
  5
134
100
AcDbEntity
  8
SUNPOU
100
AcDbBlockReference
  2
ARROWANG
 10
12535.106495
 20
2499.999987
 30
0.0
 41
30.0
 42
30.0
 43
30.0
 50
270.0
  0
INSERT
  5
135
100
AcDbEntity
  8
SUNPOU
100
AcDbBlockReference
  2
ARROWANG
 10
12535.106495
 20
2399.999987
 30
0.0
 41
30.0
 42
30.0
 43
30.0
 50
90.0
  0
LINE
  5
136
100
AcDbEntity
  8
SUNPOU
100
AcDbLine
 10
12565.106495
 20
2499.999987
 30
0.0
 11
12565.106495
 21
2499.999987
 31
0.0
  0
LINE
  5
137
100
AcDbEntity
  8
SUNPOU
100
AcDbLine
 10
12445.106495
 20
2399.999987
 30
0.0
 11
12565.106495
 21
2399.999987
 31
0.0
  0
LINE
  5
138
100
AcDbEntity
  8
ITTEN
100
AcDbLine
 10
13845.106495
 20
2299.999987
 30
0.0
 11
13670.106495
 21
2299.999987
 31
0.0
  0
LINE
  5
139
100
AcDbEntity
  8
ITTEN
100
AcDbLine
 10
14345.106495
 20
2399.999987
 30
0.0
 11
14520.106495
 21
2399.999987
 31
0.0
  0
LINE
  5
13A
100
AcDbEntity
  8
ITTEN
100
AcDbLine
 10
14520.106495
 20
2299.999987
 30
0.0
 11
14345.106495
 21
2299.999987
 31
0.0
  0
LINE
  5
13B
100
AcDbEntity
  8
ITTEN
100
AcDbLine
 10
13670.106495
 20
2399.999987
 30
0.0
 11
13845.106495
 21
2399.999987
 31
0.0
  0
LINE
  5
13C
100
AcDbEntity
  8
TENSEN
100
AcDbLine
 10
14420.106495
 20
2389.999987
 30
0.0
 11
14470.106495
 21
2389.999987
 31
0.0
  0
LINE
  5
13D
100
AcDbEntity
  8
TENSEN
100
AcDbLine
 10
14420.106495
 20
2409.999987
 30
0.0
 11
14420.106495
 21
2389.999987
 31
0.0
  0
LINE
  5
13E
100
AcDbEntity
  8
TENSEN
100
AcDbLine
 10
14470.106495
 20
2409.999987
 30
0.0
 11
14420.106495
 21
2409.999987
 31
0.0
  0
LINE
  5
13F
100
AcDbEntity
  8
TENSEN
100
AcDbLine
 10
14420.106495
 20
2309.999987
 30
0.0
 11
14470.106495
 21
2309.999987
 31
0.0
  0
LINE
  5
140
100
AcDbEntity
  8
TENSEN
100
AcDbLine
 10
14420.106495
 20
2289.999987
 30
0.0
 11
14420.106495
 21
2309.999987
 31
0.0
  0
LINE
  5
141
100
AcDbEntity
  8
TENSEN
100
AcDbLine
 10
14470.106495
 20
2289.999987
 30
0.0
 11
14420.106495
 21
2289.999987
 31
0.0
  0
LINE
  5
142
100
AcDbEntity
  8
JISSEN
100
AcDbLine
 10
13770.106495
 20
2289.999987
 30
0.0
 11
13720.106495
 21
2289.999987
 31
0.0
  0
LINE
  5
143
100
AcDbEntity
  8
JISSEN
100
AcDbLine
 10
13770.106495
 20
2309.999987
 30
0.0
 11
13770.106495
 21
2289.999987
 31
0.0
  0
LINE
  5
144
100
AcDbEntity
  8
JISSEN
100
AcDbLine
 10
13720.106495
 20
2309.999987
 30
0.0
 11
13770.106495
 21
2309.999987
 31
0.0
  0
LINE
  5
145
100
AcDbEntity
  8
JISSEN
100
AcDbLine
 10
13770.106495
 20
2389.999987
 30
0.0
 11
13720.106495
 21
2389.999987
 31
0.0
  0
LINE
  5
146
100
AcDbEntity
  8
JISSEN
100
AcDbLine
 10
13770.106495
 20
2409.999987
 30
0.0
 11
13770.106495
 21
2389.999987
 31
0.0
  0
LINE
  5
147
100
AcDbEntity
  8
JISSEN
100
AcDbLine
 10
13720.106495
 20
2409.999987
 30
0.0
 11
13770.106495
 21
2409.999987
 31
0.0
  0
LINE
  5
148
100
AcDbEntity
  8
ITTEN
100
AcDbLine
 10
12415.106495
 20
2299.999987
 30
0.0
 11
12355.106495
 21
2299.999987
 31
0.0
  0
LINE
  5
149
100
AcDbEntity
  8
ITTEN
100
AcDbLine
 10
12385.106495
 20
2329.999987
 30
0.0
 11
12385.106495
 21
2269.999987
 31
0.0
  0
CIRCLE
  5
14A
100
AcDbEntity
  8
JISSEN
100
AcDbCircle
 10
12385.106495
 20
2299.999987
 30
0.0
 40
10.0
  0
CIRCLE
  5
14B
100
AcDbEntity
  8
JISSEN
100
AcDbCircle
 10
12385.106495
 20
2399.999987
 30
0.0
 40
10.0
  0
LINE
  5
14C
100
AcDbEntity
  8
ITTEN
100
AcDbLine
 10
13895.106495
 20
2334.999987
 30
0.0
 11
14295.106495
 21
2334.999987
 31
0.0
  0
LINE
  5
14D
100
AcDbEntity
  8
JISSEN
100
AcDbLine
 10
14095.106495
 20
2322.499987
 30
0.0
 11
13958.606495
 21
2322.499987
 31
0.0
  0
LINE
  5
14E
100
AcDbEntity
  8
TENSEN
100
AcDbLine
 10
14231.606495
 20
2322.499987
 30
0.0
 11
14095.106495
 21
2322.499987
 31
0.0
  0
LINE
  5
14F
100
AcDbEntity
  8
TENSEN
100
AcDbLine
 10
14095.106495
 20
2347.499987
 30
0.0
 11
14231.606495
 21
2347.499987
 31
0.0
  0
LINE
  5
150
100
AcDbEntity
  8
JISSEN
100
AcDbLine
 10
13958.606495
 20
2347.499987
 30
0.0
 11
14095.106495
 21
2347.499987
 31
0.0
  0
ARC
  5
151
100
AcDbEntity
  8
JISSEN
100
AcDbCircle
 10
13958.606495
 20
2334.999987
 30
0.0
 40
12.5
100
AcDbArc
 50
90.0
 51
270.0
  0
ARC
  5
152
100
AcDbEntity
  8
TENSEN
100
AcDbCircle
 10
14231.606495
 20
2334.999987
 30
0.0
 40
12.5
100
AcDbArc
 50
270.0
 51
90.0
  0
LINE
  5
153
100
AcDbEntity
  8
ITTEN
100
AcDbLine
 10
14095.106495
 20
2599.999987
 30
0.0
 11
14095.106495
 21
2099.999987
 31
0.0
  0
TEXT
  5
154
100
AcDbEntity
  8
SUNPOU
100
AcDbText
 10
14029.749366
 20
2694.999987
 30
0.0
 40
45.0
  1
600
  7
K
 72
     1
 11
14095.106509
 21
2694.999987
 31
0.0
100
AcDbText
  0
INSERT
  5
155
100
AcDbEntity
  8
SUNPOU
100
AcDbBlockReference
  2
ARROWANG
 10
14395.106495
 20
2649.999987
 30
0.0
 41
30.0
 42
30.0
 43
30.0
  0
INSERT
  5
156
100
AcDbEntity
  8
SUNPOU
100
AcDbBlockReference
  2
ARROWANG
 10
13795.106495
 20
2649.999987
 30
0.0
 41
30.0
 42
30.0
 43
30.0
 50
180.0
  0
LINE
  5
157
100
AcDbEntity
  8
SUNPOU
100
AcDbLine
 10
13795.106495
 20
2649.999987
 30
0.0
 11
14395.106495
 21
2649.999987
 31
0.0
  0
LINE
  5
158
100
AcDbEntity
  8
SUNPOU
100
AcDbLine
 10
14395.106495
 20
2619.999987
 30
0.0
 11
14395.106495
 21
2619.999987
 31
0.0
  0
LINE
  5
159
100
AcDbEntity
  8
SUNPOU
100
AcDbLine
 10
13795.106495
 20
2619.999987
 30
0.0
 11
13795.106495
 21
2619.999987
 31
0.0
  0
LINE
  5
15A
100
AcDbEntity
  8
SUNPOU
100
AcDbLine
 10
14395.106495
 20
2649.999987
 30
0.0
 11
14335.106495
 21
2649.999987
 31
0.0
  0
LINE
  5
15B
100
AcDbEntity
  8
SUNPOU
100
AcDbLine
 10
14470.106495
 20
2649.999987
 30
0.0
 11
14530.106495
 21
2649.999987
 31
0.0
  0
TEXT
  5
15C
100
AcDbEntity
  8
SUNPOU
100
AcDbText
 10
14389.749366
 20
2694.999987
 30
0.0
 40
45.0
  1
75
  7
K
 72
     1
 11
14432.606509
 21
2694.999987
 31
0.0
100
AcDbText
  0
INSERT
  5
15D
100
AcDbEntity
  8
SUNPOU
100
AcDbBlockReference
  2
ARROWANG
 10
14395.106495
 20
2649.999987
 30
0.0
 41
30.0
 42
30.0
 43
30.0
  0
INSERT
  5
15E
100
AcDbEntity
  8
SUNPOU
100
AcDbBlockReference
  2
ARROWANG
 10
14470.106495
 20
2649.999987
 30
0.0
 41
30.0
 42
30.0
 43
30.0
 50
180.0
  0
LINE
  5
15F
100
AcDbEntity
  8
SUNPOU
100
AcDbLine
 10
14395.106495
 20
2649.999987
 30
0.0
 11
14470.106495
 21
2649.999987
 31
0.0
  0
LINE
  5
160
100
AcDbEntity
  8
SUNPOU
100
AcDbLine
 10
14470.106495
 20
2679.999987
 30
0.0
 11
14470.106495
 21
2679.999987
 31
0.0
  0
LINE
  5
161
100
AcDbEntity
  8
SUNPOU
100
AcDbLine
 10
14395.106495
 20
2506.999987
 30
0.0
 11
14395.106495
 21
2679.999987
 31
0.0
  0
LINE
  5
162
100
AcDbEntity
  8
SUNPOU
100
AcDbLine
 10
13720.106495
 20
2649.999987
 30
0.0
 11
13660.106495
 21
2649.999987
 31
0.0
  0
LINE
  5
163
100
AcDbEntity
  8
SUNPOU
100
AcDbLine
 10
13795.106495
 20
2649.999987
 30
0.0
 11
13855.106495
 21
2649.999987
 31
0.0
  0
TEXT
  5
164
100
AcDbEntity
  8
SUNPOU
100
AcDbText
 10
13714.749366
 20
2694.999987
 30
0.0
 40
45.0
  1
75
  7
K
 72
     1
 11
13757.606509
 21
2694.999987
 31
0.0
100
AcDbText
  0
INSERT
  5
165
100
AcDbEntity
  8
SUNPOU
100
AcDbBlockReference
  2
ARROWANG
 10
13720.106495
 20
2649.999987
 30
0.0
 41
30.0
 42
30.0
 43
30.0
  0
INSERT
  5
166
100
AcDbEntity
  8
SUNPOU
100
AcDbBlockReference
  2
ARROWANG
 10
13795.106495
 20
2649.999987
 30
0.0
 41
30.0
 42
30.0
 43
30.0
 50
180.0
  0
LINE
  5
167
100
AcDbEntity
  8
SUNPOU
100
AcDbLine
 10
13720.106495
 20
2649.999987
 30
0.0
 11
13795.106495
 21
2649.999987
 31
0.0
  0
LINE
  5
168
100
AcDbEntity
  8
SUNPOU
100
AcDbLine
 10
13795.106495
 20
2506.999987
 30
0.0
 11
13795.106495
 21
2679.999987
 31
0.0
  0
LINE
  5
169
100
AcDbEntity
  8
SUNPOU
100
AcDbLine
 10
13720.106495
 20
2679.999987
 30
0.0
 11
13720.106495
 21
2679.999987
 31
0.0
  0
TEXT
  5
16A
100
AcDbEntity
  8
SUNPOU
100
AcDbText
 10
14030.82078
 20
2844.999987
 30
0.0
 40
45.0
  1
750
  7
K
 72
     1
 11
14095.106495
 21
2844.999987
 31
0.0
100
AcDbText
  0
INSERT
  5
16B
100
AcDbEntity
  8
SUNPOU
100
AcDbBlockReference
  2
ARROWANG
 10
13720.106495
 20
2799.999987
 30
0.0
 41
30.0
 42
30.0
 43
30.0
 50
180.0
  0
INSERT
  5
16C
100
AcDbEntity
  8
SUNPOU
100
AcDbBlockReference
  2
ARROWANG
 10
14470.106495
 20
2799.999987
 30
0.0
 41
30.0
 42
30.0
 43
30.0
  0
LINE
  5
16D
100
AcDbEntity
  8
SUNPOU
100
AcDbLine
 10
13720.106495
 20
2799.999987
 30
0.0
 11
14470.106495
 21
2799.999987
 31
0.0
  0
LINE
  5
16E
100
AcDbEntity
  8
SUNPOU
100
AcDbLine
 10
14470.106495
 20
2529.999987
 30
0.0
 11
14470.106495
 21
2829.999987
 31
0.0
  0
LINE
  5
16F
100
AcDbEntity
  8
SUNPOU
100
AcDbLine
 10
13720.106495
 20
2529.999987
 30
0.0
 11
13720.106495
 21
2829.999987
 31
0.0
  0
LINE
  5
170
100
AcDbEntity
  8
JISSEN
100
AcDbLine
 10
13720.106495
 20
2499.999987
 30
0.0
 11
13760.106495
 21
2499.999987
 31
0.0
  0
LINE
  5
171
100
AcDbEntity
  8
JISSEN
100
AcDbLine
 10
13760.106495
 20
2499.999987
 30
0.0
 11
13767.106495
 21
2476.999987
 31
0.0
  0
LINE
  5
172
100
AcDbEntity
  8
JISSEN
100
AcDbLine
 10
13767.106495
 20
2476.999987
 30
0.0
 11
13795.106495
 21
2476.999987
 31
0.0
  0
LINE
  5
173
100
AcDbEntity
  8
JISSEN
100
AcDbLine
 10
13720.106495
 20
2499.999987
 30
0.0
 11
13720.106495
 21
2199.999987
 31
0.0
  0
LINE
  5
174
100
AcDbEntity
  8
JISSEN
100
AcDbLine
 10
13720.106495
 20
2199.999987
 30
0.0
 11
13761.106495
 21
2199.999987
 31
0.0
  0
LINE
  5
175
100
AcDbEntity
  8
JISSEN
100
AcDbLine
 10
13761.106495
 20
2199.999987
 30
0.0
 11
13770.106495
 21
2184.999987
 31
0.0
  0
LINE
  5
176
100
AcDbEntity
  8
JISSEN
100
AcDbLine
 10
13770.106495
 20
2184.999987
 30
0.0
 11
13795.106495
 21
2184.999987
 31
0.0
  0
LINE
  5
177
100
AcDbEntity
  8
JISSEN
100
AcDbLine
 10
13795.106495
 20
2476.999987
 30
0.0
 11
13795.106495
 21
2184.999987
 31
0.0
  0
LINE
  5
178
100
AcDbEntity
  8
TENSEN
100
AcDbLine
 10
14395.106495
 20
2476.999987
 30
0.0
 11
14395.106495
 21
2184.999987
 31
0.0
  0
LINE
  5
179
100
AcDbEntity
  8
JISSEN
100
AcDbLine
 10
14420.106495
 20
2184.999987
 30
0.0
 11
14395.106495
 21
2184.999987
 31
0.0
  0
LINE
  5
17A
100
AcDbEntity
  8
JISSEN
100
AcDbLine
 10
14429.106495
 20
2199.999987
 30
0.0
 11
14420.106495
 21
2184.999987
 31
0.0
  0
LINE
  5
17B
100
AcDbEntity
  8
JISSEN
100
AcDbLine
 10
14470.106495
 20
2199.999987
 30
0.0
 11
14429.106495
 21
2199.999987
 31
0.0
  0
LINE
  5
17C
100
AcDbEntity
  8
JISSEN
100
AcDbLine
 10
14470.106495
 20
2499.999987
 30
0.0
 11
14470.106495
 21
2199.999987
 31
0.0
  0
LINE
  5
17D
100
AcDbEntity
  8
TENSEN
100
AcDbLine
 10
14423.106495
 20
2476.999987
 30
0.0
 11
14395.106495
 21
2476.999987
 31
0.0
  0
LINE
  5
17E
100
AcDbEntity
  8
TENSEN
100
AcDbLine
 10
14430.106495
 20
2499.999987
 30
0.0
 11
14423.106495
 21
2476.999987
 31
0.0
  0
LINE
  5
17F
100
AcDbEntity
  8
JISSEN
100
AcDbLine
 10
14470.106495
 20
2499.999987
 30
0.0
 11
14430.106495
 21
2499.999987
 31
0.0
  0
LINE
  5
180
100
AcDbEntity
  8
JISSEN
100
AcDbLine
 10
13761.106495
 20
2499.999987
 30
0.0
 11
14430.106495
 21
2499.999987
 31
0.0
  0
LINE
  5
181
100
AcDbEntity
  8
JISSEN
100
AcDbLine
 10
13795.106495
 20
2476.999987
 30
0.0
 11
14095.106495
 21
2476.999987
 31
0.0
  0
LINE
  5
182
100
AcDbEntity
  8
TENSEN
100
AcDbLine
 10
14095.106495
 20
2476.999987
 30
0.0
 11
14395.106495
 21
2476.999987
 31
0.0
  0
LINE
  5
183
100
AcDbEntity
  8
JISSEN
100
AcDbLine
 10
13795.106495
 20
2184.999987
 30
0.0
 11
14395.106495
 21
2184.999987
 31
0.0
  0
LINE
  5
184
100
AcDbEntity
  8
TENSEN
100
AcDbLine
 10
13761.106495
 20
2199.999987
 30
0.0
 11
14095.106495
 21
2199.999987
 31
0.0
  0
LINE
  5
185
100
AcDbEntity
  8
JISSEN
100
AcDbLine
 10
14095.106495
 20
2199.999987
 30
0.0
 11
14429.106495
 21
2199.999987
 31
0.0
  0
LINE
  5
186
100
AcDbEntity
  8
SUNPOU
100
AcDbLine
 10
13915.106495
 20
2184.999987
 30
0.0
 11
13915.106495
 21
2184.999987
 31
0.0
  0
LINE
  5
187
100
AcDbEntity
  8
SUNPOU
100
AcDbLine
 10
14075.106495
 20
2184.999987
 30
0.0
 11
14090.186299
 21
2184.999987
 31
0.0
  0
LINE
  5
188
100
AcDbEntity
  8
SUNPOU
100
AcDbLine
 10
14075.106495
 20
2476.999987
 30
0.0
 11
14090.186299
 21
2476.999987
 31
0.0
  0
LINE
  5
189
100
AcDbEntity
  8
SUNPOU
100
AcDbLine
 10
12275.106495
 20
2476.999987
 30
0.0
 11
12290.186299
 21
2476.999987
 31
0.0
  0
LINE
  5
18A
100
AcDbEntity
  8
SUNPOU
100
AcDbLine
 10
12275.106495
 20
2184.999987
 30
0.0
 11
12290.186299
 21
2184.999987
 31
0.0
  0
TEXT
  5
18B
100
AcDbEntity
  8
SUNPOU
100
AcDbText
 10
12100.106495
 20
2192.499987
 30
0.0
 40
45.0
  1
150
 50
90.0
  7
K
 72
     1
 11
12100.106495
 21
2259.999987
 31
0.0
100
AcDbText
  0
INSERT
  5
18C
100
AcDbEntity
  8
SUNPOU
100
AcDbBlockReference
  2
ARROWANG
 10
12145.106495
 20
2334.999987
 30
0.0
 41
30.0
 42
30.0
 43
30.0
 50
90.0
  0
INSERT
  5
18D
100
AcDbEntity
  8
SUNPOU
100
AcDbBlockReference
  2
ARROWANG
 10
12145.106495
 20
2184.999987
 30
0.0
 41
30.0
 42
30.0
 43
30.0
 50
270.0
  0
LINE
  5
18E
100
AcDbEntity
  8
SUNPOU
100
AcDbLine
 10
12145.106495
 20
2184.999987
 30
0.0
 11
12145.106495
 21
2334.999987
 31
0.0
  0
LINE
  5
18F
100
AcDbEntity
  8
SUNPOU
100
AcDbLine
 10
12115.106495
 20
2334.999987
 30
0.0
 11
12115.106495
 21
2334.999987
 31
0.0
  0
LINE
  5
190
100
AcDbEntity
  8
SUNPOU
100
AcDbLine
 10
12115.106495
 20
2184.999987
 30
0.0
 11
12115.106495
 21
2184.999987
 31
0.0
  0
LINE
  5
191
100
AcDbEntity
  8
ITTEN
100
AcDbLine
 10
11895.106495
 20
2334.999987
 30
0.0
 11
12161.330772
 21
2334.999987
 31
0.0
  0
LINE
  5
192
100
AcDbEntity
  8
JISSEN
100
AcDbLine
 10
12095.106495
 20
2322.499987
 30
0.0
 11
11995.106495
 21
2322.499987
 31
0.0
  0
LINE
  5
193
100
AcDbEntity
  8
JISSEN
100
AcDbLine
 10
11995.106495
 20
2347.499987
 30
0.0
 11
12095.106495
 21
2347.499987
 31
0.0
  0
ARC
  5
194
100
AcDbEntity
  8
JISSEN
100
AcDbCircle
 10
12095.106495
 20
2334.999987
 30
0.0
 40
12.5
100
AcDbArc
 50
270.0
 51
90.0
  0
TEXT
  5
195
100
AcDbEntity
  8
SUNPOU
100
AcDbText
 10
11775.106495
 20
2203.428558
 30
0.0
 40
45.0
  1
15
 50
90.0
  7
K
 72
     1
 11
11775.106495
 21
2249.499987
 31
0.0
100
AcDbText
  0
LINE
  5
196
100
AcDbEntity
  8
SUNPOU
100
AcDbLine
 10
11820.106495
 20
2184.999987
 30
0.0
 11
11820.106496
 21
2124.999987
 31
0.0
  0
LINE
  5
197
100
AcDbEntity
  8
SUNPOU
100
AcDbLine
 10
11820.106495
 20
2199.999987
 30
0.0
 11
11820.106495
 21
2298.999987
 31
0.0
  0
INSERT
  5
198
100
AcDbEntity
  8
SUNPOU
100
AcDbBlockReference
  2
ARROWANG
 10
11820.106495
 20
2199.999987
 30
0.0
 41
30.0
 42
30.0
 43
30.0
 50
270.0
  0
INSERT
  5
199
100
AcDbEntity
  8
SUNPOU
100
AcDbBlockReference
  2
ARROWANG
 10
11820.106495
 20
2184.999987
 30
0.0
 41
30.0
 42
30.0
 43
30.0
 50
90.0
  0
LINE
  5
19A
100
AcDbEntity
  8
SUNPOU
100
AcDbLine
 10
11850.106495
 20
2199.999987
 30
0.0
 11
11850.106495
 21
2199.999987
 31
0.0
  0
LINE
  5
19B
100
AcDbEntity
  8
SUNPOU
100
AcDbLine
 10
11940.106495
 20
2184.999987
 30
0.0
 11
11790.106495
 21
2184.999987
 31
0.0
  0
TEXT
  5
19C
100
AcDbEntity
  8
SUNPOU
100
AcDbText
 10
11775.106495
 20
2384.642844
 30
0.0
 40
45.0
  1
23
 50
90.0
  7
K
 72
     1
 11
11775.106495
 21
2427.499987
 31
0.0
100
AcDbText
  0
LINE
  5
19D
100
AcDbEntity
  8
SUNPOU
100
AcDbLine
 10
11820.106495
 20
2499.999987
 30
0.0
 11
11820.106495
 21
2559.999987
 31
0.0
  0
LINE
  5
19E
100
AcDbEntity
  8
SUNPOU
100
AcDbLine
 10
11820.106495
 20
2476.999987
 30
0.0
 11
11820.106495
 21
2677.999987
 31
0.0
  0
INSERT
  5
19F
100
AcDbEntity
  8
SUNPOU
100
AcDbBlockReference
  2
ARROWANG
 10
11820.106495
 20
2499.999987
 30
0.0
 41
30.0
 42
30.0
 43
30.0
 50
270.0
  0
INSERT
  5
1A0
100
AcDbEntity
  8
SUNPOU
100
AcDbBlockReference
  2
ARROWANG
 10
11820.106495
 20
2476.999987
 30
0.0
 41
30.0
 42
30.0
 43
30.0
 50
90.0
  0
LINE
  5
1A1
100
AcDbEntity
  8
SUNPOU
100
AcDbLine
 10
11850.106495
 20
2499.999987
 30
0.0
 11
11850.106495
 21
2499.999987
 31
0.0
  0
LINE
  5
1A2
100
AcDbEntity
  8
SUNPOU
100
AcDbLine
 10
11937.106495
 20
2476.999987
 30
0.0
 11
11790.106495
 21
2476.999987
 31
0.0
  0
LINE
  5
1A3
100
AcDbEntity
  8
SUNPOU
100
AcDbLine
 10
11890.106495
 20
2499.999987
 30
0.0
 11
11640.106495
 21
2499.999987
 31
0.0
  0
LINE
  5
1A4
100
AcDbEntity
  8
SUNPOU
100
AcDbLine
 10
11890.106495
 20
2199.999987
 30
0.0
 11
11640.106495
 21
2199.999987
 31
0.0
  0
TEXT
  5
1A5
100
AcDbEntity
  8
SUNPOU
100
AcDbText
 10
12529.749366
 20
2694.999987
 30
0.0
 40
45.0
  1
600
  7
K
 72
     1
 11
12595.106509
 21
2694.999987
 31
0.0
100
AcDbText
  0
INSERT
  5
1A6
100
AcDbEntity
  8
SUNPOU
100
AcDbBlockReference
  2
ARROWANG
 10
12895.106495
 20
2649.999987
 30
0.0
 41
30.0
 42
30.0
 43
30.0
  0
INSERT
  5
1A7
100
AcDbEntity
  8
SUNPOU
100
AcDbBlockReference
  2
ARROWANG
 10
12295.106495
 20
2649.999987
 30
0.0
 41
30.0
 42
30.0
 43
30.0
 50
180.0
  0
LINE
  5
1A8
100
AcDbEntity
  8
SUNPOU
100
AcDbLine
 10
12295.106495
 20
2649.999987
 30
0.0
 11
12895.106495
 21
2649.999987
 31
0.0
  0
LINE
  5
1A9
100
AcDbEntity
  8
SUNPOU
100
AcDbLine
 10
12895.106495
 20
2619.999987
 30
0.0
 11
12895.106495
 21
2619.999987
 31
0.0
  0
LINE
  5
1AA
100
AcDbEntity
  8
SUNPOU
100
AcDbLine
 10
12295.106495
 20
2619.999987
 30
0.0
 11
12295.106495
 21
2619.999987
 31
0.0
  0
TEXT
  5
1AB
100
AcDbEntity
  8
SUNPOU
100
AcDbText
 10
12080.82078
 20
2694.999987
 30
0.0
 40
45.0
  1
300
  7
K
 72
     1
 11
12145.106495
 21
2694.999987
 31
0.0
100
AcDbText
  0
INSERT
  5
1AC
100
AcDbEntity
  8
SUNPOU
100
AcDbBlockReference
  2
ARROWANG
 10
11995.106495
 20
2649.999987
 30
0.0
 41
30.0
 42
30.0
 43
30.0
 50
180.0
  0
INSERT
  5
1AD
100
AcDbEntity
  8
SUNPOU
100
AcDbBlockReference
  2
ARROWANG
 10
12295.106495
 20
2649.999987
 30
0.0
 41
30.0
 42
30.0
 43
30.0
  0
LINE
  5
1AE
100
AcDbEntity
  8
SUNPOU
100
AcDbLine
 10
11995.106495
 20
2649.999987
 30
0.0
 11
12295.106495
 21
2649.999987
 31
0.0
  0
LINE
  5
1AF
100
AcDbEntity
  8
SUNPOU
100
AcDbLine
 10
12295.106495
 20
2529.999987
 30
0.0
 11
12295.106495
 21
2679.999987
 31
0.0
  0
LINE
  5
1B0
100
AcDbEntity
  8
SUNPOU
100
AcDbLine
 10
11995.106495
 20
2679.999987
 30
0.0
 11
11995.106495
 21
2679.999987
 31
0.0
  0
TEXT
  5
1B1
100
AcDbEntity
  8
SUNPOU
100
AcDbText
 10
12380.820795
 20
2844.999987
 30
0.0
 40
45.0
  1
900
  7
K
 72
     1
 11
12445.106509
 21
2844.999987
 31
0.0
100
AcDbText
  0
INSERT
  5
1B2
100
AcDbEntity
  8
SUNPOU
100
AcDbBlockReference
  2
ARROWANG
 10
12895.106495
 20
2799.999987
 30
0.0
 41
30.0
 42
30.0
 43
30.0
  0
INSERT
  5
1B3
100
AcDbEntity
  8
SUNPOU
100
AcDbBlockReference
  2
ARROWANG
 10
11995.106495
 20
2799.999987
 30
0.0
 41
30.0
 42
30.0
 43
30.0
 50
180.0
  0
LINE
  5
1B4
100
AcDbEntity
  8
SUNPOU
100
AcDbLine
 10
11995.106495
 20
2799.999987
 30
0.0
 11
12895.106495
 21
2799.999987
 31
0.0
  0
LINE
  5
1B5
100
AcDbEntity
  8
SUNPOU
100
AcDbLine
 10
12895.106495
 20
2769.999987
 30
0.0
 11
12895.106495
 21
2769.999987
 31
0.0
  0
LINE
  5
1B6
100
AcDbEntity
  8
SUNPOU
100
AcDbLine
 10
11995.106495
 20
2769.999987
 30
0.0
 11
11995.106495
 21
2769.999987
 31
0.0
  0
LINE
  5
1B7
100
AcDbEntity
  8
SUNPOU
100
AcDbLine
 10
12895.106495
 20
2799.999987
 30
0.0
 11
12835.106495
 21
2799.999987
 31
0.0
  0
LINE
  5
1B8
100
AcDbEntity
  8
SUNPOU
100
AcDbLine
 10
12970.106495
 20
2799.999987
 30
0.0
 11
13030.106495
 21
2799.999987
 31
0.0
  0
TEXT
  5
1B9
100
AcDbEntity
  8
SUNPOU
100
AcDbText
 10
12889.749352
 20
2844.999987
 30
0.0
 40
45.0
  1
75
  7
K
 72
     1
 11
12932.606495
 21
2844.999987
 31
0.0
100
AcDbText
  0
INSERT
  5
1BA
100
AcDbEntity
  8
SUNPOU
100
AcDbBlockReference
  2
ARROWANG
 10
12895.106495
 20
2799.999987
 30
0.0
 41
30.0
 42
30.0
 43
30.0
  0
INSERT
  5
1BB
100
AcDbEntity
  8
SUNPOU
100
AcDbBlockReference
  2
ARROWANG
 10
12970.106495
 20
2799.999987
 30
0.0
 41
30.0
 42
30.0
 43
30.0
 50
180.0
  0
LINE
  5
1BC
100
AcDbEntity
  8
SUNPOU
100
AcDbLine
 10
12895.106495
 20
2799.999987
 30
0.0
 11
12970.106495
 21
2799.999987
 31
0.0
  0
LINE
  5
1BD
100
AcDbEntity
  8
SUNPOU
100
AcDbLine
 10
12970.106495
 20
2829.999987
 30
0.0
 11
12970.106495
 21
2829.999987
 31
0.0
  0
LINE
  5
1BE
100
AcDbEntity
  8
SUNPOU
100
AcDbLine
 10
12895.106495
 20
2506.999987
 30
0.0
 11
12895.106495
 21
2829.999987
 31
0.0
  0
LINE
  5
1BF
100
AcDbEntity
  8
SUNPOU
100
AcDbLine
 10
11920.106495
 20
2799.999987
 30
0.0
 11
11860.106495
 21
2799.999987
 31
0.0
  0
LINE
  5
1C0
100
AcDbEntity
  8
SUNPOU
100
AcDbLine
 10
11995.106495
 20
2799.999987
 30
0.0
 11
12055.106495
 21
2799.999987
 31
0.0
  0
TEXT
  5
1C1
100
AcDbEntity
  8
SUNPOU
100
AcDbText
 10
11914.749366
 20
2844.999987
 30
0.0
 40
45.0
  1
75
  7
K
 72
     1
 11
11957.606509
 21
2844.999987
 31
0.0
100
AcDbText
  0
INSERT
  5
1C2
100
AcDbEntity
  8
SUNPOU
100
AcDbBlockReference
  2
ARROWANG
 10
11920.106495
 20
2799.999987
 30
0.0
 41
30.0
 42
30.0
 43
30.0
  0
INSERT
  5
1C3
100
AcDbEntity
  8
SUNPOU
100
AcDbBlockReference
  2
ARROWANG
 10
11995.106495
 20
2799.999987
 30
0.0
 41
30.0
 42
30.0
 43
30.0
 50
180.0
  0
LINE
  5
1C4
100
AcDbEntity
  8
SUNPOU
100
AcDbLine
 10
11920.106495
 20
2799.999987
 30
0.0
 11
11995.106495
 21
2799.999987
 31
0.0
  0
LINE
  5
1C5
100
AcDbEntity
  8
SUNPOU
100
AcDbLine
 10
11995.106495
 20
2506.999987
 30
0.0
 11
11995.106495
 21
2829.999987
 31
0.0
  0
LINE
  5
1C6
100
AcDbEntity
  8
SUNPOU
100
AcDbLine
 10
11920.106495
 20
2829.999987
 30
0.0
 11
11920.106495
 21
2829.999987
 31
0.0
  0
TEXT
  5
1C7
100
AcDbEntity
  8
SUNPOU
100
AcDbText
 10
12356.177923
 20
2994.999987
 30
0.0
 40
45.0
  1
1050
  7
K
 72
     1
 11
12445.106495
 21
2994.999987
 31
0.0
100
AcDbText
  0
INSERT
  5
1C8
100
AcDbEntity
  8
SUNPOU
100
AcDbBlockReference
  2
ARROWANG
 10
11920.106495
 20
2949.999987
 30
0.0
 41
30.0
 42
30.0
 43
30.0
 50
180.0
  0
INSERT
  5
1C9
100
AcDbEntity
  8
SUNPOU
100
AcDbBlockReference
  2
ARROWANG
 10
12970.106495
 20
2949.999987
 30
0.0
 41
30.0
 42
30.0
 43
30.0
  0
LINE
  5
1CA
100
AcDbEntity
  8
SUNPOU
100
AcDbLine
 10
11920.106495
 20
2949.999987
 30
0.0
 11
12970.106495
 21
2949.999987
 31
0.0
  0
LINE
  5
1CB
100
AcDbEntity
  8
SUNPOU
100
AcDbLine
 10
12970.106495
 20
2529.999987
 30
0.0
 11
12970.106495
 21
2979.999987
 31
0.0
  0
LINE
  5
1CC
100
AcDbEntity
  8
SUNPOU
100
AcDbLine
 10
11920.106495
 20
2529.999987
 30
0.0
 11
11920.106495
 21
2979.999987
 31
0.0
  0
LINE
  5
1CD
100
AcDbEntity
  8
ITTEN
100
AcDbLine
 10
12295.106495
 20
2599.999987
 30
0.0
 11
12295.106495
 21
2099.999987
 31
0.0
  0
LINE
  5
1CE
100
AcDbEntity
  8
JISSEN
100
AcDbLine
 10
12295.106495
 20
2199.999987
 30
0.0
 11
12929.106495
 21
2199.999987
 31
0.0
  0
LINE
  5
1CF
100
AcDbEntity
  8
TENSEN
100
AcDbLine
 10
11961.106495
 20
2199.999987
 30
0.0
 11
12295.106495
 21
2199.999987
 31
0.0
  0
LINE
  5
1D0
100
AcDbEntity
  8
JISSEN
100
AcDbLine
 10
11995.106495
 20
2184.999987
 30
0.0
 11
12895.106495
 21
2184.999987
 31
0.0
  0
LINE
  5
1D1
100
AcDbEntity
  8
TENSEN
100
AcDbLine
 10
12295.106495
 20
2476.999987
 30
0.0
 11
12895.106495
 21
2476.999987
 31
0.0
  0
LINE
  5
1D2
100
AcDbEntity
  8
JISSEN
100
AcDbLine
 10
11995.106495
 20
2476.999987
 30
0.0
 11
12295.106495
 21
2476.999987
 31
0.0
  0
LINE
  5
1D3
100
AcDbEntity
  8
JISSEN
100
AcDbLine
 10
11961.106495
 20
2499.999987
 30
0.0
 11
12930.106495
 21
2499.999987
 31
0.0
  0
LINE
  5
1D4
100
AcDbEntity
  8
JISSEN
100
AcDbLine
 10
12970.106495
 20
2499.999987
 30
0.0
 11
12930.106495
 21
2499.999987
 31
0.0
  0
LINE
  5
1D5
100
AcDbEntity
  8
TENSEN
100
AcDbLine
 10
12930.106495
 20
2499.999987
 30
0.0
 11
12923.106495
 21
2476.999987
 31
0.0
  0
LINE
  5
1D6
100
AcDbEntity
  8
TENSEN
100
AcDbLine
 10
12923.106495
 20
2476.999987
 30
0.0
 11
12895.106495
 21
2476.999987
 31
0.0
  0
LINE
  5
1D7
100
AcDbEntity
  8
JISSEN
100
AcDbLine
 10
12970.106495
 20
2499.999987
 30
0.0
 11
12970.106495
 21
2199.999987
 31
0.0
  0
LINE
  5
1D8
100
AcDbEntity
  8
JISSEN
100
AcDbLine
 10
12970.106495
 20
2199.999987
 30
0.0
 11
12929.106495
 21
2199.999987
 31
0.0
  0
LINE
  5
1D9
100
AcDbEntity
  8
JISSEN
100
AcDbLine
 10
12929.106495
 20
2199.999987
 30
0.0
 11
12920.106495
 21
2184.999987
 31
0.0
  0
LINE
  5
1DA
100
AcDbEntity
  8
JISSEN
100
AcDbLine
 10
12920.106495
 20
2184.999987
 30
0.0
 11
12895.106495
 21
2184.999987
 31
0.0
  0
LINE
  5
1DB
100
AcDbEntity
  8
TENSEN
100
AcDbLine
 10
12895.106495
 20
2476.999987
 30
0.0
 11
12895.106495
 21
2184.999987
 31
0.0
  0
LINE
  5
1DC
100
AcDbEntity
  8
JISSEN
100
AcDbLine
 10
11995.106495
 20
2476.999987
 30
0.0
 11
11995.106495
 21
2184.999987
 31
0.0
  0
LINE
  5
1DD
100
AcDbEntity
  8
JISSEN
100
AcDbLine
 10
11970.106495
 20
2184.999987
 30
0.0
 11
11995.106495
 21
2184.999987
 31
0.0
  0
LINE
  5
1DE
100
AcDbEntity
  8
JISSEN
100
AcDbLine
 10
11961.106495
 20
2199.999987
 30
0.0
 11
11970.106495
 21
2184.999987
 31
0.0
  0
LINE
  5
1DF
100
AcDbEntity
  8
JISSEN
100
AcDbLine
 10
11920.106495
 20
2199.999987
 30
0.0
 11
11961.106495
 21
2199.999987
 31
0.0
  0
LINE
  5
1E0
100
AcDbEntity
  8
JISSEN
100
AcDbLine
 10
11920.106495
 20
2499.999987
 30
0.0
 11
11920.106495
 21
2199.999987
 31
0.0
  0
LINE
  5
1E1
100
AcDbEntity
  8
JISSEN
100
AcDbLine
 10
11967.106495
 20
2476.999987
 30
0.0
 11
11995.106495
 21
2476.999987
 31
0.0
  0
LINE
  5
1E2
100
AcDbEntity
  8
JISSEN
100
AcDbLine
 10
11960.106495
 20
2499.999987
 30
0.0
 11
11967.106495
 21
2476.999987
 31
0.0
  0
LINE
  5
1E3
100
AcDbEntity
  8
JISSEN
100
AcDbLine
 10
11920.106495
 20
2499.999987
 30
0.0
 11
11960.106495
 21
2499.999987
 31
0.0
  0
LINE
  5
1E4
100
AcDbEntity
  8
ITTEN
100
AcDbLine
 10
13895.106495
 20
2334.999987
 30
0.0
 11
13995.106495
 21
2334.999987
 31
0.0
  0
LINE
  5
1E5
100
AcDbEntity
  8
SUNPOU
100
AcDbLine
 10
12115.106495
 20
2334.999987
 30
0.0
 11
12115.106495
 21
2334.999987
 31
0.0
  0
TEXT
  5
1E6
100
AcDbEntity
  8
SUNPOU
100
AcDbText
 10
7015.186299
 20
2116.714273
 30
0.0
 40
45.0
  1
592
 50
90.0
  7
K
 72
     1
 11
7015.186299
 21
2180.999987
 31
0.0
100
AcDbText
  0
INSERT
  5
1E7
100
AcDbEntity
  8
SUNPOU
100
AcDbBlockReference
  2
ARROWANG
 10
7060.186299
 20
2476.999987
 30
0.0
 41
30.0
 42
30.0
 43
30.0
 50
90.0
  0
INSERT
  5
1E8
100
AcDbEntity
  8
SUNPOU
100
AcDbBlockReference
  2
ARROWANG
 10
7060.186299
 20
1884.999987
 30
0.0
 41
30.0
 42
30.0
 43
30.0
 50
270.0
  0
LINE
  5
1E9
100
AcDbEntity
  8
SUNPOU
100
AcDbLine
 10
7060.186299
 20
1884.999987
 30
0.0
 11
7060.186299
 21
2476.999987
 31
0.0
  0
LINE
  5
1EA
100
AcDbEntity
  8
SUNPOU
100
AcDbLine
 10
7030.186299
 20
2476.999987
 30
0.0
 11
7030.186299
 21
2476.999987
 31
0.0
  0
LINE
  5
1EB
100
AcDbEntity
  8
SUNPOU
100
AcDbLine
 10
7030.186299
 20
1884.999987
 30
0.0
 11
7030.186299
 21
1884.999987
 31
0.0
  0
TEXT
  5
1EC
100
AcDbEntity
  8
SUNPOU
100
AcDbText
 10
6900.106495
 20
2120.714273
 30
0.0
 40
45.0
  1
300
 50
90.0
  7
K
 72
     1
 11
6900.106495
 21
2184.999987
 31
0.0
100
AcDbText
  0
INSERT
  5
1ED
100
AcDbEntity
  8
SUNPOU
100
AcDbBlockReference
  2
ARROWANG
 10
6945.106495
 20
2334.999987
 30
0.0
 41
30.0
 42
30.0
 43
30.0
 50
90.0
  0
INSERT
  5
1EE
100
AcDbEntity
  8
SUNPOU
100
AcDbBlockReference
  2
ARROWANG
 10
6945.106495
 20
2034.999987
 30
0.0
 41
30.0
 42
30.0
 43
30.0
 50
270.0
  0
LINE
  5
1EF
100
AcDbEntity
  8
SUNPOU
100
AcDbLine
 10
6945.106495
 20
2034.999987
 30
0.0
 11
6945.106495
 21
2334.999987
 31
0.0
  0
LINE
  5
1F0
100
AcDbEntity
  8
SUNPOU
100
AcDbLine
 10
6915.106495
 20
2334.999987
 30
0.0
 11
6915.106495
 21
2334.999987
 31
0.0
  0
LINE
  5
1F1
100
AcDbEntity
  8
SUNPOU
100
AcDbLine
 10
6915.106495
 20
2034.999987
 30
0.0
 11
6915.106495
 21
2034.999987
 31
0.0
  0
TEXT
  5
1F2
100
AcDbEntity
  8
SUNPOU
100
AcDbText
 10
6425.106495
 20
2134.642844
 30
0.0
 40
45.0
  1
600
 50
90.0
  7
K
 72
     1
 11
6425.106495
 21
2199.999987
 31
0.0
100
AcDbText
  0
INSERT
  5
1F3
100
AcDbEntity
  8
SUNPOU
100
AcDbBlockReference
  2
ARROWANG
 10
6470.106495
 20
2499.999987
 30
0.0
 41
30.0
 42
30.0
 43
30.0
 50
90.0
  0
INSERT
  5
1F4
100
AcDbEntity
  8
SUNPOU
100
AcDbBlockReference
  2
ARROWANG
 10
6470.106495
 20
1899.999987
 30
0.0
 41
30.0
 42
30.0
 43
30.0
 50
270.0
  0
LINE
  5
1F5
100
AcDbEntity
  8
SUNPOU
100
AcDbLine
 10
6470.106495
 20
1899.999987
 30
0.0
 11
6470.106495
 21
2499.999987
 31
0.0
  0
LINE
  5
1F6
100
AcDbEntity
  8
SUNPOU
100
AcDbLine
 10
6440.106495
 20
2499.999987
 30
0.0
 11
6440.106495
 21
2499.999987
 31
0.0
  0
LINE
  5
1F7
100
AcDbEntity
  8
SUNPOU
100
AcDbLine
 10
6440.106495
 20
1899.999987
 30
0.0
 11
6440.106495
 21
1899.999987
 31
0.0
  0
LINE
  5
1F8
100
AcDbEntity
  8
ITTEN
100
AcDbLine
 10
8595.106495
 20
2034.999987
 30
0.0
 11
8695.106495
 21
2034.999987
 31
0.0
  0
LINE
  5
1F9
100
AcDbEntity
  8
ITTEN
100
AcDbLine
 10
8595.106495
 20
2334.999987
 30
0.0
 11
8695.106495
 21
2334.999987
 31
0.0
  0
LINE
  5
1FA
100
AcDbEntity
  8
ITTEN
100
AcDbLine
 10
3395.106495
 20
1734.999987
 30
0.0
 11
3495.106495
 21
1734.999987
 31
0.0
  0
LINE
  5
1FB
100
AcDbEntity
  8
ITTEN
100
AcDbLine
 10
3395.106495
 20
2334.999987
 30
0.0
 11
3495.106495
 21
2334.999987
 31
0.0
  0
LINE
  5
1FC
100
AcDbEntity
  8
JISSEN
100
AcDbLine
 10
6720.106495
 20
2499.999987
 30
0.0
 11
6760.106495
 21
2499.999987
 31
0.0
  0
LINE
  5
1FD
100
AcDbEntity
  8
JISSEN
100
AcDbLine
 10
6760.106495
 20
2499.999987
 30
0.0
 11
6767.106495
 21
2476.999987
 31
0.0
  0
LINE
  5
1FE
100
AcDbEntity
  8
JISSEN
100
AcDbLine
 10
6767.106495
 20
2476.999987
 30
0.0
 11
6795.106495
 21
2476.999987
 31
0.0
  0
LINE
  5
1FF
100
AcDbEntity
  8
JISSEN
100
AcDbLine
 10
6720.106495
 20
2499.999987
 30
0.0
 11
6720.106495
 21
1899.999987
 31
0.0
  0
LINE
  5
200
100
AcDbEntity
  8
JISSEN
100
AcDbLine
 10
6720.106495
 20
1899.999987
 30
0.0
 11
6761.106495
 21
1899.999987
 31
0.0
  0
LINE
  5
201
100
AcDbEntity
  8
JISSEN
100
AcDbLine
 10
6761.106495
 20
1899.999987
 30
0.0
 11
6770.106495
 21
1884.999987
 31
0.0
  0
LINE
  5
202
100
AcDbEntity
  8
JISSEN
100
AcDbLine
 10
6770.106495
 20
1884.999987
 30
0.0
 11
6795.106495
 21
1884.999987
 31
0.0
  0
LINE
  5
203
100
AcDbEntity
  8
JISSEN
100
AcDbLine
 10
6795.106495
 20
2476.999987
 30
0.0
 11
6795.106495
 21
1884.999987
 31
0.0
  0
LINE
  5
204
100
AcDbEntity
  8
TENSEN
100
AcDbLine
 10
7695.106495
 20
2476.999987
 30
0.0
 11
7695.106495
 21
1884.999987
 31
0.0
  0
LINE
  5
205
100
AcDbEntity
  8
JISSEN
100
AcDbLine
 10
7720.106495
 20
1884.999987
 30
0.0
 11
7695.106495
 21
1884.999987
 31
0.0
  0
LINE
  5
206
100
AcDbEntity
  8
JISSEN
100
AcDbLine
 10
7729.106495
 20
1899.999987
 30
0.0
 11
7720.106495
 21
1884.999987
 31
0.0
  0
LINE
  5
207
100
AcDbEntity
  8
JISSEN
100
AcDbLine
 10
7770.106495
 20
1899.999987
 30
0.0
 11
7729.106495
 21
1899.999987
 31
0.0
  0
LINE
  5
208
100
AcDbEntity
  8
JISSEN
100
AcDbLine
 10
7770.106495
 20
2499.999987
 30
0.0
 11
7770.106495
 21
1899.999987
 31
0.0
  0
LINE
  5
209
100
AcDbEntity
  8
TENSEN
100
AcDbLine
 10
7723.106495
 20
2476.999987
 30
0.0
 11
7695.106495
 21
2476.999987
 31
0.0
  0
LINE
  5
20A
100
AcDbEntity
  8
TENSEN
100
AcDbLine
 10
7730.106495
 20
2499.999987
 30
0.0
 11
7723.106495
 21
2476.999987
 31
0.0
  0
LINE
  5
20B
100
AcDbEntity
  8
JISSEN
100
AcDbLine
 10
7770.106495
 20
2499.999987
 30
0.0
 11
7730.106495
 21
2499.999987
 31
0.0
  0
LINE
  5
20C
100
AcDbEntity
  8
JISSEN
100
AcDbLine
 10
6761.106495
 20
2499.999987
 30
0.0
 11
7730.106495
 21
2499.999987
 31
0.0
  0
LINE
  5
20D
100
AcDbEntity
  8
JISSEN
100
AcDbLine
 10
6795.106495
 20
2476.999987
 30
0.0
 11
7095.106495
 21
2476.999987
 31
0.0
  0
LINE
  5
20E
100
AcDbEntity
  8
TENSEN
100
AcDbLine
 10
7095.106495
 20
2476.999987
 30
0.0
 11
7695.106495
 21
2476.999987
 31
0.0
  0
LINE
  5
20F
100
AcDbEntity
  8
JISSEN
100
AcDbLine
 10
6795.106495
 20
1884.999987
 30
0.0
 11
7695.106495
 21
1884.999987
 31
0.0
  0
LINE
  5
210
100
AcDbEntity
  8
TENSEN
100
AcDbLine
 10
6761.106495
 20
1899.999987
 30
0.0
 11
7095.106495
 21
1899.999987
 31
0.0
  0
LINE
  5
211
100
AcDbEntity
  8
JISSEN
100
AcDbLine
 10
7095.106495
 20
1899.999987
 30
0.0
 11
7729.106495
 21
1899.999987
 31
0.0
  0
LINE
  5
212
100
AcDbEntity
  8
ITTEN
100
AcDbLine
 10
7095.106495
 20
2599.999987
 30
0.0
 11
7095.106495
 21
1799.999987
 31
0.0
  0
LINE
  5
213
100
AcDbEntity
  8
SUNPOU
100
AcDbLine
 10
6720.106495
 20
2529.999987
 30
0.0
 11
6720.106495
 21
2979.999987
 31
0.0
  0
LINE
  5
214
100
AcDbEntity
  8
SUNPOU
100
AcDbLine
 10
7770.106495
 20
2529.999987
 30
0.0
 11
7770.106495
 21
2979.999987
 31
0.0
  0
LINE
  5
215
100
AcDbEntity
  8
SUNPOU
100
AcDbLine
 10
6720.106495
 20
2949.999987
 30
0.0
 11
7770.106495
 21
2949.999987
 31
0.0
  0
INSERT
  5
216
100
AcDbEntity
  8
SUNPOU
100
AcDbBlockReference
  2
ARROWANG
 10
7770.106495
 20
2949.999987
 30
0.0
 41
30.0
 42
30.0
 43
30.0
  0
INSERT
  5
217
100
AcDbEntity
  8
SUNPOU
100
AcDbBlockReference
  2
ARROWANG
 10
6720.106495
 20
2949.999987
 30
0.0
 41
30.0
 42
30.0
 43
30.0
 50
180.0
  0
TEXT
  5
218
100
AcDbEntity
  8
SUNPOU
100
AcDbText
 10
7156.177923
 20
2994.999987
 30
0.0
 40
45.0
  1
1050
  7
K
 72
     1
 11
7245.106495
 21
2994.999987
 31
0.0
100
AcDbText
  0
LINE
  5
219
100
AcDbEntity
  8
SUNPOU
100
AcDbLine
 10
6720.106495
 20
2829.999987
 30
0.0
 11
6720.106495
 21
2829.999987
 31
0.0
  0
LINE
  5
21A
100
AcDbEntity
  8
SUNPOU
100
AcDbLine
 10
6795.106495
 20
2506.999987
 30
0.0
 11
6795.106495
 21
2829.999987
 31
0.0
  0
LINE
  5
21B
100
AcDbEntity
  8
SUNPOU
100
AcDbLine
 10
6720.106495
 20
2799.999987
 30
0.0
 11
6795.106495
 21
2799.999987
 31
0.0
  0
INSERT
  5
21C
100
AcDbEntity
  8
SUNPOU
100
AcDbBlockReference
  2
ARROWANG
 10
6795.106495
 20
2799.999987
 30
0.0
 41
30.0
 42
30.0
 43
30.0
 50
180.0
  0
INSERT
  5
21D
100
AcDbEntity
  8
SUNPOU
100
AcDbBlockReference
  2
ARROWANG
 10
6720.106495
 20
2799.999987
 30
0.0
 41
30.0
 42
30.0
 43
30.0
  0
TEXT
  5
21E
100
AcDbEntity
  8
SUNPOU
100
AcDbText
 10
6714.749366
 20
2844.999987
 30
0.0
 40
45.0
  1
75
  7
K
 72
     1
 11
6757.606509
 21
2844.999987
 31
0.0
100
AcDbText
  0
LINE
  5
21F
100
AcDbEntity
  8
SUNPOU
100
AcDbLine
 10
6795.106495
 20
2799.999987
 30
0.0
 11
6855.106495
 21
2799.999987
 31
0.0
  0
LINE
  5
220
100
AcDbEntity
  8
SUNPOU
100
AcDbLine
 10
6720.106495
 20
2799.999987
 30
0.0
 11
6660.106495
 21
2799.999987
 31
0.0
  0
LINE
  5
221
100
AcDbEntity
  8
SUNPOU
100
AcDbLine
 10
7695.106495
 20
2506.999987
 30
0.0
 11
7695.106495
 21
2829.999987
 31
0.0
  0
LINE
  5
222
100
AcDbEntity
  8
SUNPOU
100
AcDbLine
 10
7770.106495
 20
2829.999987
 30
0.0
 11
7770.106495
 21
2829.999987
 31
0.0
  0
LINE
  5
223
100
AcDbEntity
  8
SUNPOU
100
AcDbLine
 10
7695.106495
 20
2799.999987
 30
0.0
 11
7770.106495
 21
2799.999987
 31
0.0
  0
INSERT
  5
224
100
AcDbEntity
  8
SUNPOU
100
AcDbBlockReference
  2
ARROWANG
 10
7770.106495
 20
2799.999987
 30
0.0
 41
30.0
 42
30.0
 43
30.0
 50
180.0
  0
INSERT
  5
225
100
AcDbEntity
  8
SUNPOU
100
AcDbBlockReference
  2
ARROWANG
 10
7695.106495
 20
2799.999987
 30
0.0
 41
30.0
 42
30.0
 43
30.0
  0
TEXT
  5
226
100
AcDbEntity
  8
SUNPOU
100
AcDbText
 10
7689.749352
 20
2844.999987
 30
0.0
 40
45.0
  1
75
  7
K
 72
     1
 11
7732.606495
 21
2844.999987
 31
0.0
100
AcDbText
  0
LINE
  5
227
100
AcDbEntity
  8
SUNPOU
100
AcDbLine
 10
7770.106495
 20
2799.999987
 30
0.0
 11
7830.106495
 21
2799.999987
 31
0.0
  0
LINE
  5
228
100
AcDbEntity
  8
SUNPOU
100
AcDbLine
 10
7695.106495
 20
2799.999987
 30
0.0
 11
7635.106495
 21
2799.999987
 31
0.0
  0
LINE
  5
229
100
AcDbEntity
  8
SUNPOU
100
AcDbLine
 10
6795.106495
 20
2769.999987
 30
0.0
 11
6795.106495
 21
2769.999987
 31
0.0
  0
LINE
  5
22A
100
AcDbEntity
  8
SUNPOU
100
AcDbLine
 10
7695.106495
 20
2769.999987
 30
0.0
 11
7695.106495
 21
2769.999987
 31
0.0
  0
LINE
  5
22B
100
AcDbEntity
  8
SUNPOU
100
AcDbLine
 10
6795.106495
 20
2799.999987
 30
0.0
 11
7695.106495
 21
2799.999987
 31
0.0
  0
INSERT
  5
22C
100
AcDbEntity
  8
SUNPOU
100
AcDbBlockReference
  2
ARROWANG
 10
6795.106495
 20
2799.999987
 30
0.0
 41
30.0
 42
30.0
 43
30.0
 50
180.0
  0
INSERT
  5
22D
100
AcDbEntity
  8
SUNPOU
100
AcDbBlockReference
  2
ARROWANG
 10
7695.106495
 20
2799.999987
 30
0.0
 41
30.0
 42
30.0
 43
30.0
  0
TEXT
  5
22E
100
AcDbEntity
  8
SUNPOU
100
AcDbText
 10
7180.820795
 20
2844.999987
 30
0.0
 40
45.0
  1
900
  7
K
 72
     1
 11
7245.106509
 21
2844.999987
 31
0.0
100
AcDbText
  0
LINE
  5
22F
100
AcDbEntity
  8
SUNPOU
100
AcDbLine
 10
6795.106495
 20
2679.999987
 30
0.0
 11
6795.106495
 21
2679.999987
 31
0.0
  0
LINE
  5
230
100
AcDbEntity
  8
SUNPOU
100
AcDbLine
 10
7095.106495
 20
2529.999987
 30
0.0
 11
7095.106495
 21
2679.999987
 31
0.0
  0
LINE
  5
231
100
AcDbEntity
  8
SUNPOU
100
AcDbLine
 10
6795.106495
 20
2649.999987
 30
0.0
 11
7095.106495
 21
2649.999987
 31
0.0
  0
INSERT
  5
232
100
AcDbEntity
  8
SUNPOU
100
AcDbBlockReference
  2
ARROWANG
 10
7095.106495
 20
2649.999987
 30
0.0
 41
30.0
 42
30.0
 43
30.0
  0
INSERT
  5
233
100
AcDbEntity
  8
SUNPOU
100
AcDbBlockReference
  2
ARROWANG
 10
6795.106495
 20
2649.999987
 30
0.0
 41
30.0
 42
30.0
 43
30.0
 50
180.0
  0
TEXT
  5
234
100
AcDbEntity
  8
SUNPOU
100
AcDbText
 10
6880.82078
 20
2694.999987
 30
0.0
 40
45.0
  1
300
  7
K
 72
     1
 11
6945.106495
 21
2694.999987
 31
0.0
100
AcDbText
  0
LINE
  5
235
100
AcDbEntity
  8
SUNPOU
100
AcDbLine
 10
7095.106495
 20
2619.999987
 30
0.0
 11
7095.106495
 21
2619.999987
 31
0.0
  0
LINE
  5
236
100
AcDbEntity
  8
SUNPOU
100
AcDbLine
 10
7695.106495
 20
2619.999987
 30
0.0
 11
7695.106495
 21
2619.999987
 31
0.0
  0
LINE
  5
237
100
AcDbEntity
  8
SUNPOU
100
AcDbLine
 10
7095.106495
 20
2649.999987
 30
0.0
 11
7695.106495
 21
2649.999987
 31
0.0
  0
INSERT
  5
238
100
AcDbEntity
  8
SUNPOU
100
AcDbBlockReference
  2
ARROWANG
 10
7095.106495
 20
2649.999987
 30
0.0
 41
30.0
 42
30.0
 43
30.0
 50
180.0
  0
INSERT
  5
239
100
AcDbEntity
  8
SUNPOU
100
AcDbBlockReference
  2
ARROWANG
 10
7695.106495
 20
2649.999987
 30
0.0
 41
30.0
 42
30.0
 43
30.0
  0
TEXT
  5
23A
100
AcDbEntity
  8
SUNPOU
100
AcDbText
 10
7329.749366
 20
2694.999987
 30
0.0
 40
45.0
  1
600
  7
K
 72
     1
 11
7395.106509
 21
2694.999987
 31
0.0
100
AcDbText
  0
LINE
  5
23B
100
AcDbEntity
  8
SUNPOU
100
AcDbLine
 10
6690.106495
 20
1899.999987
 30
0.0
 11
6440.106495
 21
1899.999987
 31
0.0
  0
LINE
  5
23C
100
AcDbEntity
  8
SUNPOU
100
AcDbLine
 10
6690.106495
 20
2499.999987
 30
0.0
 11
6440.106495
 21
2499.999987
 31
0.0
  0
LINE
  5
23D
100
AcDbEntity
  8
SUNPOU
100
AcDbLine
 10
6737.106495
 20
2476.999987
 30
0.0
 11
6590.106495
 21
2476.999987
 31
0.0
  0
LINE
  5
23E
100
AcDbEntity
  8
SUNPOU
100
AcDbLine
 10
6650.106495
 20
2499.999987
 30
0.0
 11
6650.106495
 21
2499.999987
 31
0.0
  0
INSERT
  5
23F
100
AcDbEntity
  8
SUNPOU
100
AcDbBlockReference
  2
ARROWANG
 10
6620.106495
 20
2476.999987
 30
0.0
 41
30.0
 42
30.0
 43
30.0
 50
90.0
  0
INSERT
  5
240
100
AcDbEntity
  8
SUNPOU
100
AcDbBlockReference
  2
ARROWANG
 10
6620.106495
 20
2499.999987
 30
0.0
 41
30.0
 42
30.0
 43
30.0
 50
270.0
  0
LINE
  5
241
100
AcDbEntity
  8
SUNPOU
100
AcDbLine
 10
6620.106495
 20
2476.999987
 30
0.0
 11
6620.106495
 21
2377.999987
 31
0.0
  0
LINE
  5
242
100
AcDbEntity
  8
SUNPOU
100
AcDbLine
 10
6620.106495
 20
2499.999987
 30
0.0
 11
6620.106495
 21
2559.999987
 31
0.0
  0
TEXT
  5
243
100
AcDbEntity
  8
SUNPOU
100
AcDbText
 10
6575.106495
 20
2384.642844
 30
0.0
 40
45.0
  1
23
 50
90.0
  7
K
 72
     1
 11
6575.106495
 21
2427.499987
 31
0.0
100
AcDbText
  0
LINE
  5
244
100
AcDbEntity
  8
SUNPOU
100
AcDbLine
 10
6740.106495
 20
1884.999987
 30
0.0
 11
6590.106495
 21
1884.999987
 31
0.0
  0
LINE
  5
245
100
AcDbEntity
  8
SUNPOU
100
AcDbLine
 10
6650.106495
 20
1899.999987
 30
0.0
 11
6650.106495
 21
1899.999987
 31
0.0
  0
INSERT
  5
246
100
AcDbEntity
  8
SUNPOU
100
AcDbBlockReference
  2
ARROWANG
 10
6620.106495
 20
1884.999987
 30
0.0
 41
30.0
 42
30.0
 43
30.0
 50
90.0
  0
INSERT
  5
247
100
AcDbEntity
  8
SUNPOU
100
AcDbBlockReference
  2
ARROWANG
 10
6620.106495
 20
1899.999987
 30
0.0
 41
30.0
 42
30.0
 43
30.0
 50
270.0
  0
LINE
  5
248
100
AcDbEntity
  8
SUNPOU
100
AcDbLine
 10
6620.106495
 20
1899.999987
 30
0.0
 11
6620.106495
 21
1998.999987
 31
0.0
  0
LINE
  5
249
100
AcDbEntity
  8
SUNPOU
100
AcDbLine
 10
6620.106495
 20
1884.999987
 30
0.0
 11
6620.106496
 21
1824.999987
 31
0.0
  0
TEXT
  5
24A
100
AcDbEntity
  8
SUNPOU
100
AcDbText
 10
6575.106495
 20
1903.428558
 30
0.0
 40
45.0
  1
15
 50
90.0
  7
K
 72
     1
 11
6575.106495
 21
1949.499987
 31
0.0
100
AcDbText
  0
ARC
  5
24B
100
AcDbEntity
  8
JISSEN
100
AcDbCircle
 10
6895.106495
 20
2034.999987
 30
0.0
 40
12.5
100
AcDbArc
 50
270.0
 51
90.0
  0
LINE
  5
24C
100
AcDbEntity
  8
JISSEN
100
AcDbLine
 10
6795.106495
 20
2047.499987
 30
0.0
 11
6895.106495
 21
2047.499987
 31
0.0
  0
LINE
  5
24D
100
AcDbEntity
  8
JISSEN
100
AcDbLine
 10
6895.106495
 20
2022.499987
 30
0.0
 11
6795.106495
 21
2022.499987
 31
0.0
  0
LINE
  5
24E
100
AcDbEntity
  8
ITTEN
100
AcDbLine
 10
6695.106495
 20
2034.999987
 30
0.0
 11
6995.106495
 21
2034.999987
 31
0.0
  0
LINE
  5
24F
100
AcDbEntity
  8
ITTEN
100
AcDbLine
 10
6695.106495
 20
2334.999987
 30
0.0
 11
6965.562005
 21
2334.999987
 31
0.0
  0
LINE
  5
250
100
AcDbEntity
  8
ITTEN
100
AcDbLine
 10
6695.106495
 20
2334.999987
 30
0.0
 11
6995.106495
 21
2334.999987
 31
0.0
  0
LINE
  5
251
100
AcDbEntity
  8
JISSEN
100
AcDbLine
 10
6895.106495
 20
2322.499987
 30
0.0
 11
6795.106495
 21
2322.499987
 31
0.0
  0
LINE
  5
252
100
AcDbEntity
  8
JISSEN
100
AcDbLine
 10
6795.106495
 20
2347.499987
 30
0.0
 11
6895.106495
 21
2347.499987
 31
0.0
  0
ARC
  5
253
100
AcDbEntity
  8
JISSEN
100
AcDbCircle
 10
6895.106495
 20
2334.999987
 30
0.0
 40
12.5
100
AcDbArc
 50
270.0
 51
90.0
  0
LINE
  5
254
100
AcDbEntity
  8
SUNPOU
100
AcDbLine
 10
6945.106495
 20
2334.999987
 30
0.0
 11
6945.106495
 21
2334.999987
 31
0.0
  0
LINE
  5
255
100
AcDbEntity
  8
SUNPOU
100
AcDbLine
 10
6915.106495
 20
1884.999987
 30
0.0
 11
6915.106495
 21
1884.999987
 31
0.0
  0
LINE
  5
256
100
AcDbEntity
  8
SUNPOU
100
AcDbLine
 10
6915.106495
 20
2034.999987
 30
0.0
 11
6915.106495
 21
2034.999987
 31
0.0
  0
LINE
  5
257
100
AcDbEntity
  8
SUNPOU
100
AcDbLine
 10
6945.106495
 20
1884.999987
 30
0.0
 11
6945.106495
 21
2034.999987
 31
0.0
  0
INSERT
  5
258
100
AcDbEntity
  8
SUNPOU
100
AcDbBlockReference
  2
ARROWANG
 10
6945.106495
 20
1884.999987
 30
0.0
 41
30.0
 42
30.0
 43
30.0
 50
270.0
  0
INSERT
  5
259
100
AcDbEntity
  8
SUNPOU
100
AcDbBlockReference
  2
ARROWANG
 10
6945.106495
 20
2034.999987
 30
0.0
 41
30.0
 42
30.0
 43
30.0
 50
90.0
  0
TEXT
  5
25A
100
AcDbEntity
  8
SUNPOU
100
AcDbText
 10
6900.106495
 20
1892.499987
 30
0.0
 40
45.0
  1
150
 50
90.0
  7
K
 72
     1
 11
6900.106495
 21
1959.999987
 31
0.0
100
AcDbText
  0
LINE
  5
25B
100
AcDbEntity
  8
SUNPOU
100
AcDbLine
 10
7075.106495
 20
1884.999987
 30
0.0
 11
7090.186299
 21
1884.999987
 31
0.0
  0
LINE
  5
25C
100
AcDbEntity
  8
SUNPOU
100
AcDbLine
 10
7075.106495
 20
2476.999987
 30
0.0
 11
7090.186299
 21
2476.999987
 31
0.0
  0
LINE
  5
25D
100
AcDbEntity
  8
SUNPOU
100
AcDbLine
 10
8775.106495
 20
2476.999987
 30
0.0
 11
8790.186299
 21
2476.999987
 31
0.0
  0
LINE
  5
25E
100
AcDbEntity
  8
SUNPOU
100
AcDbLine
 10
8775.106495
 20
1884.999987
 30
0.0
 11
8790.186299
 21
1884.999987
 31
0.0
  0
LINE
  5
25F
100
AcDbEntity
  8
SUNPOU
100
AcDbLine
 10
8615.106495
 20
1884.999987
 30
0.0
 11
8615.106495
 21
1884.999987
 31
0.0
  0
LINE
  5
260
100
AcDbEntity
  8
JISSEN
100
AcDbLine
 10
8795.106495
 20
1899.999987
 30
0.0
 11
9129.106495
 21
1899.999987
 31
0.0
  0
LINE
  5
261
100
AcDbEntity
  8
TENSEN
100
AcDbLine
 10
8461.106495
 20
1899.999987
 30
0.0
 11
8795.106495
 21
1899.999987
 31
0.0
  0
LINE
  5
262
100
AcDbEntity
  8
JISSEN
100
AcDbLine
 10
8495.106495
 20
1884.999987
 30
0.0
 11
9095.106495
 21
1884.999987
 31
0.0
  0
LINE
  5
263
100
AcDbEntity
  8
TENSEN
100
AcDbLine
 10
8795.106495
 20
2476.999987
 30
0.0
 11
9095.106495
 21
2476.999987
 31
0.0
  0
LINE
  5
264
100
AcDbEntity
  8
JISSEN
100
AcDbLine
 10
8495.106495
 20
2476.999987
 30
0.0
 11
8795.106495
 21
2476.999987
 31
0.0
  0
LINE
  5
265
100
AcDbEntity
  8
JISSEN
100
AcDbLine
 10
8461.106495
 20
2499.999987
 30
0.0
 11
9130.106495
 21
2499.999987
 31
0.0
  0
LINE
  5
266
100
AcDbEntity
  8
JISSEN
100
AcDbLine
 10
9170.106495
 20
2499.999987
 30
0.0
 11
9130.106495
 21
2499.999987
 31
0.0
  0
LINE
  5
267
100
AcDbEntity
  8
TENSEN
100
AcDbLine
 10
9130.106495
 20
2499.999987
 30
0.0
 11
9123.106495
 21
2476.999987
 31
0.0
  0
LINE
  5
268
100
AcDbEntity
  8
TENSEN
100
AcDbLine
 10
9123.106495
 20
2476.999987
 30
0.0
 11
9095.106495
 21
2476.999987
 31
0.0
  0
LINE
  5
269
100
AcDbEntity
  8
JISSEN
100
AcDbLine
 10
9170.106495
 20
2499.999987
 30
0.0
 11
9170.106495
 21
1899.999987
 31
0.0
  0
LINE
  5
26A
100
AcDbEntity
  8
JISSEN
100
AcDbLine
 10
9170.106495
 20
1899.999987
 30
0.0
 11
9129.106495
 21
1899.999987
 31
0.0
  0
LINE
  5
26B
100
AcDbEntity
  8
JISSEN
100
AcDbLine
 10
9129.106495
 20
1899.999987
 30
0.0
 11
9120.106495
 21
1884.999987
 31
0.0
  0
LINE
  5
26C
100
AcDbEntity
  8
JISSEN
100
AcDbLine
 10
9120.106495
 20
1884.999987
 30
0.0
 11
9095.106495
 21
1884.999987
 31
0.0
  0
LINE
  5
26D
100
AcDbEntity
  8
TENSEN
100
AcDbLine
 10
9095.106495
 20
2476.999987
 30
0.0
 11
9095.106495
 21
1884.999987
 31
0.0
  0
LINE
  5
26E
100
AcDbEntity
  8
JISSEN
100
AcDbLine
 10
8495.106495
 20
2476.999987
 30
0.0
 11
8495.106495
 21
1884.999987
 31
0.0
  0
LINE
  5
26F
100
AcDbEntity
  8
JISSEN
100
AcDbLine
 10
8470.106495
 20
1884.999987
 30
0.0
 11
8495.106495
 21
1884.999987
 31
0.0
  0
LINE
  5
270
100
AcDbEntity
  8
JISSEN
100
AcDbLine
 10
8461.106495
 20
1899.999987
 30
0.0
 11
8470.106495
 21
1884.999987
 31
0.0
  0
LINE
  5
271
100
AcDbEntity
  8
JISSEN
100
AcDbLine
 10
8420.106495
 20
1899.999987
 30
0.0
 11
8461.106495
 21
1899.999987
 31
0.0
  0
LINE
  5
272
100
AcDbEntity
  8
JISSEN
100
AcDbLine
 10
8420.106495
 20
2499.999987
 30
0.0
 11
8420.106495
 21
1899.999987
 31
0.0
  0
LINE
  5
273
100
AcDbEntity
  8
JISSEN
100
AcDbLine
 10
8467.106495
 20
2476.999987
 30
0.0
 11
8495.106495
 21
2476.999987
 31
0.0
  0
LINE
  5
274
100
AcDbEntity
  8
JISSEN
100
AcDbLine
 10
8460.106495
 20
2499.999987
 30
0.0
 11
8467.106495
 21
2476.999987
 31
0.0
  0
LINE
  5
275
100
AcDbEntity
  8
JISSEN
100
AcDbLine
 10
8420.106495
 20
2499.999987
 30
0.0
 11
8460.106495
 21
2499.999987
 31
0.0
  0
LINE
  5
276
100
AcDbEntity
  8
SUNPOU
100
AcDbLine
 10
8420.106495
 20
2529.999987
 30
0.0
 11
8420.106495
 21
2829.999987
 31
0.0
  0
LINE
  5
277
100
AcDbEntity
  8
SUNPOU
100
AcDbLine
 10
9170.106495
 20
2529.999987
 30
0.0
 11
9170.106495
 21
2829.999987
 31
0.0
  0
LINE
  5
278
100
AcDbEntity
  8
SUNPOU
100
AcDbLine
 10
8420.106495
 20
2799.999987
 30
0.0
 11
9170.106495
 21
2799.999987
 31
0.0
  0
INSERT
  5
279
100
AcDbEntity
  8
SUNPOU
100
AcDbBlockReference
  2
ARROWANG
 10
9170.106495
 20
2799.999987
 30
0.0
 41
30.0
 42
30.0
 43
30.0
  0
INSERT
  5
27A
100
AcDbEntity
  8
SUNPOU
100
AcDbBlockReference
  2
ARROWANG
 10
8420.106495
 20
2799.999987
 30
0.0
 41
30.0
 42
30.0
 43
30.0
 50
180.0
  0
TEXT
  5
27B
100
AcDbEntity
  8
SUNPOU
100
AcDbText
 10
8730.82078
 20
2844.999987
 30
0.0
 40
45.0
  1
750
  7
K
 72
     1
 11
8795.106495
 21
2844.999987
 31
0.0
100
AcDbText
  0
LINE
  5
27C
100
AcDbEntity
  8
SUNPOU
100
AcDbLine
 10
8420.106495
 20
2679.999987
 30
0.0
 11
8420.106495
 21
2679.999987
 31
0.0
  0
LINE
  5
27D
100
AcDbEntity
  8
SUNPOU
100
AcDbLine
 10
8495.106495
 20
2506.999987
 30
0.0
 11
8495.106495
 21
2679.999987
 31
0.0
  0
LINE
  5
27E
100
AcDbEntity
  8
SUNPOU
100
AcDbLine
 10
8420.106495
 20
2649.999987
 30
0.0
 11
8495.106495
 21
2649.999987
 31
0.0
  0
INSERT
  5
27F
100
AcDbEntity
  8
SUNPOU
100
AcDbBlockReference
  2
ARROWANG
 10
8495.106495
 20
2649.999987
 30
0.0
 41
30.0
 42
30.0
 43
30.0
 50
180.0
  0
INSERT
  5
280
100
AcDbEntity
  8
SUNPOU
100
AcDbBlockReference
  2
ARROWANG
 10
8420.106495
 20
2649.999987
 30
0.0
 41
30.0
 42
30.0
 43
30.0
  0
TEXT
  5
281
100
AcDbEntity
  8
SUNPOU
100
AcDbText
 10
8414.749366
 20
2694.999987
 30
0.0
 40
45.0
  1
75
  7
K
 72
     1
 11
8457.606509
 21
2694.999987
 31
0.0
100
AcDbText
  0
LINE
  5
282
100
AcDbEntity
  8
SUNPOU
100
AcDbLine
 10
8495.106495
 20
2649.999987
 30
0.0
 11
8555.106495
 21
2649.999987
 31
0.0
  0
LINE
  5
283
100
AcDbEntity
  8
SUNPOU
100
AcDbLine
 10
8420.106495
 20
2649.999987
 30
0.0
 11
8360.106495
 21
2649.999987
 31
0.0
  0
LINE
  5
284
100
AcDbEntity
  8
SUNPOU
100
AcDbLine
 10
9095.106495
 20
2506.999987
 30
0.0
 11
9095.106495
 21
2679.999987
 31
0.0
  0
LINE
  5
285
100
AcDbEntity
  8
SUNPOU
100
AcDbLine
 10
9170.106495
 20
2679.999987
 30
0.0
 11
9170.106495
 21
2679.999987
 31
0.0
  0
LINE
  5
286
100
AcDbEntity
  8
SUNPOU
100
AcDbLine
 10
9095.106495
 20
2649.999987
 30
0.0
 11
9170.106495
 21
2649.999987
 31
0.0
  0
INSERT
  5
287
100
AcDbEntity
  8
SUNPOU
100
AcDbBlockReference
  2
ARROWANG
 10
9170.106495
 20
2649.999987
 30
0.0
 41
30.0
 42
30.0
 43
30.0
 50
180.0
  0
INSERT
  5
288
100
AcDbEntity
  8
SUNPOU
100
AcDbBlockReference
  2
ARROWANG
 10
9095.106495
 20
2649.999987
 30
0.0
 41
30.0
 42
30.0
 43
30.0
  0
TEXT
  5
289
100
AcDbEntity
  8
SUNPOU
100
AcDbText
 10
9089.749366
 20
2694.999987
 30
0.0
 40
45.0
  1
75
  7
K
 72
     1
 11
9132.606509
 21
2694.999987
 31
0.0
100
AcDbText
  0
LINE
  5
28A
100
AcDbEntity
  8
SUNPOU
100
AcDbLine
 10
9170.106495
 20
2649.999987
 30
0.0
 11
9230.106495
 21
2649.999987
 31
0.0
  0
LINE
  5
28B
100
AcDbEntity
  8
SUNPOU
100
AcDbLine
 10
9095.106495
 20
2649.999987
 30
0.0
 11
9035.106495
 21
2649.999987
 31
0.0
  0
LINE
  5
28C
100
AcDbEntity
  8
SUNPOU
100
AcDbLine
 10
8495.106495
 20
2619.999987
 30
0.0
 11
8495.106495
 21
2619.999987
 31
0.0
  0
LINE
  5
28D
100
AcDbEntity
  8
SUNPOU
100
AcDbLine
 10
9095.106495
 20
2619.999987
 30
0.0
 11
9095.106495
 21
2619.999987
 31
0.0
  0
LINE
  5
28E
100
AcDbEntity
  8
SUNPOU
100
AcDbLine
 10
8495.106495
 20
2649.999987
 30
0.0
 11
9095.106495
 21
2649.999987
 31
0.0
  0
INSERT
  5
28F
100
AcDbEntity
  8
SUNPOU
100
AcDbBlockReference
  2
ARROWANG
 10
8495.106495
 20
2649.999987
 30
0.0
 41
30.0
 42
30.0
 43
30.0
 50
180.0
  0
INSERT
  5
290
100
AcDbEntity
  8
SUNPOU
100
AcDbBlockReference
  2
ARROWANG
 10
9095.106495
 20
2649.999987
 30
0.0
 41
30.0
 42
30.0
 43
30.0
  0
TEXT
  5
291
100
AcDbEntity
  8
SUNPOU
100
AcDbText
 10
8729.749366
 20
2694.999987
 30
0.0
 40
45.0
  1
600
  7
K
 72
     1
 11
8795.106509
 21
2694.999987
 31
0.0
100
AcDbText
  0
LINE
  5
292
100
AcDbEntity
  8
ITTEN
100
AcDbLine
 10
8795.106495
 20
2599.999987
 30
0.0
 11
8795.106495
 21
1799.999987
 31
0.0
  0
ARC
  5
293
100
AcDbEntity
  8
TENSEN
100
AcDbCircle
 10
8931.606495
 20
2034.999987
 30
0.0
 40
12.5
100
AcDbArc
 50
270.0
 51
90.0
  0
ARC
  5
294
100
AcDbEntity
  8
JISSEN
100
AcDbCircle
 10
8658.606495
 20
2034.999987
 30
0.0
 40
12.5
100
AcDbArc
 50
90.0
 51
270.0
  0
LINE
  5
295
100
AcDbEntity
  8
JISSEN
100
AcDbLine
 10
8658.606495
 20
2047.499987
 30
0.0
 11
8795.106495
 21
2047.499987
 31
0.0
  0
LINE
  5
296
100
AcDbEntity
  8
TENSEN
100
AcDbLine
 10
8795.106495
 20
2047.499987
 30
0.0
 11
8931.606495
 21
2047.499987
 31
0.0
  0
LINE
  5
297
100
AcDbEntity
  8
TENSEN
100
AcDbLine
 10
8931.606495
 20
2022.499987
 30
0.0
 11
8795.106495
 21
2022.499987
 31
0.0
  0
LINE
  5
298
100
AcDbEntity
  8
JISSEN
100
AcDbLine
 10
8795.106495
 20
2022.499987
 30
0.0
 11
8658.606495
 21
2022.499987
 31
0.0
  0
LINE
  5
299
100
AcDbEntity
  8
ITTEN
100
AcDbLine
 10
8595.106495
 20
2034.999987
 30
0.0
 11
8995.106495
 21
2034.999987
 31
0.0
  0
LINE
  5
29A
100
AcDbEntity
  8
ITTEN
100
AcDbLine
 10
8595.106495
 20
2334.999987
 30
0.0
 11
8995.106495
 21
2334.999987
 31
0.0
  0
LINE
  5
29B
100
AcDbEntity
  8
JISSEN
100
AcDbLine
 10
8795.106495
 20
2322.499987
 30
0.0
 11
8658.606495
 21
2322.499987
 31
0.0
  0
LINE
  5
29C
100
AcDbEntity
  8
TENSEN
100
AcDbLine
 10
8931.606495
 20
2322.499987
 30
0.0
 11
8795.106495
 21
2322.499987
 31
0.0
  0
LINE
  5
29D
100
AcDbEntity
  8
TENSEN
100
AcDbLine
 10
8795.106495
 20
2347.499987
 30
0.0
 11
8931.606495
 21
2347.499987
 31
0.0
  0
LINE
  5
29E
100
AcDbEntity
  8
JISSEN
100
AcDbLine
 10
8658.606495
 20
2347.499987
 30
0.0
 11
8795.106495
 21
2347.499987
 31
0.0
  0
ARC
  5
29F
100
AcDbEntity
  8
JISSEN
100
AcDbCircle
 10
8658.606495
 20
2334.999987
 30
0.0
 40
12.5
100
AcDbArc
 50
90.0
 51
270.0
  0
ARC
  5
2A0
100
AcDbEntity
  8
TENSEN
100
AcDbCircle
 10
8931.606495
 20
2334.999987
 30
0.0
 40
12.5
100
AcDbArc
 50
270.0
 51
90.0
  0
CIRCLE
  5
2A1
100
AcDbEntity
  8
JISSEN
100
AcDbCircle
 10
7185.106495
 20
2399.999987
 30
0.0
 40
10.0
  0
LINE
  5
2A2
100
AcDbEntity
  8
ITTEN
100
AcDbLine
 10
7185.106495
 20
2429.999987
 30
0.0
 11
7185.106495
 21
2369.999987
 31
0.0
  0
LINE
  5
2A3
100
AcDbEntity
  8
ITTEN
100
AcDbLine
 10
7215.106495
 20
2399.999987
 30
0.0
 11
7155.106495
 21
2399.999987
 31
0.0
  0
CIRCLE
  5
2A4
100
AcDbEntity
  8
JISSEN
100
AcDbCircle
 10
7185.106495
 20
1999.999987
 30
0.0
 40
10.0
  0
LINE
  5
2A5
100
AcDbEntity
  8
ITTEN
100
AcDbLine
 10
7185.106495
 20
2029.999987
 30
0.0
 11
7185.106495
 21
1969.999987
 31
0.0
  0
LINE
  5
2A6
100
AcDbEntity
  8
ITTEN
100
AcDbLine
 10
7215.106495
 20
1999.999987
 30
0.0
 11
7155.106495
 21
1999.999987
 31
0.0
  0
LINE
  5
2A7
100
AcDbEntity
  8
SUNPOU
100
AcDbLine
 10
7245.106495
 20
2399.999987
 30
0.0
 11
7365.106495
 21
2399.999987
 31
0.0
  0
LINE
  5
2A8
100
AcDbEntity
  8
SUNPOU
100
AcDbLine
 10
7365.106495
 20
2499.999987
 30
0.0
 11
7365.106495
 21
2499.999987
 31
0.0
  0
INSERT
  5
2A9
100
AcDbEntity
  8
SUNPOU
100
AcDbBlockReference
  2
ARROWANG
 10
7335.106495
 20
2399.999987
 30
0.0
 41
30.0
 42
30.0
 43
30.0
 50
90.0
  0
INSERT
  5
2AA
100
AcDbEntity
  8
SUNPOU
100
AcDbBlockReference
  2
ARROWANG
 10
7335.106495
 20
2499.999987
 30
0.0
 41
30.0
 42
30.0
 43
30.0
 50
270.0
  0
LINE
  5
2AB
100
AcDbEntity
  8
SUNPOU
100
AcDbLine
 10
7335.106495
 20
2399.999987
 30
0.0
 11
7335.106495
 21
2251.499987
 31
0.0
  0
LINE
  5
2AC
100
AcDbEntity
  8
SUNPOU
100
AcDbLine
 10
7335.106495
 20
2499.999987
 30
0.0
 11
7335.106495
 21
2559.999987
 31
0.0
  0
TEXT
  5
2AD
100
AcDbEntity
  8
SUNPOU
100
AcDbText
 10
7290.106495
 20
2258.249987
 30
0.0
 40
45.0
  1
100
 50
90.0
  7
K
 72
     1
 11
7290.106495
 21
2325.749987
 31
0.0
100
AcDbText
  0
LINE
  5
2AE
100
AcDbEntity
  8
SUNPOU
100
AcDbLine
 10
7365.106495
 20
1899.999987
 30
0.0
 11
7365.106495
 21
1899.999987
 31
0.0
  0
LINE
  5
2AF
100
AcDbEntity
  8
SUNPOU
100
AcDbLine
 10
7245.106495
 20
1999.999987
 30
0.0
 11
7365.106495
 21
1999.999987
 31
0.0
  0
INSERT
  5
2B0
100
AcDbEntity
  8
SUNPOU
100
AcDbBlockReference
  2
ARROWANG
 10
7335.106495
 20
1899.999987
 30
0.0
 41
30.0
 42
30.0
 43
30.0
 50
90.0
  0
INSERT
  5
2B1
100
AcDbEntity
  8
SUNPOU
100
AcDbBlockReference
  2
ARROWANG
 10
7335.106495
 20
1999.999987
 30
0.0
 41
30.0
 42
30.0
 43
30.0
 50
270.0
  0
LINE
  5
2B2
100
AcDbEntity
  8
SUNPOU
100
AcDbLine
 10
7335.106495
 20
1999.999987
 30
0.0
 11
7335.106495
 21
2148.499987
 31
0.0
  0
LINE
  5
2B3
100
AcDbEntity
  8
SUNPOU
100
AcDbLine
 10
7335.106495
 20
1899.999987
 30
0.0
 11
7335.106496
 21
1839.999987
 31
0.0
  0
TEXT
  5
2B4
100
AcDbEntity
  8
SUNPOU
100
AcDbText
 10
7290.106495
 20
2006.749987
 30
0.0
 40
45.0
  1
100
 50
90.0
  7
K
 72
     1
 11
7290.106495
 21
2074.249987
 31
0.0
100
AcDbText
  0
LINE
  5
2B5
100
AcDbEntity
  8
JISSEN
100
AcDbLine
 10
8420.106495
 20
2409.999987
 30
0.0
 11
8470.106495
 21
2409.999987
 31
0.0
  0
LINE
  5
2B6
100
AcDbEntity
  8
JISSEN
100
AcDbLine
 10
8470.106495
 20
2409.999987
 30
0.0
 11
8470.106495
 21
2389.999987
 31
0.0
  0
LINE
  5
2B7
100
AcDbEntity
  8
JISSEN
100
AcDbLine
 10
8470.106495
 20
2389.999987
 30
0.0
 11
8420.106495
 21
2389.999987
 31
0.0
  0
LINE
  5
2B8
100
AcDbEntity
  8
JISSEN
100
AcDbLine
 10
8420.106495
 20
2009.999987
 30
0.0
 11
8470.106495
 21
2009.999987
 31
0.0
  0
LINE
  5
2B9
100
AcDbEntity
  8
JISSEN
100
AcDbLine
 10
8470.106495
 20
2009.999987
 30
0.0
 11
8470.106495
 21
1989.999987
 31
0.0
  0
LINE
  5
2BA
100
AcDbEntity
  8
JISSEN
100
AcDbLine
 10
8470.106495
 20
1989.999987
 30
0.0
 11
8420.106495
 21
1989.999987
 31
0.0
  0
LINE
  5
2BB
100
AcDbEntity
  8
TENSEN
100
AcDbLine
 10
9170.106495
 20
1989.999987
 30
0.0
 11
9120.106495
 21
1989.999987
 31
0.0
  0
LINE
  5
2BC
100
AcDbEntity
  8
TENSEN
100
AcDbLine
 10
9120.106495
 20
1989.999987
 30
0.0
 11
9120.106495
 21
2009.999987
 31
0.0
  0
LINE
  5
2BD
100
AcDbEntity
  8
TENSEN
100
AcDbLine
 10
9120.106495
 20
2009.999987
 30
0.0
 11
9170.106495
 21
2009.999987
 31
0.0
  0
LINE
  5
2BE
100
AcDbEntity
  8
TENSEN
100
AcDbLine
 10
9170.106495
 20
2409.999987
 30
0.0
 11
9120.106495
 21
2409.999987
 31
0.0
  0
LINE
  5
2BF
100
AcDbEntity
  8
TENSEN
100
AcDbLine
 10
9120.106495
 20
2409.999987
 30
0.0
 11
9120.106495
 21
2389.999987
 31
0.0
  0
LINE
  5
2C0
100
AcDbEntity
  8
TENSEN
100
AcDbLine
 10
9120.106495
 20
2389.999987
 30
0.0
 11
9170.106495
 21
2389.999987
 31
0.0
  0
LINE
  5
2C1
100
AcDbEntity
  8
ITTEN
100
AcDbLine
 10
8370.106495
 20
2399.999987
 30
0.0
 11
8545.106495
 21
2399.999987
 31
0.0
  0
LINE
  5
2C2
100
AcDbEntity
  8
ITTEN
100
AcDbLine
 10
9220.106495
 20
1999.999987
 30
0.0
 11
9045.106495
 21
1999.999987
 31
0.0
  0
LINE
  5
2C3
100
AcDbEntity
  8
ITTEN
100
AcDbLine
 10
9045.106495
 20
2399.999987
 30
0.0
 11
9220.106495
 21
2399.999987
 31
0.0
  0
LINE
  5
2C4
100
AcDbEntity
  8
ITTEN
100
AcDbLine
 10
8545.106495
 20
1999.999987
 30
0.0
 11
8370.106495
 21
1999.999987
 31
0.0
  0
LINE
  5
2C5
100
AcDbEntity
  8
ITTEN
100
AcDbLine
 10
3345.106495
 20
1699.999987
 30
0.0
 11
3170.106495
 21
1699.999987
 31
0.0
  0
LINE
  5
2C6
100
AcDbEntity
  8
ITTEN
100
AcDbLine
 10
3845.106495
 20
2399.999987
 30
0.0
 11
4020.106495
 21
2399.999987
 31
0.0
  0
LINE
  5
2C7
100
AcDbEntity
  8
ITTEN
100
AcDbLine
 10
4020.106495
 20
1699.999987
 30
0.0
 11
3845.106495
 21
1699.999987
 31
0.0
  0
LINE
  5
2C8
100
AcDbEntity
  8
ITTEN
100
AcDbLine
 10
3170.106495
 20
2399.999987
 30
0.0
 11
3345.106495
 21
2399.999987
 31
0.0
  0
LINE
  5
2C9
100
AcDbEntity
  8
TENSEN
100
AcDbLine
 10
3920.106495
 20
2389.999987
 30
0.0
 11
3970.106495
 21
2389.999987
 31
0.0
  0
LINE
  5
2CA
100
AcDbEntity
  8
TENSEN
100
AcDbLine
 10
3920.106495
 20
2409.999987
 30
0.0
 11
3920.106495
 21
2389.999987
 31
0.0
  0
LINE
  5
2CB
100
AcDbEntity
  8
TENSEN
100
AcDbLine
 10
3970.106495
 20
2409.999987
 30
0.0
 11
3920.106495
 21
2409.999987
 31
0.0
  0
LINE
  5
2CC
100
AcDbEntity
  8
TENSEN
100
AcDbLine
 10
3920.106495
 20
1709.999987
 30
0.0
 11
3970.106495
 21
1709.999987
 31
0.0
  0
LINE
  5
2CD
100
AcDbEntity
  8
TENSEN
100
AcDbLine
 10
3920.106495
 20
1689.999987
 30
0.0
 11
3920.106495
 21
1709.999987
 31
0.0
  0
LINE
  5
2CE
100
AcDbEntity
  8
TENSEN
100
AcDbLine
 10
3970.106495
 20
1689.999987
 30
0.0
 11
3920.106495
 21
1689.999987
 31
0.0
  0
LINE
  5
2CF
100
AcDbEntity
  8
JISSEN
100
AcDbLine
 10
3270.106495
 20
1689.999987
 30
0.0
 11
3220.106495
 21
1689.999987
 31
0.0
  0
LINE
  5
2D0
100
AcDbEntity
  8
JISSEN
100
AcDbLine
 10
3270.106495
 20
1709.999987
 30
0.0
 11
3270.106495
 21
1689.999987
 31
0.0
  0
LINE
  5
2D1
100
AcDbEntity
  8
JISSEN
100
AcDbLine
 10
3220.106495
 20
1709.999987
 30
0.0
 11
3270.106495
 21
1709.999987
 31
0.0
  0
LINE
  5
2D2
100
AcDbEntity
  8
JISSEN
100
AcDbLine
 10
3270.106495
 20
2389.999987
 30
0.0
 11
3220.106495
 21
2389.999987
 31
0.0
  0
LINE
  5
2D3
100
AcDbEntity
  8
JISSEN
100
AcDbLine
 10
3270.106495
 20
2409.999987
 30
0.0
 11
3270.106495
 21
2389.999987
 31
0.0
  0
LINE
  5
2D4
100
AcDbEntity
  8
JISSEN
100
AcDbLine
 10
3220.106495
 20
2409.999987
 30
0.0
 11
3270.106495
 21
2409.999987
 31
0.0
  0
TEXT
  5
2D5
100
AcDbEntity
  8
SUNPOU
100
AcDbText
 10
2090.106495
 20
1706.749987
 30
0.0
 40
45.0
  1
100
 50
90.0
  7
K
 72
     1
 11
2090.106495
 21
1774.249987
 31
0.0
100
AcDbText
  0
LINE
  5
2D6
100
AcDbEntity
  8
SUNPOU
100
AcDbLine
 10
2135.106495
 20
1599.999987
 30
0.0
 11
2135.106496
 21
1539.999987
 31
0.0
  0
LINE
  5
2D7
100
AcDbEntity
  8
SUNPOU
100
AcDbLine
 10
2135.106495
 20
1699.999987
 30
0.0
 11
2135.106495
 21
1848.499987
 31
0.0
  0
INSERT
  5
2D8
100
AcDbEntity
  8
SUNPOU
100
AcDbBlockReference
  2
ARROWANG
 10
2135.106495
 20
1699.999987
 30
0.0
 41
30.0
 42
30.0
 43
30.0
 50
270.0
  0
INSERT
  5
2D9
100
AcDbEntity
  8
SUNPOU
100
AcDbBlockReference
  2
ARROWANG
 10
2135.106495
 20
1599.999987
 30
0.0
 41
30.0
 42
30.0
 43
30.0
 50
90.0
  0
LINE
  5
2DA
100
AcDbEntity
  8
SUNPOU
100
AcDbLine
 10
2045.106495
 20
1699.999987
 30
0.0
 11
2165.106495
 21
1699.999987
 31
0.0
  0
LINE
  5
2DB
100
AcDbEntity
  8
SUNPOU
100
AcDbLine
 10
2165.106495
 20
1599.999987
 30
0.0
 11
2165.106495
 21
1599.999987
 31
0.0
  0
TEXT
  5
2DC
100
AcDbEntity
  8
SUNPOU
100
AcDbText
 10
2090.106495
 20
2258.249987
 30
0.0
 40
45.0
  1
100
 50
90.0
  7
K
 72
     1
 11
2090.106495
 21
2325.749987
 31
0.0
100
AcDbText
  0
LINE
  5
2DD
100
AcDbEntity
  8
SUNPOU
100
AcDbLine
 10
2135.106495
 20
2499.999987
 30
0.0
 11
2135.106495
 21
2559.999987
 31
0.0
  0
LINE
  5
2DE
100
AcDbEntity
  8
SUNPOU
100
AcDbLine
 10
2135.106495
 20
2399.999987
 30
0.0
 11
2135.106495
 21
2251.499987
 31
0.0
  0
INSERT
  5
2DF
100
AcDbEntity
  8
SUNPOU
100
AcDbBlockReference
  2
ARROWANG
 10
2135.106495
 20
2499.999987
 30
0.0
 41
30.0
 42
30.0
 43
30.0
 50
270.0
  0
INSERT
  5
2E0
100
AcDbEntity
  8
SUNPOU
100
AcDbBlockReference
  2
ARROWANG
 10
2135.106495
 20
2399.999987
 30
0.0
 41
30.0
 42
30.0
 43
30.0
 50
90.0
  0
LINE
  5
2E1
100
AcDbEntity
  8
SUNPOU
100
AcDbLine
 10
2165.106495
 20
2499.999987
 30
0.0
 11
2165.106495
 21
2499.999987
 31
0.0
  0
LINE
  5
2E2
100
AcDbEntity
  8
SUNPOU
100
AcDbLine
 10
2045.106495
 20
2399.999987
 30
0.0
 11
2165.106495
 21
2399.999987
 31
0.0
  0
LINE
  5
2E3
100
AcDbEntity
  8
ITTEN
100
AcDbLine
 10
2015.106495
 20
1699.999987
 30
0.0
 11
1955.106495
 21
1699.999987
 31
0.0
  0
LINE
  5
2E4
100
AcDbEntity
  8
ITTEN
100
AcDbLine
 10
1985.106495
 20
1729.999987
 30
0.0
 11
1985.106495
 21
1669.999987
 31
0.0
  0
CIRCLE
  5
2E5
100
AcDbEntity
  8
JISSEN
100
AcDbCircle
 10
1985.106495
 20
1699.999987
 30
0.0
 40
10.0
  0
LINE
  5
2E6
100
AcDbEntity
  8
ITTEN
100
AcDbLine
 10
2015.106495
 20
2399.999987
 30
0.0
 11
1955.106495
 21
2399.999987
 31
0.0
  0
LINE
  5
2E7
100
AcDbEntity
  8
ITTEN
100
AcDbLine
 10
1985.106495
 20
2429.999987
 30
0.0
 11
1985.106495
 21
2369.999987
 31
0.0
  0
CIRCLE
  5
2E8
100
AcDbEntity
  8
JISSEN
100
AcDbCircle
 10
1985.106495
 20
2399.999987
 30
0.0
 40
10.0
  0
LINE
  5
2E9
100
AcDbEntity
  8
TENSEN
100
AcDbLine
 10
1995.106495
 20
1084.999987
 30
0.0
 11
1995.106495
 21
1044.999987
 31
0.0
  0
LINE
  5
2EA
100
AcDbEntity
  8
TENSEN
100
AcDbLine
 10
1975.106495
 20
1084.999987
 30
0.0
 11
1975.106495
 21
1044.999987
 31
0.0
  0
TEXT
  5
2EB
100
AcDbEntity
  8
SUNPOU
100
AcDbText
 10
1704.218787
 20
973.252744
 30
0.0
 40
45.0
  1
R60
 50
310.788871
  7
K
 72
     1
 11
1747.614815
 21
922.958213
 31
0.0
100
AcDbText
  0
INSERT
  5
2EC
100
AcDbEntity
  8
SUNPOU
100
AcDbBlockReference
  2
ARROWANG
 10
1632.541288
 20
995.427305
 30
0.0
 41
30.0
 42
30.0
 43
30.0
 50
130.788871
  0
LINE
  5
2ED
100
AcDbEntity
  8
SUNPOU
100
AcDbLine
 10
1632.541288
 20
995.427305
 30
0.0
 11
1763.506429
 21
841.452674
 31
0.0
  0
LINE
  5
2EE
100
AcDbEntity
  8
ITTEN
100
AcDbLine
 10
1895.106495
 20
540.531369
 30
0.0
 11
1895.106495
 21
234.999987
 31
0.0
  0
POINT
  5
2EF
100
AcDbEntity
  8
SUNPOU
100
AcDbPoint
 10
1802.400806
 20
499.581089
 30
0.0
  0
TEXT
  5
2F0
100
AcDbEntity
  8
SUNPOU
100
AcDbText
 10
1819.795162
 20
559.331861
 30
0.0
 40
45.0
  1
R1800
 50
11.425132
  7
K
 72
     1
 11
1922.458348
 21
603.034122
 31
0.0
100
AcDbText
 73
     2
  0
LINE
  5
2F1
100
AcDbEntity
  8
SUNPOU
100
AcDbLine
 10
1830.007209
 20
538.440768
 30
0.0
 11
2030.090846
 21
578.876045
 31
0.0
  0
LINE
  5
2F2
100
AcDbEntity
  8
SUNPOU
100
AcDbLine
 10
1800.601677
 20
532.498149
 30
0.0
 11
1830.007209
 21
538.440768
 31
0.0
  0
LINE
  5
2F3
100
AcDbEntity
  8
SUNPOU
100
AcDbLine
 10
1765.67917
 20
524.503195
 30
0.0
 11
1800.967852
 21
532.213702
 31
0.0
  0
LINE
  5
2F4
100
AcDbEntity
  8
SUNPOU
100
AcDbLine
 10
1807.733176
 20
565.644327
 30
0.0
 11
1765.67917
 21
524.503195
 31
0.0
  0
LINE
  5
2F5
100
AcDbEntity
  8
SUNPOU
100
AcDbLine
 10
1635.484583
 20
530.168847
 30
0.0
 11
1807.733176
 21
565.644327
 31
0.0
  0
INSERT
  5
2F6
100
AcDbEntity
  8
SUNPOU
100
AcDbBlockReference
  2
ARROW
 10
1606.101294
 20
524.117209
 30
0.0
 41
30.0
 42
30.0
 43
30.0
 50
191.637634
  0
TEXT
  5
2F7
100
AcDbEntity
  8
SUNPOU
100
AcDbText
 10
2229.969177
 20
778.347102
 30
0.0
 40
45.0
  1
R300
 50
27.064934
  7
K
 72
     1
 11
2308.20521
 21
818.322102
 31
0.0
100
AcDbText
  0
INSERT
  5
2F8
100
AcDbEntity
  8
SUNPOU
100
AcDbBlockReference
  2
ARROWANG
 10
2462.253926
 20
846.499987
 30
0.0
 41
30.0
 42
30.0
 43
30.0
 50
27.064934
  0
LINE
  5
2F9
100
AcDbEntity
  8
SUNPOU
100
AcDbLine
 10
2462.253926
 20
846.499987
 30
0.0
 11
2195.106495
 21
709.999987
 31
0.0
  0
LINE
  5
2FA
100
AcDbEntity
  8
SUNPOU
100
AcDbLine
 10
1595.106495
 20
385.683355
 30
0.0
 11
1595.106495
 21
4.999987
 31
0.0
  0
TEXT
  5
2FB
100
AcDbEntity
  8
SUNPOU
100
AcDbText
 10
1980.820795
 20
229.999987
 30
0.0
 40
45.0
  1
300
  7
K
 72
     1
 11
2045.106509
 21
229.999987
 31
0.0
100
AcDbText
  0
INSERT
  5
2FC
100
AcDbEntity
  8
SUNPOU
100
AcDbBlockReference
  2
ARROWANG
 10
2195.106495
 20
184.999987
 30
0.0
 41
30.0
 42
30.0
 43
30.0
  0
INSERT
  5
2FD
100
AcDbEntity
  8
SUNPOU
100
AcDbBlockReference
  2
ARROWANG
 10
1895.106495
 20
184.999987
 30
0.0
 41
30.0
 42
30.0
 43
30.0
 50
180.0
  0
LINE
  5
2FE
100
AcDbEntity
  8
SUNPOU
100
AcDbLine
 10
1895.106495
 20
184.999987
 30
0.0
 11
2195.106495
 21
184.999987
 31
0.0
  0
LINE
  5
2FF
100
AcDbEntity
  8
SUNPOU
100
AcDbLine
 10
2195.106495
 20
154.999987
 30
0.0
 11
2195.106495
 21
154.999987
 31
0.0
  0
LINE
  5
300
100
AcDbEntity
  8
SUNPOU
100
AcDbLine
 10
1895.106495
 20
234.999987
 30
0.0
 11
1895.106495
 21
154.999987
 31
0.0
  0
TEXT
  5
301
100
AcDbEntity
  8
SUNPOU
100
AcDbText
 10
1829.749352
 20
79.999987
 30
0.0
 40
45.0
  1
600
  7
K
 72
     1
 11
1895.106495
 21
79.999987
 31
0.0
100
AcDbText
  0
INSERT
  5
302
100
AcDbEntity
  8
SUNPOU
100
AcDbBlockReference
  2
ARROWANG
 10
1595.106495
 20
34.999987
 30
0.0
 41
30.0
 42
30.0
 43
30.0
 50
180.0
  0
INSERT
  5
303
100
AcDbEntity
  8
SUNPOU
100
AcDbBlockReference
  2
ARROWANG
 10
2195.106495
 20
34.999987
 30
0.0
 41
30.0
 42
30.0
 43
30.0
  0
LINE
  5
304
100
AcDbEntity
  8
SUNPOU
100
AcDbLine
 10
1595.106495
 20
34.999987
 30
0.0
 11
2195.106495
 21
34.999987
 31
0.0
  0
LINE
  5
305
100
AcDbEntity
  8
SUNPOU
100
AcDbLine
 10
2195.106495
 20
204.999987
 30
0.0
 11
2195.106495
 21
4.999987
 31
0.0
  0
TEXT
  5
306
100
AcDbEntity
  8
SUNPOU
100
AcDbText
 10
1325.106495
 20
645.714273
 30
0.0
 40
45.0
  1
273
 50
90.0
  7
K
 72
     1
 11
1325.106495
 21
709.999987
 31
0.0
100
AcDbText
  0
INSERT
  5
307
100
AcDbEntity
  8
SUNPOU
100
AcDbBlockReference
  2
ARROWANG
 10
1370.106495
 20
846.499987
 30
0.0
 41
30.0
 42
30.0
 43
30.0
 50
90.0
  0
INSERT
  5
308
100
AcDbEntity
  8
SUNPOU
100
AcDbBlockReference
  2
ARROWANG
 10
1370.106495
 20
573.499987
 30
0.0
 41
30.0
 42
30.0
 43
30.0
 50
270.0
  0
LINE
  5
309
100
AcDbEntity
  8
SUNPOU
100
AcDbLine
 10
1370.106495
 20
573.499987
 30
0.0
 11
1370.106495
 21
846.499987
 31
0.0
  0
LINE
  5
30A
100
AcDbEntity
  8
SUNPOU
100
AcDbLine
 10
1570.289582
 20
846.499987
 30
0.0
 11
1340.106495
 21
846.499987
 31
0.0
  0
LINE
  5
30B
100
AcDbEntity
  8
SUNPOU
100
AcDbLine
 10
1570.289582
 20
573.499987
 30
0.0
 11
1340.106495
 21
573.499987
 31
0.0
  0
ARC
  5
30C
100
AcDbEntity
  8
ITTEN
100
AcDbCircle
 10
1652.606495
 20
615.999987
 30
0.0
 40
42.5
100
AcDbArc
 50
270.0
 51
0.0
  0
ARC
  5
30D
100
AcDbEntity
  8
ITTEN
100
AcDbCircle
 10
1652.606495
 20
803.999987
 30
0.0
 40
42.5
100
AcDbArc
 50
0.0
 51
90.0
  0
LINE
  5
30E
100
AcDbEntity
  8
ITTEN
100
AcDbLine
 10
1652.606495
 20
573.499987
 30
0.0
 11
1600.289582
 21
573.499987
 31
0.0
  0
LINE
  5
30F
100
AcDbEntity
  8
ITTEN
100
AcDbLine
 10
1695.106495
 20
803.999987
 30
0.0
 11
1695.106495
 21
615.999987
 31
0.0
  0
LINE
  5
310
100
AcDbEntity
  8
ITTEN
100
AcDbLine
 10
1652.606495
 20
846.499987
 30
0.0
 11
1600.289582
 21
846.499987
 31
0.0
  0
ARC
  5
311
100
AcDbEntity
  8
JISSEN
100
AcDbCircle
 10
1652.606495
 20
615.999987
 30
0.0
 40
55.0
100
AcDbArc
 50
270.0
 51
0.0
  0
ARC
  5
312
100
AcDbEntity
  8
JISSEN
100
AcDbCircle
 10
1652.606495
 20
803.999987
 30
0.0
 40
55.0
100
AcDbArc
 50
0.0
 51
90.0
  0
ARC
  5
313
100
AcDbEntity
  8
JISSEN
100
AcDbCircle
 10
1652.606495
 20
615.999987
 30
0.0
 40
30.0
100
AcDbArc
 50
270.0
 51
0.0
  0
ARC
  5
314
100
AcDbEntity
  8
JISSEN
100
AcDbCircle
 10
1652.606495
 20
803.999987
 30
0.0
 40
30.0
100
AcDbArc
 50
0.0
 51
90.0
  0
LINE
  5
315
100
AcDbEntity
  8
JISSEN
100
AcDbLine
 10
1652.606495
 20
858.999987
 30
0.0
 11
1601.28404
 21
858.999987
 31
0.0
  0
LINE
  5
316
100
AcDbEntity
  8
JISSEN
100
AcDbLine
 10
1707.606495
 20
615.999987
 30
0.0
 11
1707.606495
 21
803.999987
 31
0.0
  0
LINE
  5
317
100
AcDbEntity
  8
JISSEN
100
AcDbLine
 10
1601.28404
 20
560.999987
 30
0.0
 11
1652.606495
 21
560.999987
 31
0.0
  0
LINE
  5
318
100
AcDbEntity
  8
JISSEN
100
AcDbLine
 10
1652.606495
 20
585.999987
 30
0.0
 11
1599.382685
 21
585.999987
 31
0.0
  0
LINE
  5
319
100
AcDbEntity
  8
JISSEN
100
AcDbLine
 10
1682.606495
 20
803.999987
 30
0.0
 11
1682.606495
 21
615.999987
 31
0.0
  0
LINE
  5
31A
100
AcDbEntity
  8
JISSEN
100
AcDbLine
 10
1652.606495
 20
833.999987
 30
0.0
 11
1599.382685
 21
833.999987
 31
0.0
  0
LINE
  5
31B
100
AcDbEntity
  8
JISSEN
100
AcDbLine
 10
1599.382685
 20
833.999987
 30
0.0
 11
1599.382685
 21
833.999987
 31
0.0
  0
LINE
  5
31C
100
AcDbEntity
  8
ITTEN
100
AcDbLine
 10
1420.106495
 20
709.999987
 30
0.0
 11
2670.106495
 21
709.999987
 31
0.0
  0
LINE
  5
31D
100
AcDbEntity
  8
ITTEN
100
AcDbLine
 10
2195.106495
 20
1184.999987
 30
0.0
 11
2195.106495
 21
234.999987
 31
0.0
  0
LINE
  5
31E
100
AcDbEntity
  8
ITTEN
100
AcDbLine
 10
1895.106495
 20
1184.999987
 30
0.0
 11
1895.106495
 21
623.633136
 31
0.0
  0
ARC
  5
31F
100
AcDbEntity
  8
JISSEN
100
AcDbCircle
 10
1545.106495
 20
359.999987
 30
0.0
 40
25.0
100
AcDbArc
 50
180.0
 51
270.0
  0
ARC
  5
320
100
AcDbEntity
  8
JISSEN
100
AcDbCircle
 10
1545.106495
 20
1059.999987
 30
0.0
 40
25.0
100
AcDbArc
 50
90.0
 51
180.0
  0
LINE
  5
321
100
AcDbEntity
  8
JISSEN
100
AcDbLine
 10
1671.737701
 20
374.999987
 30
0.0
 11
2195.106495
 21
374.999987
 31
0.0
  0
LINE
  5
322
100
AcDbEntity
  8
JISSEN
100
AcDbLine
 10
1671.737701
 20
409.999987
 30
0.0
 11
2195.106495
 21
409.999987
 31
0.0
  0
ARC
  5
323
100
AcDbEntity
  8
JISSEN
100
AcDbCircle
 10
3395.106495
 20
709.999987
 30
0.0
 40
1835.0
100
AcDbArc
 50
191.792017
 51
191.792017
  0
ARC
  5
324
100
AcDbEntity
  8
JISSEN
100
AcDbCircle
 10
1671.737701
 20
469.999987
 30
0.0
 40
95.0
100
AcDbArc
 50
187.928142
 51
270.0
  0
ARC
  5
325
100
AcDbEntity
  8
JISSEN
100
AcDbCircle
 10
1671.737701
 20
469.999987
 30
0.0
 40
88.0
100
AcDbArc
 50
187.928142
 51
270.0
  0
ARC
  5
326
100
AcDbEntity
  8
JISSEN
100
AcDbCircle
 10
1671.737701
 20
469.999987
 30
0.0
 40
60.0
100
AcDbArc
 50
187.928142
 51
270.0
  0
LINE
  5
327
100
AcDbEntity
  8
JISSEN
100
AcDbLine
 10
1671.737701
 20
1044.999987
 30
0.0
 11
2195.106495
 21
1044.999987
 31
0.0
  0
LINE
  5
328
100
AcDbEntity
  8
JISSEN
100
AcDbLine
 10
1671.737701
 20
1037.999987
 30
0.0
 11
2195.106495
 21
1037.999987
 31
0.0
  0
ARC
  5
329
100
AcDbEntity
  8
JISSEN
100
AcDbCircle
 10
3395.106495
 20
709.999987
 30
0.0
 40
1835.0
100
AcDbArc
 50
171.970527
 51
187.928142
  0
ARC
  5
32A
100
AcDbEntity
  8
JISSEN
100
AcDbCircle
 10
3395.106495
 20
709.999987
 30
0.0
 40
1828.0
100
AcDbArc
 50
171.976608
 51
187.928142
  0
ARC
  5
32B
100
AcDbEntity
  8
JISSEN
100
AcDbCircle
 10
3395.106495
 20
709.999987
 30
0.0
 40
1800.0
100
AcDbArc
 50
172.003017
 51
187.928142
  0
ARC
  5
32C
100
AcDbEntity
  8
JISSEN
100
AcDbCircle
 10
1671.737701
 20
949.999987
 30
0.0
 40
95.0
100
AcDbArc
 50
90.0
 51
172.071858
  0
ARC
  5
32D
100
AcDbEntity
  8
JISSEN
100
AcDbCircle
 10
1671.737701
 20
949.999987
 30
0.0
 40
88.0
100
AcDbArc
 50
90.0
 51
172.071858
  0
ARC
  5
32E
100
AcDbEntity
  8
JISSEN
100
AcDbCircle
 10
3395.106495
 20
709.999987
 30
0.0
 40
1835.0
100
AcDbArc
 50
168.162175
 51
168.207983
  0
ARC
  5
32F
100
AcDbEntity
  8
JISSEN
100
AcDbCircle
 10
3395.106495
 20
709.999987
 30
0.0
 40
1828.0
100
AcDbArc
 50
168.162175
 51
168.162175
  0
ARC
  5
330
100
AcDbEntity
  8
JISSEN
100
AcDbCircle
 10
1671.737701
 20
949.999987
 30
0.0
 40
60.0
100
AcDbArc
 50
90.0
 51
180.0
  0
ARC
  5
331
100
AcDbEntity
  8
JISSEN
100
AcDbCircle
 10
3395.106495
 20
709.999987
 30
0.0
 40
1800.0
100
AcDbArc
 50
167.975301
 51
167.975301
  0
LINE
  5
332
100
AcDbEntity
  8
JISSEN
100
AcDbLine
 10
2195.106495
 20
1009.999987
 30
0.0
 11
1671.737701
 21
1009.999987
 31
0.0
  0
LINE
  5
333
100
AcDbEntity
  8
JISSEN
100
AcDbLine
 10
2195.106495
 20
381.999987
 30
0.0
 11
1671.737701
 21
381.999987
 31
0.0
  0
LINE
  5
334
100
AcDbEntity
  8
JISSEN
100
AcDbLine
 10
1545.106495
 20
334.999987
 30
0.0
 11
2195.106495
 21
334.999987
 31
0.0
  0
LINE
  5
335
100
AcDbEntity
  8
JISSEN
100
AcDbLine
 10
1520.106495
 20
1059.999987
 30
0.0
 11
1520.106495
 21
359.999987
 31
0.0
  0
LINE
  5
336
100
AcDbEntity
  8
JISSEN
100
AcDbLine
 10
1545.106495
 20
1084.999987
 30
0.0
 11
2195.106495
 21
1084.999987
 31
0.0
  0
ARC
  5
337
100
AcDbEntity
  8
JISSEN
100
AcDbCircle
 10
2195.106495
 20
709.999987
 30
0.0
 40
335.0
100
AcDbArc
 50
270.0
 51
90.0
  0
ARC
  5
338
100
AcDbEntity
  8
JISSEN
100
AcDbCircle
 10
2195.106495
 20
709.999987
 30
0.0
 40
328.0
100
AcDbArc
 50
270.0
 51
90.0
  0
ARC
  5
339
100
AcDbEntity
  8
JISSEN
100
AcDbCircle
 10
2195.106495
 20
709.999987
 30
0.0
 40
300.0
100
AcDbArc
 50
270.0
 51
90.0
  0
ARC
  5
33A
100
AcDbEntity
  8
JISSEN
100
AcDbCircle
 10
2195.106495
 20
709.999987
 30
0.0
 40
375.0
100
AcDbArc
 50
270.0
 51
90.0
  0
ARC
  5
33B
100
AcDbEntity
  8
TENSEN
100
AcDbCircle
 10
3731.606495
 20
2334.999987
 30
0.0
 40
12.5
100
AcDbArc
 50
270.0
 51
90.0
  0
ARC
  5
33C
100
AcDbEntity
  8
JISSEN
100
AcDbCircle
 10
3458.606495
 20
2334.999987
 30
0.0
 40
12.5
100
AcDbArc
 50
90.0
 51
270.0
  0
LINE
  5
33D
100
AcDbEntity
  8
JISSEN
100
AcDbLine
 10
3458.606495
 20
2347.499987
 30
0.0
 11
3595.106495
 21
2347.499987
 31
0.0
  0
LINE
  5
33E
100
AcDbEntity
  8
TENSEN
100
AcDbLine
 10
3595.106495
 20
2347.499987
 30
0.0
 11
3731.606495
 21
2347.499987
 31
0.0
  0
LINE
  5
33F
100
AcDbEntity
  8
TENSEN
100
AcDbLine
 10
3731.606495
 20
2322.499987
 30
0.0
 11
3595.106495
 21
2322.499987
 31
0.0
  0
LINE
  5
340
100
AcDbEntity
  8
JISSEN
100
AcDbLine
 10
3595.106495
 20
2322.499987
 30
0.0
 11
3458.606495
 21
2322.499987
 31
0.0
  0
LINE
  5
341
100
AcDbEntity
  8
ITTEN
100
AcDbLine
 10
3395.106495
 20
2334.999987
 30
0.0
 11
3795.106495
 21
2334.999987
 31
0.0
  0
ARC
  5
342
100
AcDbEntity
  8
TENSEN
100
AcDbCircle
 10
3731.606495
 20
2034.999987
 30
0.0
 40
12.5
100
AcDbArc
 50
270.0
 51
90.0
  0
ARC
  5
343
100
AcDbEntity
  8
JISSEN
100
AcDbCircle
 10
3458.606495
 20
2034.999987
 30
0.0
 40
12.5
100
AcDbArc
 50
90.0
 51
270.0
  0
LINE
  5
344
100
AcDbEntity
  8
JISSEN
100
AcDbLine
 10
3458.606495
 20
2047.499987
 30
0.0
 11
3595.106495
 21
2047.499987
 31
0.0
  0
LINE
  5
345
100
AcDbEntity
  8
TENSEN
100
AcDbLine
 10
3595.106495
 20
2047.499987
 30
0.0
 11
3731.606495
 21
2047.499987
 31
0.0
  0
LINE
  5
346
100
AcDbEntity
  8
TENSEN
100
AcDbLine
 10
3731.606495
 20
2022.499987
 30
0.0
 11
3595.106495
 21
2022.499987
 31
0.0
  0
LINE
  5
347
100
AcDbEntity
  8
JISSEN
100
AcDbLine
 10
3595.106495
 20
2022.499987
 30
0.0
 11
3458.606495
 21
2022.499987
 31
0.0
  0
LINE
  5
348
100
AcDbEntity
  8
ITTEN
100
AcDbLine
 10
3395.106495
 20
2034.999987
 30
0.0
 11
3795.106495
 21
2034.999987
 31
0.0
  0
LINE
  5
349
100
AcDbEntity
  8
ITTEN
100
AcDbLine
 10
3395.106495
 20
1734.999987
 30
0.0
 11
3795.106495
 21
1734.999987
 31
0.0
  0
LINE
  5
34A
100
AcDbEntity
  8
JISSEN
100
AcDbLine
 10
3595.106495
 20
1722.499987
 30
0.0
 11
3458.606495
 21
1722.499987
 31
0.0
  0
LINE
  5
34B
100
AcDbEntity
  8
TENSEN
100
AcDbLine
 10
3731.606495
 20
1722.499987
 30
0.0
 11
3595.106495
 21
1722.499987
 31
0.0
  0
LINE
  5
34C
100
AcDbEntity
  8
TENSEN
100
AcDbLine
 10
3595.106495
 20
1747.499987
 30
0.0
 11
3731.606495
 21
1747.499987
 31
0.0
  0
LINE
  5
34D
100
AcDbEntity
  8
JISSEN
100
AcDbLine
 10
3458.606495
 20
1747.499987
 30
0.0
 11
3595.106495
 21
1747.499987
 31
0.0
  0
ARC
  5
34E
100
AcDbEntity
  8
JISSEN
100
AcDbCircle
 10
3458.606495
 20
1734.999987
 30
0.0
 40
12.5
100
AcDbArc
 50
90.0
 51
270.0
  0
ARC
  5
34F
100
AcDbEntity
  8
TENSEN
100
AcDbCircle
 10
3731.606495
 20
1734.999987
 30
0.0
 40
12.5
100
AcDbArc
 50
270.0
 51
90.0
  0
LINE
  5
350
100
AcDbEntity
  8
ITTEN
100
AcDbLine
 10
3595.106495
 20
2599.999987
 30
0.0
 11
3595.106495
 21
1499.999987
 31
0.0
  0
TEXT
  5
351
100
AcDbEntity
  8
SUNPOU
100
AcDbText
 10
3529.749366
 20
2694.999987
 30
0.0
 40
45.0
  1
600
  7
K
 72
     1
 11
3595.106509
 21
2694.999987
 31
0.0
100
AcDbText
  0
INSERT
  5
352
100
AcDbEntity
  8
SUNPOU
100
AcDbBlockReference
  2
ARROWANG
 10
3895.106495
 20
2649.999987
 30
0.0
 41
30.0
 42
30.0
 43
30.0
  0
INSERT
  5
353
100
AcDbEntity
  8
SUNPOU
100
AcDbBlockReference
  2
ARROWANG
 10
3295.106495
 20
2649.999987
 30
0.0
 41
30.0
 42
30.0
 43
30.0
 50
180.0
  0
LINE
  5
354
100
AcDbEntity
  8
SUNPOU
100
AcDbLine
 10
3295.106495
 20
2649.999987
 30
0.0
 11
3895.106495
 21
2649.999987
 31
0.0
  0
LINE
  5
355
100
AcDbEntity
  8
SUNPOU
100
AcDbLine
 10
3895.106495
 20
2619.999987
 30
0.0
 11
3895.106495
 21
2619.999987
 31
0.0
  0
LINE
  5
356
100
AcDbEntity
  8
SUNPOU
100
AcDbLine
 10
3295.106495
 20
2619.999987
 30
0.0
 11
3295.106495
 21
2619.999987
 31
0.0
  0
LINE
  5
357
100
AcDbEntity
  8
SUNPOU
100
AcDbLine
 10
3895.106495
 20
2649.999987
 30
0.0
 11
3835.106495
 21
2649.999987
 31
0.0
  0
LINE
  5
358
100
AcDbEntity
  8
SUNPOU
100
AcDbLine
 10
3970.106495
 20
2649.999987
 30
0.0
 11
4030.106495
 21
2649.999987
 31
0.0
  0
TEXT
  5
359
100
AcDbEntity
  8
SUNPOU
100
AcDbText
 10
3889.749366
 20
2694.999987
 30
0.0
 40
45.0
  1
75
  7
K
 72
     1
 11
3932.606509
 21
2694.999987
 31
0.0
100
AcDbText
  0
INSERT
  5
35A
100
AcDbEntity
  8
SUNPOU
100
AcDbBlockReference
  2
ARROWANG
 10
3895.106495
 20
2649.999987
 30
0.0
 41
30.0
 42
30.0
 43
30.0
  0
INSERT
  5
35B
100
AcDbEntity
  8
SUNPOU
100
AcDbBlockReference
  2
ARROWANG
 10
3970.106495
 20
2649.999987
 30
0.0
 41
30.0
 42
30.0
 43
30.0
 50
180.0
  0
LINE
  5
35C
100
AcDbEntity
  8
SUNPOU
100
AcDbLine
 10
3895.106495
 20
2649.999987
 30
0.0
 11
3970.106495
 21
2649.999987
 31
0.0
  0
LINE
  5
35D
100
AcDbEntity
  8
SUNPOU
100
AcDbLine
 10
3970.106495
 20
2679.999987
 30
0.0
 11
3970.106495
 21
2679.999987
 31
0.0
  0
LINE
  5
35E
100
AcDbEntity
  8
SUNPOU
100
AcDbLine
 10
3895.106495
 20
2506.999987
 30
0.0
 11
3895.106495
 21
2679.999987
 31
0.0
  0
LINE
  5
35F
100
AcDbEntity
  8
SUNPOU
100
AcDbLine
 10
3220.106495
 20
2649.999987
 30
0.0
 11
3160.106495
 21
2649.999987
 31
0.0
  0
LINE
  5
360
100
AcDbEntity
  8
SUNPOU
100
AcDbLine
 10
3295.106495
 20
2649.999987
 30
0.0
 11
3355.106495
 21
2649.999987
 31
0.0
  0
TEXT
  5
361
100
AcDbEntity
  8
SUNPOU
100
AcDbText
 10
3214.749366
 20
2694.999987
 30
0.0
 40
45.0
  1
75
  7
K
 72
     1
 11
3257.606509
 21
2694.999987
 31
0.0
100
AcDbText
  0
INSERT
  5
362
100
AcDbEntity
  8
SUNPOU
100
AcDbBlockReference
  2
ARROWANG
 10
3220.106495
 20
2649.999987
 30
0.0
 41
30.0
 42
30.0
 43
30.0
  0
INSERT
  5
363
100
AcDbEntity
  8
SUNPOU
100
AcDbBlockReference
  2
ARROWANG
 10
3295.106495
 20
2649.999987
 30
0.0
 41
30.0
 42
30.0
 43
30.0
 50
180.0
  0
LINE
  5
364
100
AcDbEntity
  8
SUNPOU
100
AcDbLine
 10
3220.106495
 20
2649.999987
 30
0.0
 11
3295.106495
 21
2649.999987
 31
0.0
  0
LINE
  5
365
100
AcDbEntity
  8
SUNPOU
100
AcDbLine
 10
3295.106495
 20
2506.999987
 30
0.0
 11
3295.106495
 21
2679.999987
 31
0.0
  0
LINE
  5
366
100
AcDbEntity
  8
SUNPOU
100
AcDbLine
 10
3220.106495
 20
2679.999987
 30
0.0
 11
3220.106495
 21
2679.999987
 31
0.0
  0
TEXT
  5
367
100
AcDbEntity
  8
SUNPOU
100
AcDbText
 10
3530.82078
 20
2844.999987
 30
0.0
 40
45.0
  1
750
  7
K
 72
     1
 11
3595.106495
 21
2844.999987
 31
0.0
100
AcDbText
  0
INSERT
  5
368
100
AcDbEntity
  8
SUNPOU
100
AcDbBlockReference
  2
ARROWANG
 10
3220.106495
 20
2799.999987
 30
0.0
 41
30.0
 42
30.0
 43
30.0
 50
180.0
  0
INSERT
  5
369
100
AcDbEntity
  8
SUNPOU
100
AcDbBlockReference
  2
ARROWANG
 10
3970.106495
 20
2799.999987
 30
0.0
 41
30.0
 42
30.0
 43
30.0
  0
LINE
  5
36A
100
AcDbEntity
  8
SUNPOU
100
AcDbLine
 10
3220.106495
 20
2799.999987
 30
0.0
 11
3970.106495
 21
2799.999987
 31
0.0
  0
LINE
  5
36B
100
AcDbEntity
  8
SUNPOU
100
AcDbLine
 10
3970.106495
 20
2529.999987
 30
0.0
 11
3970.106495
 21
2829.999987
 31
0.0
  0
LINE
  5
36C
100
AcDbEntity
  8
SUNPOU
100
AcDbLine
 10
3220.106495
 20
2529.999987
 30
0.0
 11
3220.106495
 21
2829.999987
 31
0.0
  0
LINE
  5
36D
100
AcDbEntity
  8
JISSEN
100
AcDbLine
 10
3220.106495
 20
2499.999987
 30
0.0
 11
3260.106495
 21
2499.999987
 31
0.0
  0
LINE
  5
36E
100
AcDbEntity
  8
JISSEN
100
AcDbLine
 10
3260.106495
 20
2499.999987
 30
0.0
 11
3267.106495
 21
2476.999987
 31
0.0
  0
LINE
  5
36F
100
AcDbEntity
  8
JISSEN
100
AcDbLine
 10
3267.106495
 20
2476.999987
 30
0.0
 11
3295.106495
 21
2476.999987
 31
0.0
  0
LINE
  5
370
100
AcDbEntity
  8
JISSEN
100
AcDbLine
 10
3220.106495
 20
2499.999987
 30
0.0
 11
3220.106495
 21
1599.999987
 31
0.0
  0
LINE
  5
371
100
AcDbEntity
  8
JISSEN
100
AcDbLine
 10
3220.106495
 20
1599.999987
 30
0.0
 11
3261.106495
 21
1599.999987
 31
0.0
  0
LINE
  5
372
100
AcDbEntity
  8
JISSEN
100
AcDbLine
 10
3261.106495
 20
1599.999987
 30
0.0
 11
3270.106495
 21
1584.999987
 31
0.0
  0
LINE
  5
373
100
AcDbEntity
  8
JISSEN
100
AcDbLine
 10
3270.106495
 20
1584.999987
 30
0.0
 11
3295.106495
 21
1584.999987
 31
0.0
  0
LINE
  5
374
100
AcDbEntity
  8
JISSEN
100
AcDbLine
 10
3295.106495
 20
2476.999987
 30
0.0
 11
3295.106495
 21
1584.999987
 31
0.0
  0
LINE
  5
375
100
AcDbEntity
  8
TENSEN
100
AcDbLine
 10
3895.106495
 20
2476.999987
 30
0.0
 11
3895.106495
 21
1584.999987
 31
0.0
  0
LINE
  5
376
100
AcDbEntity
  8
JISSEN
100
AcDbLine
 10
3920.106495
 20
1584.999987
 30
0.0
 11
3895.106495
 21
1584.999987
 31
0.0
  0
LINE
  5
377
100
AcDbEntity
  8
JISSEN
100
AcDbLine
 10
3929.106495
 20
1599.999987
 30
0.0
 11
3920.106495
 21
1584.999987
 31
0.0
  0
LINE
  5
378
100
AcDbEntity
  8
JISSEN
100
AcDbLine
 10
3970.106495
 20
1599.999987
 30
0.0
 11
3929.106495
 21
1599.999987
 31
0.0
  0
LINE
  5
379
100
AcDbEntity
  8
JISSEN
100
AcDbLine
 10
3970.106495
 20
2499.999987
 30
0.0
 11
3970.106495
 21
1599.999987
 31
0.0
  0
LINE
  5
37A
100
AcDbEntity
  8
TENSEN
100
AcDbLine
 10
3923.106495
 20
2476.999987
 30
0.0
 11
3895.106495
 21
2476.999987
 31
0.0
  0
LINE
  5
37B
100
AcDbEntity
  8
TENSEN
100
AcDbLine
 10
3930.106495
 20
2499.999987
 30
0.0
 11
3923.106495
 21
2476.999987
 31
0.0
  0
LINE
  5
37C
100
AcDbEntity
  8
JISSEN
100
AcDbLine
 10
3970.106495
 20
2499.999987
 30
0.0
 11
3930.106495
 21
2499.999987
 31
0.0
  0
LINE
  5
37D
100
AcDbEntity
  8
JISSEN
100
AcDbLine
 10
3261.106495
 20
2499.999987
 30
0.0
 11
3930.106495
 21
2499.999987
 31
0.0
  0
LINE
  5
37E
100
AcDbEntity
  8
JISSEN
100
AcDbLine
 10
3295.106495
 20
2476.999987
 30
0.0
 11
3595.106495
 21
2476.999987
 31
0.0
  0
LINE
  5
37F
100
AcDbEntity
  8
TENSEN
100
AcDbLine
 10
3595.106495
 20
2476.999987
 30
0.0
 11
3895.106495
 21
2476.999987
 31
0.0
  0
LINE
  5
380
100
AcDbEntity
  8
JISSEN
100
AcDbLine
 10
3295.106495
 20
1584.999987
 30
0.0
 11
3895.106495
 21
1584.999987
 31
0.0
  0
LINE
  5
381
100
AcDbEntity
  8
TENSEN
100
AcDbLine
 10
3261.106495
 20
1599.999987
 30
0.0
 11
3595.106495
 21
1599.999987
 31
0.0
  0
LINE
  5
382
100
AcDbEntity
  8
JISSEN
100
AcDbLine
 10
3595.106495
 20
1599.999987
 30
0.0
 11
3929.106495
 21
1599.999987
 31
0.0
  0
LINE
  5
383
100
AcDbEntity
  8
SUNPOU
100
AcDbLine
 10
3415.106495
 20
1584.999987
 30
0.0
 11
3415.106495
 21
1584.999987
 31
0.0
  0
LINE
  5
384
100
AcDbEntity
  8
SUNPOU
100
AcDbLine
 10
3575.106495
 20
1584.999987
 30
0.0
 11
3590.186299
 21
1584.999987
 31
0.0
  0
LINE
  5
385
100
AcDbEntity
  8
SUNPOU
100
AcDbLine
 10
3575.106495
 20
2476.999987
 30
0.0
 11
3590.186299
 21
2476.999987
 31
0.0
  0
TEXT
  5
386
100
AcDbEntity
  8
SUNPOU
100
AcDbText
 10
1815.186299
 20
1969.623455
 30
0.0
 40
45.0
  1
892
 50
90.0
  7
K
 72
     1
 11
1815.186299
 21
2033.909169
 31
0.0
100
AcDbText
  0
INSERT
  5
387
100
AcDbEntity
  8
SUNPOU
100
AcDbBlockReference
  2
ARROWANG
 10
1860.186299
 20
2476.999987
 30
0.0
 41
30.0
 42
30.0
 43
30.0
 50
90.0
  0
INSERT
  5
388
100
AcDbEntity
  8
SUNPOU
100
AcDbBlockReference
  2
ARROWANG
 10
1860.186299
 20
1584.999987
 30
0.0
 41
30.0
 42
30.0
 43
30.0
 50
270.0
  0
LINE
  5
389
100
AcDbEntity
  8
SUNPOU
100
AcDbLine
 10
1860.186299
 20
1584.999987
 30
0.0
 11
1860.186299
 21
2476.999987
 31
0.0
  0
LINE
  5
38A
100
AcDbEntity
  8
SUNPOU
100
AcDbLine
 10
1875.106495
 20
2476.999987
 30
0.0
 11
1890.186299
 21
2476.999987
 31
0.0
  0
LINE
  5
38B
100
AcDbEntity
  8
SUNPOU
100
AcDbLine
 10
1875.106495
 20
1584.999987
 30
0.0
 11
1890.186299
 21
1584.999987
 31
0.0
  0
TEXT
  5
38C
100
AcDbEntity
  8
SUNPOU
100
AcDbText
 10
1700.106495
 20
1592.499987
 30
0.0
 40
45.0
  1
150
 50
90.0
  7
K
 72
     1
 11
1700.106495
 21
1659.999987
 31
0.0
100
AcDbText
  0
INSERT
  5
38D
100
AcDbEntity
  8
SUNPOU
100
AcDbBlockReference
  2
ARROWANG
 10
1745.106495
 20
1734.999987
 30
0.0
 41
30.0
 42
30.0
 43
30.0
 50
90.0
  0
INSERT
  5
38E
100
AcDbEntity
  8
SUNPOU
100
AcDbBlockReference
  2
ARROWANG
 10
1745.106495
 20
1584.999987
 30
0.0
 41
30.0
 42
30.0
 43
30.0
 50
270.0
  0
LINE
  5
38F
100
AcDbEntity
  8
SUNPOU
100
AcDbLine
 10
1745.106495
 20
1584.999987
 30
0.0
 11
1745.106495
 21
1734.999987
 31
0.0
  0
LINE
  5
390
100
AcDbEntity
  8
SUNPOU
100
AcDbLine
 10
1715.106495
 20
1734.999987
 30
0.0
 11
1715.106495
 21
1734.999987
 31
0.0
  0
LINE
  5
391
100
AcDbEntity
  8
SUNPOU
100
AcDbLine
 10
1715.106495
 20
1584.999987
 30
0.0
 11
1715.106495
 21
1584.999987
 31
0.0
  0
TEXT
  5
392
100
AcDbEntity
  8
SUNPOU
100
AcDbText
 10
1700.106495
 20
1820.714273
 30
0.0
 40
45.0
  1
300
 50
90.0
  7
K
 72
     1
 11
1700.106495
 21
1884.999987
 31
0.0
100
AcDbText
  0
INSERT
  5
393
100
AcDbEntity
  8
SUNPOU
100
AcDbBlockReference
  2
ARROWANG
 10
1745.106495
 20
2034.999987
 30
0.0
 41
30.0
 42
30.0
 43
30.0
 50
90.0
  0
INSERT
  5
394
100
AcDbEntity
  8
SUNPOU
100
AcDbBlockReference
  2
ARROWANG
 10
1745.106495
 20
1734.999987
 30
0.0
 41
30.0
 42
30.0
 43
30.0
 50
270.0
  0
LINE
  5
395
100
AcDbEntity
  8
SUNPOU
100
AcDbLine
 10
1745.106495
 20
1734.999987
 30
0.0
 11
1745.106495
 21
2034.999987
 31
0.0
  0
LINE
  5
396
100
AcDbEntity
  8
SUNPOU
100
AcDbLine
 10
1775.106495
 20
2034.999987
 30
0.0
 11
1775.106495
 21
2034.999987
 31
0.0
  0
LINE
  5
397
100
AcDbEntity
  8
SUNPOU
100
AcDbLine
 10
1775.106495
 20
1734.999987
 30
0.0
 11
1775.106495
 21
1734.999987
 31
0.0
  0
TEXT
  5
398
100
AcDbEntity
  8
SUNPOU
100
AcDbText
 10
1700.106495
 20
2120.714273
 30
0.0
 40
45.0
  1
300
 50
90.0
  7
K
 72
     1
 11
1700.106495
 21
2184.999987
 31
0.0
100
AcDbText
  0
INSERT
  5
399
100
AcDbEntity
  8
SUNPOU
100
AcDbBlockReference
  2
ARROWANG
 10
1745.106495
 20
2334.999987
 30
0.0
 41
30.0
 42
30.0
 43
30.0
 50
90.0
  0
INSERT
  5
39A
100
AcDbEntity
  8
SUNPOU
100
AcDbBlockReference
  2
ARROWANG
 10
1745.106495
 20
2034.999987
 30
0.0
 41
30.0
 42
30.0
 43
30.0
 50
270.0
  0
LINE
  5
39B
100
AcDbEntity
  8
SUNPOU
100
AcDbLine
 10
1745.106495
 20
2034.999987
 30
0.0
 11
1745.106495
 21
2334.999987
 31
0.0
  0
LINE
  5
39C
100
AcDbEntity
  8
SUNPOU
100
AcDbLine
 10
1775.106495
 20
2334.999987
 30
0.0
 11
1775.106495
 21
2334.999987
 31
0.0
  0
LINE
  5
39D
100
AcDbEntity
  8
SUNPOU
100
AcDbLine
 10
1775.106495
 20
2034.999987
 30
0.0
 11
1775.106495
 21
2034.999987
 31
0.0
  0
ARC
  5
39E
100
AcDbEntity
  8
JISSEN
100
AcDbCircle
 10
1695.106495
 20
2334.999987
 30
0.0
 40
12.5
100
AcDbArc
 50
270.0
 51
90.0
  0
LINE
  5
39F
100
AcDbEntity
  8
JISSEN
100
AcDbLine
 10
1595.106495
 20
2347.499987
 30
0.0
 11
1695.106495
 21
2347.499987
 31
0.0
  0
LINE
  5
3A0
100
AcDbEntity
  8
JISSEN
100
AcDbLine
 10
1695.106495
 20
2322.499987
 30
0.0
 11
1595.106495
 21
2322.499987
 31
0.0
  0
LINE
  5
3A1
100
AcDbEntity
  8
ITTEN
100
AcDbLine
 10
1495.106495
 20
2334.999987
 30
0.0
 11
1795.106495
 21
2334.999987
 31
0.0
  0
ARC
  5
3A2
100
AcDbEntity
  8
JISSEN
100
AcDbCircle
 10
1695.106495
 20
2034.999987
 30
0.0
 40
12.5
100
AcDbArc
 50
270.0
 51
90.0
  0
LINE
  5
3A3
100
AcDbEntity
  8
JISSEN
100
AcDbLine
 10
1595.106495
 20
2047.499987
 30
0.0
 11
1695.106495
 21
2047.499987
 31
0.0
  0
LINE
  5
3A4
100
AcDbEntity
  8
JISSEN
100
AcDbLine
 10
1695.106495
 20
2022.499987
 30
0.0
 11
1595.106495
 21
2022.499987
 31
0.0
  0
LINE
  5
3A5
100
AcDbEntity
  8
ITTEN
100
AcDbLine
 10
1495.106495
 20
2034.999987
 30
0.0
 11
1765.562005
 21
2034.999987
 31
0.0
  0
LINE
  5
3A6
100
AcDbEntity
  8
ITTEN
100
AcDbLine
 10
1495.106495
 20
1734.999987
 30
0.0
 11
1795.106495
 21
1734.999987
 31
0.0
  0
LINE
  5
3A7
100
AcDbEntity
  8
JISSEN
100
AcDbLine
 10
1695.106495
 20
1722.499987
 30
0.0
 11
1595.106495
 21
1722.499987
 31
0.0
  0
LINE
  5
3A8
100
AcDbEntity
  8
JISSEN
100
AcDbLine
 10
1595.106495
 20
1747.499987
 30
0.0
 11
1695.106495
 21
1747.499987
 31
0.0
  0
ARC
  5
3A9
100
AcDbEntity
  8
JISSEN
100
AcDbCircle
 10
1695.106495
 20
1734.999987
 30
0.0
 40
12.5
100
AcDbArc
 50
270.0
 51
90.0
  0
TEXT
  5
3AA
100
AcDbEntity
  8
SUNPOU
100
AcDbText
 10
1375.106495
 20
1603.428558
 30
0.0
 40
45.0
  1
15
 50
90.0
  7
K
 72
     1
 11
1375.106495
 21
1649.499987
 31
0.0
100
AcDbText
  0
LINE
  5
3AB
100
AcDbEntity
  8
SUNPOU
100
AcDbLine
 10
1420.106495
 20
1584.999987
 30
0.0
 11
1420.106496
 21
1524.999987
 31
0.0
  0
LINE
  5
3AC
100
AcDbEntity
  8
SUNPOU
100
AcDbLine
 10
1420.106495
 20
1599.999987
 30
0.0
 11
1420.106495
 21
1698.999987
 31
0.0
  0
INSERT
  5
3AD
100
AcDbEntity
  8
SUNPOU
100
AcDbBlockReference
  2
ARROWANG
 10
1420.106495
 20
1599.999987
 30
0.0
 41
30.0
 42
30.0
 43
30.0
 50
270.0
  0
INSERT
  5
3AE
100
AcDbEntity
  8
SUNPOU
100
AcDbBlockReference
  2
ARROWANG
 10
1420.106495
 20
1584.999987
 30
0.0
 41
30.0
 42
30.0
 43
30.0
 50
90.0
  0
LINE
  5
3AF
100
AcDbEntity
  8
SUNPOU
100
AcDbLine
 10
1450.106495
 20
1599.999987
 30
0.0
 11
1450.106495
 21
1599.999987
 31
0.0
  0
LINE
  5
3B0
100
AcDbEntity
  8
SUNPOU
100
AcDbLine
 10
1540.106495
 20
1584.999987
 30
0.0
 11
1390.106495
 21
1584.999987
 31
0.0
  0
TEXT
  5
3B1
100
AcDbEntity
  8
SUNPOU
100
AcDbText
 10
1375.106495
 20
2384.642844
 30
0.0
 40
45.0
  1
23
 50
90.0
  7
K
 72
     1
 11
1375.106495
 21
2427.499987
 31
0.0
100
AcDbText
  0
LINE
  5
3B2
100
AcDbEntity
  8
SUNPOU
100
AcDbLine
 10
1420.106495
 20
2499.999987
 30
0.0
 11
1420.106495
 21
2559.999987
 31
0.0
  0
LINE
  5
3B3
100
AcDbEntity
  8
SUNPOU
100
AcDbLine
 10
1420.106495
 20
2476.999987
 30
0.0
 11
1420.106495
 21
2377.999987
 31
0.0
  0
INSERT
  5
3B4
100
AcDbEntity
  8
SUNPOU
100
AcDbBlockReference
  2
ARROWANG
 10
1420.106495
 20
2499.999987
 30
0.0
 41
30.0
 42
30.0
 43
30.0
 50
270.0
  0
INSERT
  5
3B5
100
AcDbEntity
  8
SUNPOU
100
AcDbBlockReference
  2
ARROWANG
 10
1420.106495
 20
2476.999987
 30
0.0
 41
30.0
 42
30.0
 43
30.0
 50
90.0
  0
LINE
  5
3B6
100
AcDbEntity
  8
SUNPOU
100
AcDbLine
 10
1450.106495
 20
2499.999987
 30
0.0
 11
1450.106495
 21
2499.999987
 31
0.0
  0
LINE
  5
3B7
100
AcDbEntity
  8
SUNPOU
100
AcDbLine
 10
1537.106495
 20
2476.999987
 30
0.0
 11
1390.106495
 21
2476.999987
 31
0.0
  0
TEXT
  5
3B8
100
AcDbEntity
  8
SUNPOU
100
AcDbText
 10
1225.106495
 20
1985.714273
 30
0.0
 40
45.0
  1
900
 50
90.0
  7
K
 72
     1
 11
1225.106495
 21
2049.999987
 31
0.0
100
AcDbText
  0
INSERT
  5
3B9
100
AcDbEntity
  8
SUNPOU
100
AcDbBlockReference
  2
ARROWANG
 10
1270.106495
 20
2499.999987
 30
0.0
 41
30.0
 42
30.0
 43
30.0
 50
90.0
  0
INSERT
  5
3BA
100
AcDbEntity
  8
SUNPOU
100
AcDbBlockReference
  2
ARROWANG
 10
1270.106495
 20
1599.999987
 30
0.0
 41
30.0
 42
30.0
 43
30.0
 50
270.0
  0
LINE
  5
3BB
100
AcDbEntity
  8
SUNPOU
100
AcDbLine
 10
1270.106495
 20
1599.999987
 30
0.0
 11
1270.106495
 21
2499.999987
 31
0.0
  0
LINE
  5
3BC
100
AcDbEntity
  8
SUNPOU
100
AcDbLine
 10
1490.106495
 20
2499.999987
 30
0.0
 11
1240.106495
 21
2499.999987
 31
0.0
  0
LINE
  5
3BD
100
AcDbEntity
  8
SUNPOU
100
AcDbLine
 10
1490.106495
 20
1599.999987
 30
0.0
 11
1240.106495
 21
1599.999987
 31
0.0
  0
TEXT
  5
3BE
100
AcDbEntity
  8
SUNPOU
100
AcDbText
 10
2129.749366
 20
2694.999987
 30
0.0
 40
45.0
  1
600
  7
K
 72
     1
 11
2195.106509
 21
2694.999987
 31
0.0
100
AcDbText
  0
INSERT
  5
3BF
100
AcDbEntity
  8
SUNPOU
100
AcDbBlockReference
  2
ARROWANG
 10
2495.106495
 20
2649.999987
 30
0.0
 41
30.0
 42
30.0
 43
30.0
  0
INSERT
  5
3C0
100
AcDbEntity
  8
SUNPOU
100
AcDbBlockReference
  2
ARROWANG
 10
1895.106495
 20
2649.999987
 30
0.0
 41
30.0
 42
30.0
 43
30.0
 50
180.0
  0
LINE
  5
3C1
100
AcDbEntity
  8
SUNPOU
100
AcDbLine
 10
1895.106495
 20
2649.999987
 30
0.0
 11
2495.106495
 21
2649.999987
 31
0.0
  0
LINE
  5
3C2
100
AcDbEntity
  8
SUNPOU
100
AcDbLine
 10
2495.106495
 20
2619.999987
 30
0.0
 11
2495.106495
 21
2619.999987
 31
0.0
  0
LINE
  5
3C3
100
AcDbEntity
  8
SUNPOU
100
AcDbLine
 10
1895.106495
 20
2619.999987
 30
0.0
 11
1895.106495
 21
2619.999987
 31
0.0
  0
TEXT
  5
3C4
100
AcDbEntity
  8
SUNPOU
100
AcDbText
 10
1680.82078
 20
2694.999987
 30
0.0
 40
45.0
  1
300
  7
K
 72
     1
 11
1745.106495
 21
2694.999987
 31
0.0
100
AcDbText
  0
INSERT
  5
3C5
100
AcDbEntity
  8
SUNPOU
100
AcDbBlockReference
  2
ARROWANG
 10
1595.106495
 20
2649.999987
 30
0.0
 41
30.0
 42
30.0
 43
30.0
 50
180.0
  0
INSERT
  5
3C6
100
AcDbEntity
  8
SUNPOU
100
AcDbBlockReference
  2
ARROWANG
 10
1895.106495
 20
2649.999987
 30
0.0
 41
30.0
 42
30.0
 43
30.0
  0
LINE
  5
3C7
100
AcDbEntity
  8
SUNPOU
100
AcDbLine
 10
1595.106495
 20
2649.999987
 30
0.0
 11
1895.106495
 21
2649.999987
 31
0.0
  0
LINE
  5
3C8
100
AcDbEntity
  8
SUNPOU
100
AcDbLine
 10
1895.106495
 20
2529.999987
 30
0.0
 11
1895.106495
 21
2679.999987
 31
0.0
  0
LINE
  5
3C9
100
AcDbEntity
  8
SUNPOU
100
AcDbLine
 10
1595.106495
 20
2679.999987
 30
0.0
 11
1595.106495
 21
2679.999987
 31
0.0
  0
TEXT
  5
3CA
100
AcDbEntity
  8
SUNPOU
100
AcDbText
 10
1980.820795
 20
2844.999987
 30
0.0
 40
45.0
  1
900
  7
K
 72
     1
 11
2045.106509
 21
2844.999987
 31
0.0
100
AcDbText
  0
INSERT
  5
3CB
100
AcDbEntity
  8
SUNPOU
100
AcDbBlockReference
  2
ARROWANG
 10
2495.106495
 20
2799.999987
 30
0.0
 41
30.0
 42
30.0
 43
30.0
  0
INSERT
  5
3CC
100
AcDbEntity
  8
SUNPOU
100
AcDbBlockReference
  2
ARROWANG
 10
1595.106495
 20
2799.999987
 30
0.0
 41
30.0
 42
30.0
 43
30.0
 50
180.0
  0
LINE
  5
3CD
100
AcDbEntity
  8
SUNPOU
100
AcDbLine
 10
1595.106495
 20
2799.999987
 30
0.0
 11
2495.106495
 21
2799.999987
 31
0.0
  0
LINE
  5
3CE
100
AcDbEntity
  8
SUNPOU
100
AcDbLine
 10
2495.106495
 20
2769.999987
 30
0.0
 11
2495.106495
 21
2769.999987
 31
0.0
  0
LINE
  5
3CF
100
AcDbEntity
  8
SUNPOU
100
AcDbLine
 10
1595.106495
 20
2769.999987
 30
0.0
 11
1595.106495
 21
2769.999987
 31
0.0
  0
LINE
  5
3D0
100
AcDbEntity
  8
SUNPOU
100
AcDbLine
 10
2495.106495
 20
2799.999987
 30
0.0
 11
2435.106495
 21
2799.999987
 31
0.0
  0
LINE
  5
3D1
100
AcDbEntity
  8
SUNPOU
100
AcDbLine
 10
2570.106495
 20
2799.999987
 30
0.0
 11
2630.106495
 21
2799.999987
 31
0.0
  0
TEXT
  5
3D2
100
AcDbEntity
  8
SUNPOU
100
AcDbText
 10
2489.749352
 20
2844.999987
 30
0.0
 40
45.0
  1
75
  7
K
 72
     1
 11
2532.606495
 21
2844.999987
 31
0.0
100
AcDbText
  0
INSERT
  5
3D3
100
AcDbEntity
  8
SUNPOU
100
AcDbBlockReference
  2
ARROWANG
 10
2495.106495
 20
2799.999987
 30
0.0
 41
30.0
 42
30.0
 43
30.0
  0
INSERT
  5
3D4
100
AcDbEntity
  8
SUNPOU
100
AcDbBlockReference
  2
ARROWANG
 10
2570.106495
 20
2799.999987
 30
0.0
 41
30.0
 42
30.0
 43
30.0
 50
180.0
  0
LINE
  5
3D5
100
AcDbEntity
  8
SUNPOU
100
AcDbLine
 10
2495.106495
 20
2799.999987
 30
0.0
 11
2570.106495
 21
2799.999987
 31
0.0
  0
LINE
  5
3D6
100
AcDbEntity
  8
SUNPOU
100
AcDbLine
 10
2570.106495
 20
2829.999987
 30
0.0
 11
2570.106495
 21
2829.999987
 31
0.0
  0
LINE
  5
3D7
100
AcDbEntity
  8
SUNPOU
100
AcDbLine
 10
2495.106495
 20
2506.999987
 30
0.0
 11
2495.106495
 21
2829.999987
 31
0.0
  0
LINE
  5
3D8
100
AcDbEntity
  8
SUNPOU
100
AcDbLine
 10
1520.106495
 20
2799.999987
 30
0.0
 11
1460.106495
 21
2799.999987
 31
0.0
  0
LINE
  5
3D9
100
AcDbEntity
  8
SUNPOU
100
AcDbLine
 10
1595.106495
 20
2799.999987
 30
0.0
 11
1655.106495
 21
2799.999987
 31
0.0
  0
TEXT
  5
3DA
100
AcDbEntity
  8
SUNPOU
100
AcDbText
 10
1514.749366
 20
2844.999987
 30
0.0
 40
45.0
  1
75
  7
K
 72
     1
 11
1557.606509
 21
2844.999987
 31
0.0
100
AcDbText
  0
INSERT
  5
3DB
100
AcDbEntity
  8
SUNPOU
100
AcDbBlockReference
  2
ARROWANG
 10
1520.106495
 20
2799.999987
 30
0.0
 41
30.0
 42
30.0
 43
30.0
  0
INSERT
  5
3DC
100
AcDbEntity
  8
SUNPOU
100
AcDbBlockReference
  2
ARROWANG
 10
1595.106495
 20
2799.999987
 30
0.0
 41
30.0
 42
30.0
 43
30.0
 50
180.0
  0
LINE
  5
3DD
100
AcDbEntity
  8
SUNPOU
100
AcDbLine
 10
1520.106495
 20
2799.999987
 30
0.0
 11
1595.106495
 21
2799.999987
 31
0.0
  0
LINE
  5
3DE
100
AcDbEntity
  8
SUNPOU
100
AcDbLine
 10
1595.106495
 20
2506.999987
 30
0.0
 11
1595.106495
 21
2829.999987
 31
0.0
  0
LINE
  5
3DF
100
AcDbEntity
  8
SUNPOU
100
AcDbLine
 10
1520.106495
 20
2829.999987
 30
0.0
 11
1520.106495
 21
2829.999987
 31
0.0
  0
TEXT
  5
3E0
100
AcDbEntity
  8
SUNPOU
100
AcDbText
 10
1956.177923
 20
2994.999987
 30
0.0
 40
45.0
  1
1050
  7
K
 72
     1
 11
2045.106495
 21
2994.999987
 31
0.0
100
AcDbText
  0
INSERT
  5
3E1
100
AcDbEntity
  8
SUNPOU
100
AcDbBlockReference
  2
ARROWANG
 10
1520.106495
 20
2949.999987
 30
0.0
 41
30.0
 42
30.0
 43
30.0
 50
180.0
  0
INSERT
  5
3E2
100
AcDbEntity
  8
SUNPOU
100
AcDbBlockReference
  2
ARROWANG
 10
2570.106495
 20
2949.999987
 30
0.0
 41
30.0
 42
30.0
 43
30.0
  0
LINE
  5
3E3
100
AcDbEntity
  8
SUNPOU
100
AcDbLine
 10
1520.106495
 20
2949.999987
 30
0.0
 11
2570.106495
 21
2949.999987
 31
0.0
  0
LINE
  5
3E4
100
AcDbEntity
  8
SUNPOU
100
AcDbLine
 10
2570.106495
 20
2529.999987
 30
0.0
 11
2570.106495
 21
2979.999987
 31
0.0
  0
LINE
  5
3E5
100
AcDbEntity
  8
SUNPOU
100
AcDbLine
 10
1520.106495
 20
2529.999987
 30
0.0
 11
1520.106495
 21
2979.999987
 31
0.0
  0
LINE
  5
3E6
100
AcDbEntity
  8
ITTEN
100
AcDbLine
 10
1895.106495
 20
2599.999987
 30
0.0
 11
1895.106495
 21
1499.999987
 31
0.0
  0
LINE
  5
3E7
100
AcDbEntity
  8
JISSEN
100
AcDbLine
 10
1895.106495
 20
1599.999987
 30
0.0
 11
2529.106495
 21
1599.999987
 31
0.0
  0
LINE
  5
3E8
100
AcDbEntity
  8
TENSEN
100
AcDbLine
 10
1561.106495
 20
1599.999987
 30
0.0
 11
1895.106495
 21
1599.999987
 31
0.0
  0
LINE
  5
3E9
100
AcDbEntity
  8
JISSEN
100
AcDbLine
 10
1595.106495
 20
1584.999987
 30
0.0
 11
2495.106495
 21
1584.999987
 31
0.0
  0
LINE
  5
3EA
100
AcDbEntity
  8
TENSEN
100
AcDbLine
 10
1895.106495
 20
2476.999987
 30
0.0
 11
2495.106495
 21
2476.999987
 31
0.0
  0
LINE
  5
3EB
100
AcDbEntity
  8
JISSEN
100
AcDbLine
 10
1595.106495
 20
2476.999987
 30
0.0
 11
1895.106495
 21
2476.999987
 31
0.0
  0
LINE
  5
3EC
100
AcDbEntity
  8
JISSEN
100
AcDbLine
 10
1561.106495
 20
2499.999987
 30
0.0
 11
2530.106495
 21
2499.999987
 31
0.0
  0
LINE
  5
3ED
100
AcDbEntity
  8
JISSEN
100
AcDbLine
 10
2570.106495
 20
2499.999987
 30
0.0
 11
2530.106495
 21
2499.999987
 31
0.0
  0
LINE
  5
3EE
100
AcDbEntity
  8
TENSEN
100
AcDbLine
 10
2530.106495
 20
2499.999987
 30
0.0
 11
2523.106495
 21
2476.999987
 31
0.0
  0
LINE
  5
3EF
100
AcDbEntity
  8
TENSEN
100
AcDbLine
 10
2523.106495
 20
2476.999987
 30
0.0
 11
2495.106495
 21
2476.999987
 31
0.0
  0
LINE
  5
3F0
100
AcDbEntity
  8
JISSEN
100
AcDbLine
 10
2570.106495
 20
2499.999987
 30
0.0
 11
2570.106495
 21
1599.999987
 31
0.0
  0
LINE
  5
3F1
100
AcDbEntity
  8
JISSEN
100
AcDbLine
 10
2570.106495
 20
1599.999987
 30
0.0
 11
2529.106495
 21
1599.999987
 31
0.0
  0
LINE
  5
3F2
100
AcDbEntity
  8
JISSEN
100
AcDbLine
 10
2529.106495
 20
1599.999987
 30
0.0
 11
2520.106495
 21
1584.999987
 31
0.0
  0
LINE
  5
3F3
100
AcDbEntity
  8
JISSEN
100
AcDbLine
 10
2520.106495
 20
1584.999987
 30
0.0
 11
2495.106495
 21
1584.999987
 31
0.0
  0
LINE
  5
3F4
100
AcDbEntity
  8
TENSEN
100
AcDbLine
 10
2495.106495
 20
2476.999987
 30
0.0
 11
2495.106495
 21
1584.999987
 31
0.0
  0
LINE
  5
3F5
100
AcDbEntity
  8
JISSEN
100
AcDbLine
 10
1595.106495
 20
2476.999987
 30
0.0
 11
1595.106495
 21
1584.999987
 31
0.0
  0
LINE
  5
3F6
100
AcDbEntity
  8
JISSEN
100
AcDbLine
 10
1570.106495
 20
1584.999987
 30
0.0
 11
1595.106495
 21
1584.999987
 31
0.0
  0
LINE
  5
3F7
100
AcDbEntity
  8
JISSEN
100
AcDbLine
 10
1561.106495
 20
1599.999987
 30
0.0
 11
1570.106495
 21
1584.999987
 31
0.0
  0
LINE
  5
3F8
100
AcDbEntity
  8
JISSEN
100
AcDbLine
 10
1520.106495
 20
1599.999987
 30
0.0
 11
1561.106495
 21
1599.999987
 31
0.0
  0
LINE
  5
3F9
100
AcDbEntity
  8
JISSEN
100
AcDbLine
 10
1520.106495
 20
2499.999987
 30
0.0
 11
1520.106495
 21
1599.999987
 31
0.0
  0
LINE
  5
3FA
100
AcDbEntity
  8
JISSEN
100
AcDbLine
 10
1567.106495
 20
2476.999987
 30
0.0
 11
1595.106495
 21
2476.999987
 31
0.0
  0
LINE
  5
3FB
100
AcDbEntity
  8
JISSEN
100
AcDbLine
 10
1560.106495
 20
2499.999987
 30
0.0
 11
1567.106495
 21
2476.999987
 31
0.0
  0
LINE
  5
3FC
100
AcDbEntity
  8
JISSEN
100
AcDbLine
 10
1520.106495
 20
2499.999987
 30
0.0
 11
1560.106495
 21
2499.999987
 31
0.0
  0
ENDBLK
  5
3FE
100
AcDbEntity
  8
JISSEN
100
AcDbBlockEnd
  0
BLOCK
  5
916
100
AcDbEntity
  8
TEXT
100
AcDbBlockBegin
  2
A$CD230
 70
     0
 10
0.0
 20
0.0
 30
0.0
  3
A$CD230
  1

  0
POLYLINE
  5
78A
100
AcDbEntity
  8
SAISEN
100
AcDb2dPolyline
 66
     1
 10
0.0
 20
0.0
 30
0.0
1001
ACAD
1000
ASC_BOUNDS
1002
{
1070
    19
1002
}
  0
VERTEX
  5
78B
100
AcDbEntity
  8
SAISEN
100
AcDbVertex
100
AcDb2dVertex
 10
64.610735
 20
2.892536
 30
0.0
  0
VERTEX
  5
78C
100
AcDbEntity
  8
SAISEN
100
AcDbVertex
100
AcDb2dVertex
 10
64.610735
 20
1.562864
 30
0.0
  0
VERTEX
  5
78D
100
AcDbEntity
  8
SAISEN
100
AcDbVertex
100
AcDb2dVertex
 10
64.610735
 20
1.562864
 30
0.0
  0
VERTEX
  5
78E
100
AcDbEntity
  8
SAISEN
100
AcDbVertex
100
AcDb2dVertex
 10
64.210735
 20
1.562864
 30
0.0
  0
VERTEX
  5
78F
100
AcDbEntity
  8
SAISEN
100
AcDbVertex
100
AcDb2dVertex
 10
64.210735
 20
1.562864
 30
0.0
  0
VERTEX
  5
790
100
AcDbEntity
  8
SAISEN
100
AcDbVertex
100
AcDb2dVertex
 10
64.210735
 20
2.857928
 30
0.0
  0
SEQEND
  5
791
100
AcDbEntity
  8
SAISEN
  0
ARC
  5
792
100
AcDbEntity
  8
SAISEN
100
AcDbCircle
 10
61.678899
 20
5.093675
 30
0.0
 40
3.354877
100
AcDbArc
 50
331.708042
 51
352.622097
1001
ACAD
1000
ASC_BOUNDS
1002
{
1070
    19
1002
}
  0
POLYLINE
  5
793
100
AcDbEntity
  8
SAISEN
100
AcDb2dPolyline
 66
     1
 10
0.0
 20
0.0
 30
0.0
1001
ACAD
1000
ASC_BOUNDS
1002
{
1070
    19
1002
}
  0
VERTEX
  5
794
100
AcDbEntity
  8
SAISEN
100
AcDbVertex
100
AcDb2dVertex
 10
63.760735
 20
4.662864
 30
0.0
  0
VERTEX
  5
795
100
AcDbEntity
  8
SAISEN
100
AcDbVertex
100
AcDb2dVertex
 10
64.210735
 20
4.662864
 30
0.0
  0
VERTEX
  5
796
100
AcDbEntity
  8
SAISEN
100
AcDbVertex
100
AcDb2dVertex
 10
64.210735
 20
4.662864
 30
0.0
  0
VERTEX
  5
797
100
AcDbEntity
  8
SAISEN
100
AcDbVertex
100
AcDb2dVertex
 10
64.210735
 20
5.062864
 30
0.0
  0
VERTEX
  5
798
100
AcDbEntity
  8
SAISEN
100
AcDbVertex
100
AcDb2dVertex
 10
64.210735
 20
5.062864
 30
0.0
  0
VERTEX
  5
799
100
AcDbEntity
  8
SAISEN
100
AcDbVertex
100
AcDb2dVertex
 10
64.610735
 20
5.062864
 30
0.0
  0
VERTEX
  5
79A
100
AcDbEntity
  8
SAISEN
100
AcDbVertex
100
AcDb2dVertex
 10
64.610735
 20
5.062864
 30
0.0
  0
VERTEX
  5
79B
100
AcDbEntity
  8
SAISEN
100
AcDbVertex
100
AcDb2dVertex
 10
64.610735
 20
4.662864
 30
0.0
  0
VERTEX
  5
79C
100
AcDbEntity
  8
SAISEN
100
AcDbVertex
100
AcDb2dVertex
 10
64.610735
 20
4.662864
 30
0.0
  0
VERTEX
  5
79D
100
AcDbEntity
  8
SAISEN
100
AcDbVertex
100
AcDb2dVertex
 10
65.006001
 20
4.662864
 30
0.0
  0
SEQEND
  5
79E
100
AcDbEntity
  8
SAISEN
  0
ARC
  5
79F
100
AcDbEntity
  8
SAISEN
100
AcDbCircle
 10
67.14257
 20
5.093675
 30
0.0
 40
3.354877
100
AcDbArc
 50
221.003188
 51
231.644421
1001
ACAD
1000
ASC_BOUNDS
1002
{
1070
    19
1002
}
  0
ARC
  5
7A0
100
AcDbEntity
  8
SAISEN
100
AcDbCircle
 10
66.911067
 20
4.881633
 30
0.0
 40
2.662432
100
AcDbArc
 50
211.170813
 51
225.974507
1001
ACAD
1000
ASC_BOUNDS
1002
{
1070
    19
1002
}
  0
LINE
  5
7A1
100
AcDbEntity
  8
SAISEN
100
AcDbLine
 10
65.060735
 20
2.967262
 30
0.0
 11
65.060735
 21
2.462864
 31
0.0
1001
ACAD
1000
ASC_BOUNDS
1002
{
1070
    19
1002
}
  0
ARC
  5
7A2
100
AcDbEntity
  8
SAISEN
100
AcDbCircle
 10
61.762878
 20
5.192356
 30
0.0
 40
3.382537
100
AcDbArc
 50
306.202341
 51
316.358725
1001
ACAD
1000
ASC_BOUNDS
1002
{
1070
    19
1002
}
  0
LINE
  5
7A3
100
AcDbEntity
  8
SAISEN
100
AcDbLine
 10
47.706001
 20
2.462864
 30
0.0
 11
47.706001
 21
2.062864
 31
0.0
1001
ACAD
1000
ASC_BOUNDS
1002
{
1070
    19
1002
}
  0
LINE
  5
7A4
100
AcDbEntity
  8
SAISEN
100
AcDbLine
 10
47.706001
 20
2.962864
 30
0.0
 11
47.706001
 21
3.362864
 31
0.0
1001
ACAD
1000
ASC_BOUNDS
1002
{
1070
    19
1002
}
  0
POLYLINE
  5
7A5
100
AcDbEntity
  8
SAISEN
100
AcDb2dPolyline
 66
     1
 10
0.0
 20
0.0
 30
0.0
1001
ACAD
1000
ASC_BOUNDS
1002
{
1070
    19
1002
}
  0
VERTEX
  5
7A6
100
AcDbEntity
  8
SAISEN
100
AcDbVertex
100
AcDb2dVertex
 10
65.331001
 20
4.662864
 30
0.0
  0
VERTEX
  5
7A7
100
AcDbEntity
  8
SAISEN
100
AcDbVertex
100
AcDb2dVertex
 10
65.331001
 20
4.262864
 30
0.0
  0
VERTEX
  5
7A8
100
AcDbEntity
  8
SAISEN
100
AcDbVertex
100
AcDb2dVertex
 10
66.031001
 20
4.262864
 30
0.0
  0
VERTEX
  5
7A9
100
AcDbEntity
  8
SAISEN
100
AcDbVertex
100
AcDb2dVertex
 10
66.031001
 20
1.962864
 30
0.0
  0
VERTEX
  5
7AA
100
AcDbEntity
  8
SAISEN
100
AcDbVertex
100
AcDb2dVertex
 10
65.135735
 20
1.962864
 30
0.0
  0
VERTEX
  5
7AB
100
AcDbEntity
  8
SAISEN
100
AcDbVertex
100
AcDb2dVertex
 10
65.135735
 20
1.562864
 30
0.0
  0
VERTEX
  5
7AC
100
AcDbEntity
  8
SAISEN
100
AcDbVertex
100
AcDb2dVertex
 10
67.260735
 20
1.562864
 30
0.0
  0
VERTEX
  5
7AD
100
AcDbEntity
  8
SAISEN
100
AcDbVertex
100
AcDb2dVertex
 10
67.260735
 20
1.962864
 30
0.0
  0
VERTEX
  5
7AE
100
AcDbEntity
  8
SAISEN
100
AcDbVertex
100
AcDb2dVertex
 10
66.431001
 20
1.962864
 30
0.0
  0
VERTEX
  5
7AF
100
AcDbEntity
  8
SAISEN
100
AcDbVertex
100
AcDb2dVertex
 10
66.431001
 20
4.262864
 30
0.0
  0
VERTEX
  5
7B0
100
AcDbEntity
  8
SAISEN
100
AcDbVertex
100
AcDb2dVertex
 10
67.260735
 20
4.262864
 30
0.0
  0
VERTEX
  5
7B1
100
AcDbEntity
  8
SAISEN
100
AcDbVertex
100
AcDb2dVertex
 10
67.260735
 20
4.662864
 30
0.0
  0
VERTEX
  5
7B2
100
AcDbEntity
  8
SAISEN
100
AcDbVertex
100
AcDb2dVertex
 10
66.431001
 20
4.662864
 30
0.0
  0
VERTEX
  5
7B3
100
AcDbEntity
  8
SAISEN
100
AcDbVertex
100
AcDb2dVertex
 10
66.431001
 20
5.062864
 30
0.0
  0
VERTEX
  5
7B4
100
AcDbEntity
  8
SAISEN
100
AcDbVertex
100
AcDb2dVertex
 10
66.031001
 20
5.062864
 30
0.0
  0
VERTEX
  5
7B5
100
AcDbEntity
  8
SAISEN
100
AcDbVertex
100
AcDb2dVertex
 10
66.031001
 20
4.662864
 30
0.0
  0
VERTEX
  5
7B6
100
AcDbEntity
  8
SAISEN
100
AcDbVertex
100
AcDb2dVertex
 10
65.331001
 20
4.662864
 30
0.0
  0
SEQEND
  5
7B7
100
AcDbEntity
  8
SAISEN
  0
LINE
  5
7B8
100
AcDbEntity
  8
SAISEN
100
AcDbLine
 10
63.760735
 20
2.967262
 30
0.0
 11
63.760735
 21
2.462864
 31
0.0
1001
ACAD
1000
ASC_BOUNDS
1002
{
1070
    19
1002
}
  0
ARC
  5
7B9
100
AcDbEntity
  8
SAISEN
100
AcDbCircle
 10
61.905089
 20
4.896831
 30
0.0
 40
2.677061
100
AcDbArc
 50
313.881195
 51
346.301397
1001
ACAD
1000
ASC_BOUNDS
1002
{
1070
    19
1002
}
  0
POLYLINE
  5
7BA
100
AcDbEntity
  8
SAISEN
100
AcDb2dPolyline
 66
     1
 10
0.0
 20
0.0
 30
0.0
1001
ACAD
1000
ASC_BOUNDS
1002
{
1070
    19
1002
}
  0
VERTEX
  5
7BB
100
AcDbEntity
  8
SAISEN
100
AcDbVertex
100
AcDb2dVertex
 10
64.506001
 20
4.262864
 30
0.0
  0
VERTEX
  5
7BC
100
AcDbEntity
  8
SAISEN
100
AcDbVertex
100
AcDb2dVertex
 10
64.506001
 20
4.262864
 30
0.0
  0
VERTEX
  5
7BD
100
AcDbEntity
  8
SAISEN
100
AcDbVertex
100
AcDb2dVertex
 10
63.760735
 20
4.262864
 30
0.0
  0
VERTEX
  5
7BE
100
AcDbEntity
  8
SAISEN
100
AcDbVertex
100
AcDb2dVertex
 10
63.760735
 20
4.262864
 30
0.0
  0
VERTEX
  5
7BF
100
AcDbEntity
  8
SAISEN
100
AcDbVertex
100
AcDb2dVertex
 10
63.760735
 20
4.662864
 30
0.0
  0
SEQEND
  5
7C0
100
AcDbEntity
  8
SAISEN
  0
LINE
  5
7C1
100
AcDbEntity
  8
SAISEN
100
AcDbLine
 10
62.50438
 20
2.362864
 30
0.0
 11
62.991749
 21
2.362864
 31
0.0
1001
ACAD
1000
ASC_BOUNDS
1002
{
1070
    19
1002
}
  0
ARC
  5
7C2
100
AcDbEntity
  8
SAISEN
100
AcDbCircle
 10
62.956521
 20
1.862864
 30
0.0
 40
0.3
100
AcDbArc
 50
270.0
 51
32.733492
1001
ACAD
1000
ASC_BOUNDS
1002
{
1070
    19
1002
}
  0
ARC
  5
7C3
100
AcDbEntity
  8
SAISEN
100
AcDbCircle
 10
60.55548
 20
1.862864
 30
0.0
 40
0.3
100
AcDbArc
 50
147.266508
 51
270.0
1001
ACAD
1000
ASC_BOUNDS
1002
{
1070
    19
1002
}
  0
LINE
  5
7C4
100
AcDbEntity
  8
SAISEN
100
AcDbLine
 10
61.331468
 20
2.86666
 30
0.0
 11
60.750495
 21
1.962864
 31
0.0
1001
ACAD
1000
ASC_BOUNDS
1002
{
1070
    19
1002
}
  0
LINE
  5
7C5
100
AcDbEntity
  8
SAISEN
100
AcDbLine
 10
60.844099
 20
2.86666
 30
0.0
 11
60.303122
 21
2.025084
 31
0.0
1001
ACAD
1000
ASC_BOUNDS
1002
{
1070
    19
1002
}
  0
LINE
  5
7C6
100
AcDbEntity
  8
SAISEN
100
AcDbLine
 10
60.55548
 20
1.562864
 30
0.0
 11
62.956521
 21
1.562864
 31
0.0
1001
ACAD
1000
ASC_BOUNDS
1002
{
1070
    19
1002
}
  0
LINE
  5
7C7
100
AcDbEntity
  8
SAISEN
100
AcDbLine
 10
60.750495
 20
1.962864
 30
0.0
 11
62.761506
 21
1.962864
 31
0.0
1001
ACAD
1000
ASC_BOUNDS
1002
{
1070
    19
1002
}
  0
POLYLINE
  5
7C8
100
AcDbEntity
  8
SAISEN
100
AcDb2dPolyline
 66
     1
 10
0.0
 20
0.0
 30
0.0
1001
ACAD
1000
ASC_BOUNDS
1002
{
1070
    19
1002
}
  0
VERTEX
  5
7C9
100
AcDbEntity
  8
SAISEN
100
AcDbVertex
100
AcDb2dVertex
 10
60.844099
 20
2.86666
 30
0.0
  0
VERTEX
  5
7CA
100
AcDbEntity
  8
SAISEN
100
AcDbVertex
100
AcDb2dVertex
 10
60.006001
 20
2.86666
 30
0.0
  0
VERTEX
  5
7CB
100
AcDbEntity
  8
SAISEN
100
AcDbVertex
100
AcDb2dVertex
 10
60.006001
 20
3.26666
 30
0.0
  0
SEQEND
  5
7CC
100
AcDbEntity
  8
SAISEN
  0
POLYLINE
  5
7CD
100
AcDbEntity
  8
SAISEN
100
AcDb2dPolyline
 66
     1
 10
0.0
 20
0.0
 30
0.0
1001
ACAD
1000
ASC_BOUNDS
1002
{
1070
    19
1002
}
  0
VERTEX
  5
7CE
100
AcDbEntity
  8
SAISEN
100
AcDbVertex
100
AcDb2dVertex
 10
60.006001
 20
3.26666
 30
0.0
  0
VERTEX
  5
7CF
100
AcDbEntity
  8
SAISEN
100
AcDbVertex
100
AcDb2dVertex
 10
63.506001
 20
3.26666
 30
0.0
  0
VERTEX
  5
7D0
100
AcDbEntity
  8
SAISEN
100
AcDbVertex
100
AcDb2dVertex
 10
63.506001
 20
2.86666
 30
0.0
  0
VERTEX
  5
7D1
100
AcDbEntity
  8
SAISEN
100
AcDbVertex
100
AcDb2dVertex
 10
61.331468
 20
2.86666
 30
0.0
  0
SEQEND
  5
7D2
100
AcDbEntity
  8
SAISEN
  0
LINE
  5
7D3
100
AcDbEntity
  8
SAISEN
100
AcDbLine
 10
62.761506
 20
1.962864
 30
0.0
 11
62.50438
 21
2.362864
 31
0.0
1001
ACAD
1000
ASC_BOUNDS
1002
{
1070
    19
1002
}
  0
LINE
  5
7D4
100
AcDbEntity
  8
SAISEN
100
AcDbLine
 10
63.208879
 20
2.025084
 30
0.0
 11
62.991749
 21
2.362864
 31
0.0
1001
ACAD
1000
ASC_BOUNDS
1002
{
1070
    19
1002
}
  0
LINE
  5
7D5
100
AcDbEntity
  8
SAISEN
100
AcDbLine
 10
63.506001
 20
3.996361
 30
0.0
 11
63.506001
 21
4.361477
 31
0.0
1001
ACAD
1000
ASC_BOUNDS
1002
{
1070
    19
1002
}
  0
LINE
  5
7D6
100
AcDbEntity
  8
SAISEN
100
AcDbLine
 10
60.006001
 20
4.361477
 30
0.0
 11
60.006001
 21
3.996361
 31
0.0
1001
ACAD
1000
ASC_BOUNDS
1002
{
1070
    19
1002
}
  0
LINE
  5
7D7
100
AcDbEntity
  8
SAISEN
100
AcDbLine
 10
61.551035
 20
5.062864
 30
0.0
 11
61.960966
 21
5.062864
 31
0.0
1001
ACAD
1000
ASC_BOUNDS
1002
{
1070
    19
1002
}
  0
ARC
  5
7D8
100
AcDbEntity
  8
SAISEN
100
AcDbCircle
 10
63.801946
 20
6.853415
 30
0.0
 40
2.872341
100
AcDbArc
 50
224.5783
 51
264.086155
1001
ACAD
1000
ASC_BOUNDS
1002
{
1070
    19
1002
}
  0
ARC
  5
7D9
100
AcDbEntity
  8
SAISEN
100
AcDbCircle
 10
59.710055
 20
6.853415
 30
0.0
 40
2.872341
100
AcDbArc
 50
321.436848
 51
321.436848
1001
ACAD
1000
ASC_BOUNDS
1002
{
1070
    19
1002
}
  0
ARC
  5
7DA
100
AcDbEntity
  8
SAISEN
100
AcDbCircle
 10
63.867829
 20
7.210937
 30
0.0
 40
2.872341
100
AcDbArc
 50
228.404256
 51
262.763225
1001
ACAD
1000
ASC_BOUNDS
1002
{
1070
    19
1002
}
  0
ARC
  5
7DB
100
AcDbEntity
  8
SAISEN
100
AcDbCircle
 10
59.710055
 20
6.853415
 30
0.0
 40
2.872341
100
AcDbArc
 50
275.913845
 51
315.4217
1001
ACAD
1000
ASC_BOUNDS
1002
{
1070
    19
1002
}
  0
ARC
  5
7DC
100
AcDbEntity
  8
SAISEN
100
AcDbCircle
 10
59.644172
 20
7.210937
 30
0.0
 40
2.872341
100
AcDbArc
 50
277.236775
 51
311.595744
1001
ACAD
1000
ASC_BOUNDS
1002
{
1070
    19
1002
}
  0
POLYLINE
  5
7DD
100
AcDbEntity
  8
SAISEN
100
AcDb2dPolyline
 66
     1
 10
0.0
 20
0.0
 30
0.0
 70
     1
1001
ACAD
1000
ASC_BOUNDS
1002
{
1070
    19
1002
}
  0
VERTEX
  5
7DE
100
AcDbEntity
  8
SAISEN
100
AcDbVertex
100
AcDb2dVertex
 10
60.406001
 20
4.06666
 30
0.0
  0
VERTEX
  5
7DF
100
AcDbEntity
  8
SAISEN
100
AcDbVertex
100
AcDb2dVertex
 10
63.006001
 20
4.06666
 30
0.0
 42
-0.414214
  0
VERTEX
  5
7E0
100
AcDbEntity
  8
SAISEN
100
AcDbVertex
100
AcDb2dVertex
 10
63.106001
 20
3.96666
 30
0.0
  0
VERTEX
  5
7E1
100
AcDbEntity
  8
SAISEN
100
AcDbVertex
100
AcDb2dVertex
 10
63.106001
 20
3.66666
 30
0.0
  0
VERTEX
  5
7E2
100
AcDbEntity
  8
SAISEN
100
AcDbVertex
100
AcDb2dVertex
 10
60.406001
 20
3.66666
 30
0.0
  0
SEQEND
  5
7E3
100
AcDbEntity
  8
SAISEN
  0
POLYLINE
  5
7E4
100
AcDbEntity
  8
SAISEN
100
AcDb2dPolyline
 66
     1
 10
0.0
 20
0.0
 30
0.0
1001
ACAD
1000
ASC_BOUNDS
1002
{
1070
    19
1002
}
  0
VERTEX
  5
7E5
100
AcDbEntity
  8
SAISEN
100
AcDbVertex
100
AcDb2dVertex
 10
58.956001
 20
4.262864
 30
0.0
  0
VERTEX
  5
7E6
100
AcDbEntity
  8
SAISEN
100
AcDbVertex
100
AcDb2dVertex
 10
58.956001
 20
3.66666
 30
0.0
  0
SEQEND
  5
7E7
100
AcDbEntity
  8
SAISEN
  0
POLYLINE
  5
7E8
100
AcDbEntity
  8
SAISEN
100
AcDb2dPolyline
 66
     1
 10
0.0
 20
0.0
 30
0.0
1001
ACAD
1000
ASC_BOUNDS
1002
{
1070
    19
1002
}
  0
VERTEX
  5
7E9
100
AcDbEntity
  8
SAISEN
100
AcDbVertex
100
AcDb2dVertex
 10
58.556001
 20
4.662864
 30
0.0
  0
VERTEX
  5
7EA
100
AcDbEntity
  8
SAISEN
100
AcDbVertex
100
AcDb2dVertex
 10
58.556001
 20
5.062864
 30
0.0
  0
VERTEX
  5
7EB
100
AcDbEntity
  8
SAISEN
100
AcDbVertex
100
AcDb2dVertex
 10
58.556001
 20
5.062864
 30
0.0
  0
VERTEX
  5
7EC
100
AcDbEntity
  8
SAISEN
100
AcDbVertex
100
AcDb2dVertex
 10
58.956001
 20
5.062864
 30
0.0
  0
VERTEX
  5
7ED
100
AcDbEntity
  8
SAISEN
100
AcDbVertex
100
AcDb2dVertex
 10
58.956001
 20
5.062864
 30
0.0
  0
VERTEX
  5
7EE
100
AcDbEntity
  8
SAISEN
100
AcDbVertex
100
AcDb2dVertex
 10
58.956001
 20
4.662864
 30
0.0
  0
SEQEND
  5
7EF
100
AcDbEntity
  8
SAISEN
  0
POLYLINE
  5
7F0
100
AcDbEntity
  8
SAISEN
100
AcDb2dPolyline
 66
     1
 10
0.0
 20
0.0
 30
0.0
1001
ACAD
1000
ASC_BOUNDS
1002
{
1070
    19
1002
}
  0
VERTEX
  5
7F1
100
AcDbEntity
  8
SAISEN
100
AcDbVertex
100
AcDb2dVertex
 10
58.556001
 20
4.262864
 30
0.0
  0
VERTEX
  5
7F2
100
AcDbEntity
  8
SAISEN
100
AcDbVertex
100
AcDb2dVertex
 10
56.256001
 20
4.262864
 30
0.0
  0
SEQEND
  5
7F3
100
AcDbEntity
  8
SAISEN
  0
POLYLINE
  5
7F4
100
AcDbEntity
  8
SAISEN
100
AcDb2dPolyline
 66
     1
 10
0.0
 20
0.0
 30
0.0
1001
ACAD
1000
ASC_BOUNDS
1002
{
1070
    19
1002
}
  0
VERTEX
  5
7F5
100
AcDbEntity
  8
SAISEN
100
AcDbVertex
100
AcDb2dVertex
 10
58.956001
 20
4.662864
 30
0.0
  0
VERTEX
  5
7F6
100
AcDbEntity
  8
SAISEN
100
AcDbVertex
100
AcDb2dVertex
 10
59.356001
 20
4.662864
 30
0.0
  0
VERTEX
  5
7F7
100
AcDbEntity
  8
SAISEN
100
AcDbVertex
100
AcDb2dVertex
 10
59.356001
 20
5.062864
 30
0.0
  0
VERTEX
  5
7F8
100
AcDbEntity
  8
SAISEN
100
AcDbVertex
100
AcDb2dVertex
 10
59.756001
 20
5.062864
 30
0.0
  0
VERTEX
  5
7F9
100
AcDbEntity
  8
SAISEN
100
AcDbVertex
100
AcDb2dVertex
 10
59.756001
 20
4.562864
 30
0.0
 42
-0.414214
  0
VERTEX
  5
7FA
100
AcDbEntity
  8
SAISEN
100
AcDbVertex
100
AcDb2dVertex
 10
59.456001
 20
4.262864
 30
0.0
  0
VERTEX
  5
7FB
100
AcDbEntity
  8
SAISEN
100
AcDbVertex
100
AcDb2dVertex
 10
58.956001
 20
4.262864
 30
0.0
  0
SEQEND
  5
7FC
100
AcDbEntity
  8
SAISEN
  0
POLYLINE
  5
7FD
100
AcDbEntity
  8
SAISEN
100
AcDb2dPolyline
 66
     1
 10
0.0
 20
0.0
 30
0.0
1001
ACAD
1000
ASC_BOUNDS
1002
{
1070
    19
1002
}
  0
VERTEX
  5
7FE
100
AcDbEntity
  8
SAISEN
100
AcDbVertex
100
AcDb2dVertex
 10
58.556001
 20
3.66666
 30
0.0
  0
VERTEX
  5
7FF
100
AcDbEntity
  8
SAISEN
100
AcDbVertex
100
AcDb2dVertex
 10
58.556001
 20
4.262864
 30
0.0
  0
SEQEND
  5
800
100
AcDbEntity
  8
SAISEN
  0
POLYLINE
  5
801
100
AcDbEntity
  8
SAISEN
100
AcDb2dPolyline
 66
     1
 10
0.0
 20
0.0
 30
0.0
1001
ACAD
1000
ASC_BOUNDS
1002
{
1070
    19
1002
}
  0
VERTEX
  5
802
100
AcDbEntity
  8
SAISEN
100
AcDbVertex
100
AcDb2dVertex
 10
56.256001
 20
4.662864
 30
0.0
  0
VERTEX
  5
803
100
AcDbEntity
  8
SAISEN
100
AcDbVertex
100
AcDb2dVertex
 10
58.556001
 20
4.662864
 30
0.0
  0
SEQEND
  5
804
100
AcDbEntity
  8
SAISEN
  0
LINE
  5
805
100
AcDbEntity
  8
SAISEN
100
AcDbLine
 10
56.256001
 20
4.662864
 30
0.0
 11
56.256001
 21
4.262864
 31
0.0
1001
ACAD
1000
ASC_BOUNDS
1002
{
1070
    19
1002
}
  0
LINE
  5
806
100
AcDbEntity
  8
SAISEN
100
AcDbLine
 10
59.756001
 20
2.005059
 30
0.0
 11
59.756001
 21
1.562864
 31
0.0
1001
ACAD
1000
ASC_BOUNDS
1002
{
1070
    19
1002
}
  0
ARC
  5
807
100
AcDbEntity
  8
SAISEN
100
AcDbCircle
 10
57.087009
 20
8.107238
 30
0.0
 40
6.144452
100
AcDbArc
 50
273.436689
 51
283.832017
1001
ACAD
1000
ASC_BOUNDS
1002
{
1070
    19
1002
}
  0
LINE
  5
808
100
AcDbEntity
  8
SAISEN
100
AcDbLine
 10
57.456001
 20
1.962864
 30
0.0
 11
57.456001
 21
3.26666
 31
0.0
1001
ACAD
1000
ASC_BOUNDS
1002
{
1070
    19
1002
}
  0
LINE
  5
809
100
AcDbEntity
  8
SAISEN
100
AcDbLine
 10
58.556001
 20
2.14097
 30
0.0
 11
58.556001
 21
1.74097
 31
0.0
1001
ACAD
1000
ASC_BOUNDS
1002
{
1070
    19
1002
}
  0
ARC
  5
80A
100
AcDbEntity
  8
SAISEN
100
AcDbCircle
 10
57.087009
 20
8.107238
 30
0.0
 40
6.144452
100
AcDbArc
 50
269.710851
 51
269.710851
1001
ACAD
1000
ASC_BOUNDS
1002
{
1070
    19
1002
}
  0
ARC
  5
80B
100
AcDbEntity
  8
SAISEN
100
AcDbCircle
 10
57.087009
 20
7.707238
 30
0.0
 40
6.144452
100
AcDbArc
 50
269.710851
 51
283.832017
1001
ACAD
1000
ASC_BOUNDS
1002
{
1070
    19
1002
}
  0
POLYLINE
  5
80C
100
AcDbEntity
  8
SAISEN
100
AcDb2dPolyline
 66
     1
 10
0.0
 20
0.0
 30
0.0
1001
ACAD
1000
ASC_BOUNDS
1002
{
1070
    19
1002
}
  0
VERTEX
  5
80D
100
AcDbEntity
  8
SAISEN
100
AcDbVertex
100
AcDb2dVertex
 10
57.456001
 20
3.26666
 30
0.0
  0
VERTEX
  5
80E
100
AcDbEntity
  8
SAISEN
100
AcDbVertex
100
AcDb2dVertex
 10
58.256001
 20
3.26666
 30
0.0
  0
VERTEX
  5
80F
100
AcDbEntity
  8
SAISEN
100
AcDbVertex
100
AcDb2dVertex
 10
58.256001
 20
3.66666
 30
0.0
  0
VERTEX
  5
810
100
AcDbEntity
  8
SAISEN
100
AcDbVertex
100
AcDb2dVertex
 10
56.256001
 20
3.66666
 30
0.0
  0
VERTEX
  5
811
100
AcDbEntity
  8
SAISEN
100
AcDbVertex
100
AcDb2dVertex
 10
56.256001
 20
3.26666
 30
0.0
  0
VERTEX
  5
812
100
AcDbEntity
  8
SAISEN
100
AcDbVertex
100
AcDb2dVertex
 10
57.056001
 20
3.26666
 30
0.0
  0
VERTEX
  5
813
100
AcDbEntity
  8
SAISEN
100
AcDbVertex
100
AcDb2dVertex
 10
57.056001
 20
1.962864
 30
0.0
  0
VERTEX
  5
814
100
AcDbEntity
  8
SAISEN
100
AcDbVertex
100
AcDb2dVertex
 10
56.256001
 20
1.962864
 30
0.0
  0
VERTEX
  5
815
100
AcDbEntity
  8
SAISEN
100
AcDbVertex
100
AcDb2dVertex
 10
56.256001
 20
1.562864
 30
0.0
  0
VERTEX
  5
816
100
AcDbEntity
  8
SAISEN
100
AcDbVertex
100
AcDb2dVertex
 10
57.056001
 20
1.562864
 30
0.0
  0
SEQEND
  5
817
100
AcDbEntity
  8
SAISEN
  0
ARC
  5
818
100
AcDbEntity
  8
SAISEN
100
AcDbCircle
 10
60.803678
 20
3.532863
 30
0.0
 40
1.852515
100
AcDbArc
 50
175.858224
 51
235.559986
1001
ACAD
1000
ASC_BOUNDS
1002
{
1070
    19
1002
}
  0
ARC
  5
819
100
AcDbEntity
  8
SAISEN
100
AcDbCircle
 10
60.732609
 20
3.514056
 30
0.0
 40
2.181952
100
AcDbArc
 50
175.989499
 51
243.411158
1001
ACAD
1000
ASC_BOUNDS
1002
{
1070
    19
1002
}
  0
LINE
  5
81A
100
AcDbEntity
  8
SAISEN
100
AcDbLine
 10
55.176267
 20
3.862864
 30
0.0
 11
55.176267
 21
4.262864
 31
0.0
1001
ACAD
1000
ASC_BOUNDS
1002
{
1070
    19
1002
}
  0
LINE
  5
81B
100
AcDbEntity
  8
SAISEN
100
AcDbLine
 10
54.776267
 20
2.645685
 30
0.0
 11
54.776267
 21
1.562864
 31
0.0
1001
ACAD
1000
ASC_BOUNDS
1002
{
1070
    19
1002
}
  0
POLYLINE
  5
81C
100
AcDbEntity
  8
SAISEN
100
AcDb2dPolyline
 66
     1
 10
0.0
 20
0.0
 30
0.0
1001
ACAD
1000
ASC_BOUNDS
1002
{
1070
    19
1002
}
  0
VERTEX
  5
81D
100
AcDbEntity
  8
SAISEN
100
AcDbVertex
100
AcDb2dVertex
 10
54.776267
 20
3.862864
 30
0.0
  0
VERTEX
  5
81E
100
AcDbEntity
  8
SAISEN
100
AcDbVertex
100
AcDb2dVertex
 10
53.951267
 20
3.862864
 30
0.0
  0
SEQEND
  5
81F
100
AcDbEntity
  8
SAISEN
  0
POLYLINE
  5
820
100
AcDbEntity
  8
SAISEN
100
AcDb2dPolyline
 66
     1
 10
0.0
 20
0.0
 30
0.0
1001
ACAD
1000
ASC_BOUNDS
1002
{
1070
    19
1002
}
  0
VERTEX
  5
821
100
AcDbEntity
  8
SAISEN
100
AcDbVertex
100
AcDb2dVertex
 10
55.229437
 20
3.462864
 30
0.0
  0
VERTEX
  5
822
100
AcDbEntity
  8
SAISEN
100
AcDbVertex
100
AcDb2dVertex
 10
56.006001
 20
3.462864
 30
0.0
  0
VERTEX
  5
823
100
AcDbEntity
  8
SAISEN
100
AcDbVertex
100
AcDb2dVertex
 10
56.006001
 20
3.462864
 30
0.0
  0
VERTEX
  5
824
100
AcDbEntity
  8
SAISEN
100
AcDbVertex
100
AcDb2dVertex
 10
56.006001
 20
3.862864
 30
0.0
  0
VERTEX
  5
825
100
AcDbEntity
  8
SAISEN
100
AcDbVertex
100
AcDb2dVertex
 10
56.006001
 20
3.862864
 30
0.0
  0
VERTEX
  5
826
100
AcDbEntity
  8
SAISEN
100
AcDbVertex
100
AcDb2dVertex
 10
55.176267
 20
3.862864
 30
0.0
  0
SEQEND
  5
827
100
AcDbEntity
  8
SAISEN
  0
LINE
  5
828
100
AcDbEntity
  8
SAISEN
100
AcDbLine
 10
55.176267
 20
4.662864
 30
0.0
 11
55.176267
 21
5.062864
 31
0.0
1001
ACAD
1000
ASC_BOUNDS
1002
{
1070
    19
1002
}
  0
LINE
  5
829
100
AcDbEntity
  8
SAISEN
100
AcDbLine
 10
54.776267
 20
4.262864
 30
0.0
 11
54.776267
 21
3.862864
 31
0.0
1001
ACAD
1000
ASC_BOUNDS
1002
{
1070
    19
1002
}
  0
POLYLINE
  5
82A
100
AcDbEntity
  8
SAISEN
100
AcDb2dPolyline
 66
     1
 10
0.0
 20
0.0
 30
0.0
1001
ACAD
1000
ASC_BOUNDS
1002
{
1070
    19
1002
}
  0
VERTEX
  5
82B
100
AcDbEntity
  8
SAISEN
100
AcDbVertex
100
AcDb2dVertex
 10
55.176267
 20
4.262864
 30
0.0
  0
VERTEX
  5
82C
100
AcDbEntity
  8
SAISEN
100
AcDbVertex
100
AcDb2dVertex
 10
56.006001
 20
4.262864
 30
0.0
  0
VERTEX
  5
82D
100
AcDbEntity
  8
SAISEN
100
AcDbVertex
100
AcDb2dVertex
 10
56.006001
 20
4.262864
 30
0.0
  0
VERTEX
  5
82E
100
AcDbEntity
  8
SAISEN
100
AcDbVertex
100
AcDb2dVertex
 10
56.006001
 20
4.662864
 30
0.0
  0
VERTEX
  5
82F
100
AcDbEntity
  8
SAISEN
100
AcDbVertex
100
AcDb2dVertex
 10
56.006001
 20
4.662864
 30
0.0
  0
VERTEX
  5
830
100
AcDbEntity
  8
SAISEN
100
AcDbVertex
100
AcDb2dVertex
 10
55.176267
 20
4.662864
 30
0.0
  0
SEQEND
  5
831
100
AcDbEntity
  8
SAISEN
  0
POLYLINE
  5
832
100
AcDbEntity
  8
SAISEN
100
AcDb2dPolyline
 66
     1
 10
0.0
 20
0.0
 30
0.0
1001
ACAD
1000
ASC_BOUNDS
1002
{
1070
    19
1002
}
  0
VERTEX
  5
833
100
AcDbEntity
  8
SAISEN
100
AcDbVertex
100
AcDb2dVertex
 10
54.351267
 20
5.062864
 30
0.0
  0
VERTEX
  5
834
100
AcDbEntity
  8
SAISEN
100
AcDbVertex
100
AcDb2dVertex
 10
53.951267
 20
5.062864
 30
0.0
  0
VERTEX
  5
835
100
AcDbEntity
  8
SAISEN
100
AcDbVertex
100
AcDb2dVertex
 10
53.951267
 20
5.062864
 30
0.0
  0
VERTEX
  5
836
100
AcDbEntity
  8
SAISEN
100
AcDbVertex
100
AcDb2dVertex
 10
53.951267
 20
4.562864
 30
0.0
 42
0.414214
  0
VERTEX
  5
837
100
AcDbEntity
  8
SAISEN
100
AcDbVertex
100
AcDb2dVertex
 10
54.251267
 20
4.262864
 30
0.0
  0
VERTEX
  5
838
100
AcDbEntity
  8
SAISEN
100
AcDbVertex
100
AcDb2dVertex
 10
54.776267
 20
4.262864
 30
0.0
  0
SEQEND
  5
839
100
AcDbEntity
  8
SAISEN
  0
POLYLINE
  5
83A
100
AcDbEntity
  8
SAISEN
100
AcDb2dPolyline
 66
     1
 10
0.0
 20
0.0
 30
0.0
1001
ACAD
1000
ASC_BOUNDS
1002
{
1070
    19
1002
}
  0
VERTEX
  5
83B
100
AcDbEntity
  8
SAISEN
100
AcDbVertex
100
AcDb2dVertex
 10
54.776267
 20
4.662864
 30
0.0
  0
VERTEX
  5
83C
100
AcDbEntity
  8
SAISEN
100
AcDbVertex
100
AcDb2dVertex
 10
54.351267
 20
4.662864
 30
0.0
  0
VERTEX
  5
83D
100
AcDbEntity
  8
SAISEN
100
AcDbVertex
100
AcDb2dVertex
 10
54.351267
 20
4.662864
 30
0.0
  0
VERTEX
  5
83E
100
AcDbEntity
  8
SAISEN
100
AcDbVertex
100
AcDb2dVertex
 10
54.351267
 20
5.062864
 30
0.0
  0
SEQEND
  5
83F
100
AcDbEntity
  8
SAISEN
  0
ARC
  5
840
100
AcDbEntity
  8
SAISEN
100
AcDbCircle
 10
58.254774
 20
4.412982
 30
0.0
 40
3.171022
100
AcDbArc
 50
197.43508
 51
224.829305
1001
ACAD
1000
ASC_BOUNDS
1002
{
1070
    19
1002
}
  0
POLYLINE
  5
841
100
AcDbEntity
  8
SAISEN
100
AcDb2dPolyline
 66
     1
 10
0.0
 20
0.0
 30
0.0
1001
ACAD
1000
ASC_BOUNDS
1002
{
1070
    19
1002
}
  0
VERTEX
  5
842
100
AcDbEntity
  8
SAISEN
100
AcDbVertex
100
AcDb2dVertex
 10
53.951267
 20
3.862864
 30
0.0
  0
VERTEX
  5
843
100
AcDbEntity
  8
SAISEN
100
AcDbVertex
100
AcDb2dVertex
 10
53.951267
 20
3.462864
 30
0.0
  0
VERTEX
  5
844
100
AcDbEntity
  8
SAISEN
100
AcDbVertex
100
AcDb2dVertex
 10
53.951267
 20
3.462864
 30
0.0
  0
VERTEX
  5
845
100
AcDbEntity
  8
SAISEN
100
AcDbVertex
100
AcDb2dVertex
 10
54.71611
 20
3.462864
 30
0.0
  0
SEQEND
  5
846
100
AcDbEntity
  8
SAISEN
  0
LINE
  5
847
100
AcDbEntity
  8
SAISEN
100
AcDbLine
 10
56.006001
 20
1.562864
 30
0.0
 11
56.005852
 21
2.17742
 31
0.0
1001
ACAD
1000
ASC_BOUNDS
1002
{
1070
    19
1002
}
  0
LINE
  5
848
100
AcDbEntity
  8
SAISEN
100
AcDbLine
 10
53.950951
 20
2.17224
 30
0.0
 11
53.951267
 21
1.562864
 31
0.0
1001
ACAD
1000
ASC_BOUNDS
1002
{
1070
    19
1002
}
  0
ARC
  5
849
100
AcDbEntity
  8
SAISEN
100
AcDbCircle
 10
57.109027
 20
3.25464
 30
0.0
 40
2.022187
100
AcDbArc
 50
197.52592
 51
236.783574
1001
ACAD
1000
ASC_BOUNDS
1002
{
1070
    19
1002
}
  0
ARC
  5
84A
100
AcDbEntity
  8
SAISEN
100
AcDbCircle
 10
52.843506
 20
3.25464
 30
0.0
 40
2.022187
100
AcDbArc
 50
303.216426
 51
342.47408
1001
ACAD
1000
ASC_BOUNDS
1002
{
1070
    19
1002
}
  0
ARC
  5
84B
100
AcDbEntity
  8
SAISEN
100
AcDbCircle
 10
51.689183
 20
4.38528
 30
0.0
 40
3.164355
100
AcDbArc
 50
315.62389
 51
343.052094
1001
ACAD
1000
ASC_BOUNDS
1002
{
1070
    19
1002
}
  0
LINE
  5
84C
100
AcDbEntity
  8
SAISEN
100
AcDbLine
 10
55.176267
 20
5.062864
 30
0.0
 11
54.776267
 21
5.062864
 31
0.0
1001
ACAD
1000
ASC_BOUNDS
1002
{
1070
    19
1002
}
  0
LINE
  5
84D
100
AcDbEntity
  8
SAISEN
100
AcDbLine
 10
55.176267
 20
1.562864
 30
0.0
 11
55.176267
 21
2.645685
 31
0.0
1001
ACAD
1000
ASC_BOUNDS
1002
{
1070
    19
1002
}
  0
LINE
  5
84E
100
AcDbEntity
  8
SAISEN
100
AcDbLine
 10
54.776267
 20
1.562864
 30
0.0
 11
55.176267
 21
1.562864
 31
0.0
1001
ACAD
1000
ASC_BOUNDS
1002
{
1070
    19
1002
}
  0
LINE
  5
84F
100
AcDbEntity
  8
SAISEN
100
AcDbLine
 10
54.776267
 20
5.062864
 30
0.0
 11
54.776267
 21
4.662864
 31
0.0
1001
ACAD
1000
ASC_BOUNDS
1002
{
1070
    19
1002
}
  0
POLYLINE
  5
850
100
AcDbEntity
  8
SAISEN
100
AcDb2dPolyline
 66
     1
 10
0.0
 20
0.0
 30
0.0
1001
ACAD
1000
ASC_BOUNDS
1002
{
1070
    19
1002
}
  0
VERTEX
  5
851
100
AcDbEntity
  8
SAISEN
100
AcDbVertex
100
AcDb2dVertex
 10
53.356001
 20
3.462864
 30
0.0
  0
VERTEX
  5
852
100
AcDbEntity
  8
SAISEN
100
AcDbVertex
100
AcDb2dVertex
 10
53.356001
 20
1.562864
 30
0.0
  0
VERTEX
  5
853
100
AcDbEntity
  8
SAISEN
100
AcDbVertex
100
AcDb2dVertex
 10
53.356001
 20
1.562864
 30
0.0
  0
VERTEX
  5
854
100
AcDbEntity
  8
SAISEN
100
AcDbVertex
100
AcDb2dVertex
 10
52.956001
 20
1.562864
 30
0.0
  0
VERTEX
  5
855
100
AcDbEntity
  8
SAISEN
100
AcDbVertex
100
AcDb2dVertex
 10
52.956001
 20
1.562864
 30
0.0
  0
VERTEX
  5
856
100
AcDbEntity
  8
SAISEN
100
AcDbVertex
100
AcDb2dVertex
 10
52.956001
 20
3.462864
 30
0.0
  0
SEQEND
  5
857
100
AcDbEntity
  8
SAISEN
  0
POLYLINE
  5
858
100
AcDbEntity
  8
SAISEN
100
AcDb2dPolyline
 66
     1
 10
0.0
 20
0.0
 30
0.0
1001
ACAD
1000
ASC_BOUNDS
1002
{
1070
    19
1002
}
  0
VERTEX
  5
859
100
AcDbEntity
  8
SAISEN
100
AcDbVertex
100
AcDb2dVertex
 10
52.506001
 20
4.662864
 30
0.0
  0
VERTEX
  5
85A
100
AcDbEntity
  8
SAISEN
100
AcDbVertex
100
AcDb2dVertex
 10
52.956001
 20
4.662864
 30
0.0
  0
VERTEX
  5
85B
100
AcDbEntity
  8
SAISEN
100
AcDbVertex
100
AcDb2dVertex
 10
52.956001
 20
4.662864
 30
0.0
  0
VERTEX
  5
85C
100
AcDbEntity
  8
SAISEN
100
AcDbVertex
100
AcDb2dVertex
 10
52.956001
 20
5.062864
 30
0.0
  0
VERTEX
  5
85D
100
AcDbEntity
  8
SAISEN
100
AcDbVertex
100
AcDb2dVertex
 10
52.956001
 20
5.062864
 30
0.0
  0
VERTEX
  5
85E
100
AcDbEntity
  8
SAISEN
100
AcDbVertex
100
AcDb2dVertex
 10
53.356001
 20
5.062864
 30
0.0
  0
VERTEX
  5
85F
100
AcDbEntity
  8
SAISEN
100
AcDbVertex
100
AcDb2dVertex
 10
53.356001
 20
5.062864
 30
0.0
  0
VERTEX
  5
860
100
AcDbEntity
  8
SAISEN
100
AcDbVertex
100
AcDb2dVertex
 10
53.356001
 20
4.662864
 30
0.0
  0
VERTEX
  5
861
100
AcDbEntity
  8
SAISEN
100
AcDbVertex
100
AcDb2dVertex
 10
53.356001
 20
4.662864
 30
0.0
  0
VERTEX
  5
862
100
AcDbEntity
  8
SAISEN
100
AcDbVertex
100
AcDb2dVertex
 10
53.651267
 20
4.662864
 30
0.0
  0
VERTEX
  5
863
100
AcDbEntity
  8
SAISEN
100
AcDbVertex
100
AcDb2dVertex
 10
53.651267
 20
4.662864
 30
0.0
  0
VERTEX
  5
864
100
AcDbEntity
  8
SAISEN
100
AcDbVertex
100
AcDb2dVertex
 10
53.651267
 20
4.262864
 30
0.0
  0
VERTEX
  5
865
100
AcDbEntity
  8
SAISEN
100
AcDbVertex
100
AcDb2dVertex
 10
53.651267
 20
4.262864
 30
0.0
  0
VERTEX
  5
866
100
AcDbEntity
  8
SAISEN
100
AcDbVertex
100
AcDb2dVertex
 10
53.356001
 20
4.262864
 30
0.0
  0
SEQEND
  5
867
100
AcDbEntity
  8
SAISEN
  0
POLYLINE
  5
868
100
AcDbEntity
  8
SAISEN
100
AcDb2dPolyline
 66
     1
 10
0.0
 20
0.0
 30
0.0
1001
ACAD
1000
ASC_BOUNDS
1002
{
1070
    19
1002
}
  0
VERTEX
  5
869
100
AcDbEntity
  8
SAISEN
100
AcDbVertex
100
AcDb2dVertex
 10
52.956001
 20
4.262864
 30
0.0
  0
VERTEX
  5
86A
100
AcDbEntity
  8
SAISEN
100
AcDbVertex
100
AcDb2dVertex
 10
52.956001
 20
4.262864
 30
0.0
  0
VERTEX
  5
86B
100
AcDbEntity
  8
SAISEN
100
AcDbVertex
100
AcDb2dVertex
 10
52.506001
 20
4.262864
 30
0.0
  0
VERTEX
  5
86C
100
AcDbEntity
  8
SAISEN
100
AcDbVertex
100
AcDb2dVertex
 10
52.506001
 20
4.262864
 30
0.0
  0
VERTEX
  5
86D
100
AcDbEntity
  8
SAISEN
100
AcDbVertex
100
AcDb2dVertex
 10
52.506001
 20
4.662864
 30
0.0
  0
SEQEND
  5
86E
100
AcDbEntity
  8
SAISEN
  0
LINE
  5
86F
100
AcDbEntity
  8
SAISEN
100
AcDbLine
 10
53.651267
 20
3.560184
 30
0.0
 11
53.651267
 21
2.806718
 31
0.0
1001
ACAD
1000
ASC_BOUNDS
1002
{
1070
    19
1002
}
  0
LINE
  5
870
100
AcDbEntity
  8
SAISEN
100
AcDbLine
 10
53.651267
 20
2.806718
 30
0.0
 11
53.356001
 21
3.462864
 31
0.0
1001
ACAD
1000
ASC_BOUNDS
1002
{
1070
    19
1002
}
  0
LINE
  5
871
100
AcDbEntity
  8
SAISEN
100
AcDbLine
 10
53.356001
 20
4.262864
 30
0.0
 11
53.651267
 21
3.560184
 31
0.0
1001
ACAD
1000
ASC_BOUNDS
1002
{
1070
    19
1002
}
  0
LINE
  5
872
100
AcDbEntity
  8
SAISEN
100
AcDbLine
 10
52.506001
 20
2.462864
 30
0.0
 11
52.956001
 21
3.462864
 31
0.0
1001
ACAD
1000
ASC_BOUNDS
1002
{
1070
    19
1002
}
  0
LINE
  5
873
100
AcDbEntity
  8
SAISEN
100
AcDbLine
 10
52.506001
 20
3.191945
 30
0.0
 11
52.506001
 21
2.462864
 31
0.0
1001
ACAD
1000
ASC_BOUNDS
1002
{
1070
    19
1002
}
  0
LINE
  5
874
100
AcDbEntity
  8
SAISEN
100
AcDbLine
 10
52.956001
 20
4.262864
 30
0.0
 11
52.506001
 21
3.191945
 31
0.0
1001
ACAD
1000
ASC_BOUNDS
1002
{
1070
    19
1002
}
  0
ARC
  5
875
100
AcDbEntity
  8
SAISEN
100
AcDbCircle
 10
48.656001
 20
6.062864
 30
0.0
 40
0.1
100
AcDbArc
 50
270.0
 51
0.0
1001
ACAD
1000
ASC_BOUNDS
1002
{
1070
    19
1002
}
  0
ARC
  5
876
100
AcDbEntity
  8
SAISEN
100
AcDbCircle
 10
50.606001
 20
2.562864
 30
0.0
 40
0.4
100
AcDbArc
 50
0.0
 51
90.0
1001
ACAD
1000
ASC_BOUNDS
1002
{
1070
    19
1002
}
  0
ARC
  5
877
100
AcDbEntity
  8
SAISEN
100
AcDbCircle
 10
50.606001
 20
4.362864
 30
0.0
 40
0.4
100
AcDbArc
 50
0.0
 51
90.0
1001
ACAD
1000
ASC_BOUNDS
1002
{
1070
    19
1002
}
  0
LINE
  5
878
100
AcDbEntity
  8
SAISEN
100
AcDbLine
 10
47.206001
 20
5.162864
 30
0.0
 11
50.806001
 21
5.162864
 31
0.0
1001
ACAD
1000
ASC_BOUNDS
1002
{
1070
    19
1002
}
  0
LINE
  5
879
100
AcDbEntity
  8
SAISEN
100
AcDbLine
 10
51.006001
 20
2.562864
 30
0.0
 11
51.006001
 21
1.562864
 31
0.0
1001
ACAD
1000
ASC_BOUNDS
1002
{
1070
    19
1002
}
  0
LINE
  5
87A
100
AcDbEntity
  8
SAISEN
100
AcDbLine
 10
47.706001
 20
3.862864
 30
0.0
 11
47.706001
 21
4.262864
 31
0.0
1001
ACAD
1000
ASC_BOUNDS
1002
{
1070
    19
1002
}
  0
LINE
  5
87B
100
AcDbEntity
  8
SAISEN
100
AcDbLine
 10
50.306001
 20
2.462864
 30
0.0
 11
50.306001
 21
2.062864
 31
0.0
1001
ACAD
1000
ASC_BOUNDS
1002
{
1070
    19
1002
}
  0
LINE
  5
87C
100
AcDbEntity
  8
SAISEN
100
AcDbLine
 10
50.306001
 20
2.462864
 30
0.0
 11
47.706001
 21
2.462864
 31
0.0
1001
ACAD
1000
ASC_BOUNDS
1002
{
1070
    19
1002
}
  0
LINE
  5
87D
100
AcDbEntity
  8
SAISEN
100
AcDbLine
 10
47.706001
 20
3.862864
 30
0.0
 11
50.306001
 21
3.862864
 31
0.0
1001
ACAD
1000
ASC_BOUNDS
1002
{
1070
    19
1002
}
  0
LINE
  5
87E
100
AcDbEntity
  8
SAISEN
100
AcDbLine
 10
50.606001
 20
2.962864
 30
0.0
 11
47.706001
 21
2.962864
 31
0.0
1001
ACAD
1000
ASC_BOUNDS
1002
{
1070
    19
1002
}
  0
LINE
  5
87F
100
AcDbEntity
  8
SAISEN
100
AcDbLine
 10
47.706001
 20
3.362864
 30
0.0
 11
51.006001
 21
3.362864
 31
0.0
1001
ACAD
1000
ASC_BOUNDS
1002
{
1070
    19
1002
}
  0
LINE
  5
880
100
AcDbEntity
  8
SAISEN
100
AcDbLine
 10
50.306001
 20
2.062864
 30
0.0
 11
47.706001
 21
2.062864
 31
0.0
1001
ACAD
1000
ASC_BOUNDS
1002
{
1070
    19
1002
}
  0
LINE
  5
881
100
AcDbEntity
  8
SAISEN
100
AcDbLine
 10
50.306001
 20
4.262864
 30
0.0
 11
50.306001
 21
3.862864
 31
0.0
1001
ACAD
1000
ASC_BOUNDS
1002
{
1070
    19
1002
}
  0
LINE
  5
882
100
AcDbEntity
  8
SAISEN
100
AcDbLine
 10
47.706001
 20
4.262864
 30
0.0
 11
50.306001
 21
4.262864
 31
0.0
1001
ACAD
1000
ASC_BOUNDS
1002
{
1070
    19
1002
}
  0
LINE
  5
883
100
AcDbEntity
  8
SAISEN
100
AcDbLine
 10
47.006001
 20
1.562864
 30
0.0
 11
47.006001
 21
4.762864
 31
0.0
1001
ACAD
1000
ASC_BOUNDS
1002
{
1070
    19
1002
}
  0
LINE
  5
884
100
AcDbEntity
  8
SAISEN
100
AcDbLine
 10
51.006001
 20
1.562864
 30
0.0
 11
47.006001
 21
1.562864
 31
0.0
1001
ACAD
1000
ASC_BOUNDS
1002
{
1070
    19
1002
}
  0
LINE
  5
885
100
AcDbEntity
  8
SAISEN
100
AcDbLine
 10
51.006001
 20
4.362864
 30
0.0
 11
51.006001
 21
3.362864
 31
0.0
1001
ACAD
1000
ASC_BOUNDS
1002
{
1070
    19
1002
}
  0
LINE
  5
886
100
AcDbEntity
  8
SAISEN
100
AcDbLine
 10
47.006001
 20
4.762864
 30
0.0
 11
50.606001
 21
4.762864
 31
0.0
1001
ACAD
1000
ASC_BOUNDS
1002
{
1070
    19
1002
}
  0
ARC
  5
887
100
AcDbEntity
  8
SAISEN
100
AcDbCircle
 10
51.106001
 20
5.162864
 30
0.0
 40
0.4
100
AcDbArc
 50
0.0
 51
90.0
1001
ACAD
1000
ASC_BOUNDS
1002
{
1070
    19
1002
}
  0
ARC
  5
888
100
AcDbEntity
  8
SAISEN
100
AcDbCircle
 10
46.806001
 20
6.262864
 30
0.0
 40
0.3
100
AcDbArc
 50
180.0
 51
270.0
1001
ACAD
1000
ASC_BOUNDS
1002
{
1070
    19
1002
}
  0
ARC
  5
889
100
AcDbEntity
  8
SAISEN
100
AcDbCircle
 10
49.556001
 20
6.262864
 30
0.0
 40
0.3
100
AcDbArc
 50
180.0
 51
270.0
1001
ACAD
1000
ASC_BOUNDS
1002
{
1070
    19
1002
}
  0
LINE
  5
88A
100
AcDbEntity
  8
SAISEN
100
AcDbLine
 10
47.381001
 20
5.962864
 30
0.0
 11
46.806001
 21
5.962864
 31
0.0
1001
ACAD
1000
ASC_BOUNDS
1002
{
1070
    19
1002
}
  0
LINE
  5
88B
100
AcDbEntity
  8
SAISEN
100
AcDbLine
 10
50.131001
 20
5.962864
 30
0.0
 11
49.556001
 21
5.962864
 31
0.0
1001
ACAD
1000
ASC_BOUNDS
1002
{
1070
    19
1002
}
  0
LINE
  5
88C
100
AcDbEntity
  8
SAISEN
100
AcDbLine
 10
50.806001
 20
4.762864
 30
0.0
 11
50.806001
 21
5.162864
 31
0.0
1001
ACAD
1000
ASC_BOUNDS
1002
{
1070
    19
1002
}
  0
LINE
  5
88D
100
AcDbEntity
  8
SAISEN
100
AcDbLine
 10
51.506001
 20
4.762864
 30
0.0
 11
51.506001
 21
5.162864
 31
0.0
1001
ACAD
1000
ASC_BOUNDS
1002
{
1070
    19
1002
}
  0
LINE
  5
88E
100
AcDbEntity
  8
SAISEN
100
AcDbLine
 10
51.506001
 20
4.762864
 30
0.0
 11
50.806001
 21
4.762864
 31
0.0
1001
ACAD
1000
ASC_BOUNDS
1002
{
1070
    19
1002
}
  0
LINE
  5
88F
100
AcDbEntity
  8
SAISEN
100
AcDbLine
 10
51.106001
 20
5.562864
 30
0.0
 11
50.631001
 21
5.562864
 31
0.0
1001
ACAD
1000
ASC_BOUNDS
1002
{
1070
    19
1002
}
  0
LINE
  5
890
100
AcDbEntity
  8
SAISEN
100
AcDbLine
 10
50.631001
 20
5.962864
 30
0.0
 11
50.631001
 21
5.562864
 31
0.0
1001
ACAD
1000
ASC_BOUNDS
1002
{
1070
    19
1002
}
  0
LINE
  5
891
100
AcDbEntity
  8
SAISEN
100
AcDbLine
 10
50.131001
 20
5.962864
 30
0.0
 11
50.131001
 21
5.562864
 31
0.0
1001
ACAD
1000
ASC_BOUNDS
1002
{
1070
    19
1002
}
  0
LINE
  5
892
100
AcDbEntity
  8
SAISEN
100
AcDbLine
 10
49.256001
 20
5.562864
 30
0.0
 11
50.131001
 21
5.562864
 31
0.0
1001
ACAD
1000
ASC_BOUNDS
1002
{
1070
    19
1002
}
  0
LINE
  5
893
100
AcDbEntity
  8
SAISEN
100
AcDbLine
 10
48.756001
 20
5.562864
 30
0.0
 11
47.881001
 21
5.562864
 31
0.0
1001
ACAD
1000
ASC_BOUNDS
1002
{
1070
    19
1002
}
  0
LINE
  5
894
100
AcDbEntity
  8
SAISEN
100
AcDbLine
 10
47.206001
 20
4.762864
 30
0.0
 11
47.206001
 21
5.162864
 31
0.0
1001
ACAD
1000
ASC_BOUNDS
1002
{
1070
    19
1002
}
  0
LINE
  5
895
100
AcDbEntity
  8
SAISEN
100
AcDbLine
 10
46.506001
 20
4.762864
 30
0.0
 11
47.006001
 21
4.762864
 31
0.0
1001
ACAD
1000
ASC_BOUNDS
1002
{
1070
    19
1002
}
  0
LINE
  5
896
100
AcDbEntity
  8
SAISEN
100
AcDbLine
 10
46.506001
 20
5.562864
 30
0.0
 11
47.381001
 21
5.562864
 31
0.0
1001
ACAD
1000
ASC_BOUNDS
1002
{
1070
    19
1002
}
  0
LINE
  5
897
100
AcDbEntity
  8
SAISEN
100
AcDbLine
 10
46.506001
 20
4.762864
 30
0.0
 11
46.506001
 21
5.562864
 31
0.0
1001
ACAD
1000
ASC_BOUNDS
1002
{
1070
    19
1002
}
  0
LINE
  5
898
100
AcDbEntity
  8
SAISEN
100
AcDbLine
 10
49.256001
 20
5.962864
 30
0.0
 11
49.256001
 21
5.562864
 31
0.0
1001
ACAD
1000
ASC_BOUNDS
1002
{
1070
    19
1002
}
  0
LINE
  5
899
100
AcDbEntity
  8
SAISEN
100
AcDbLine
 10
48.756001
 20
5.962864
 30
0.0
 11
49.256001
 21
5.962864
 31
0.0
1001
ACAD
1000
ASC_BOUNDS
1002
{
1070
    19
1002
}
  0
LINE
  5
89A
100
AcDbEntity
  8
SAISEN
100
AcDbLine
 10
48.756001
 20
5.962864
 30
0.0
 11
48.756001
 21
5.562864
 31
0.0
1001
ACAD
1000
ASC_BOUNDS
1002
{
1070
    19
1002
}
  0
LINE
  5
89B
100
AcDbEntity
  8
SAISEN
100
AcDbLine
 10
47.881001
 20
5.962864
 30
0.0
 11
47.881001
 21
5.562864
 31
0.0
1001
ACAD
1000
ASC_BOUNDS
1002
{
1070
    19
1002
}
  0
LINE
  5
89C
100
AcDbEntity
  8
SAISEN
100
AcDbLine
 10
47.381001
 20
5.962864
 30
0.0
 11
47.381001
 21
5.562864
 31
0.0
1001
ACAD
1000
ASC_BOUNDS
1002
{
1070
    19
1002
}
  0
LINE
  5
89D
100
AcDbEntity
  8
SAISEN
100
AcDbLine
 10
49.256001
 20
6.262864
 30
0.0
 11
49.256001
 21
6.562864
 31
0.0
1001
ACAD
1000
ASC_BOUNDS
1002
{
1070
    19
1002
}
  0
LINE
  5
89E
100
AcDbEntity
  8
SAISEN
100
AcDbLine
 10
49.256001
 20
6.562864
 30
0.0
 11
49.756001
 21
6.562864
 31
0.0
1001
ACAD
1000
ASC_BOUNDS
1002
{
1070
    19
1002
}
  0
LINE
  5
89F
100
AcDbEntity
  8
SAISEN
100
AcDbLine
 10
49.756001
 20
6.562864
 30
0.0
 11
49.756001
 21
6.362864
 31
0.0
1001
ACAD
1000
ASC_BOUNDS
1002
{
1070
    19
1002
}
  0
LINE
  5
8A0
100
AcDbEntity
  8
SAISEN
100
AcDbLine
 10
49.756001
 20
6.362864
 30
0.0
 11
51.506001
 21
6.362864
 31
0.0
1001
ACAD
1000
ASC_BOUNDS
1002
{
1070
    19
1002
}
  0
LINE
  5
8A1
100
AcDbEntity
  8
SAISEN
100
AcDbLine
 10
51.506001
 20
6.362864
 30
0.0
 11
51.506001
 21
5.962864
 31
0.0
1001
ACAD
1000
ASC_BOUNDS
1002
{
1070
    19
1002
}
  0
LINE
  5
8A2
100
AcDbEntity
  8
SAISEN
100
AcDbLine
 10
51.506001
 20
5.962864
 30
0.0
 11
50.631001
 21
5.962864
 31
0.0
1001
ACAD
1000
ASC_BOUNDS
1002
{
1070
    19
1002
}
  0
LINE
  5
8A3
100
AcDbEntity
  8
SAISEN
100
AcDbLine
 10
48.656001
 20
5.962864
 30
0.0
 11
47.881001
 21
5.962864
 31
0.0
1001
ACAD
1000
ASC_BOUNDS
1002
{
1070
    19
1002
}
  0
LINE
  5
8A4
100
AcDbEntity
  8
SAISEN
100
AcDbLine
 10
48.756001
 20
6.362864
 30
0.0
 11
48.756001
 21
6.062864
 31
0.0
1001
ACAD
1000
ASC_BOUNDS
1002
{
1070
    19
1002
}
  0
LINE
  5
8A5
100
AcDbEntity
  8
SAISEN
100
AcDbLine
 10
47.006001
 20
6.362864
 30
0.0
 11
48.756001
 21
6.362864
 31
0.0
1001
ACAD
1000
ASC_BOUNDS
1002
{
1070
    19
1002
}
  0
LINE
  5
8A6
100
AcDbEntity
  8
SAISEN
100
AcDbLine
 10
47.006001
 20
6.562864
 30
0.0
 11
47.006001
 21
6.362864
 31
0.0
1001
ACAD
1000
ASC_BOUNDS
1002
{
1070
    19
1002
}
  0
LINE
  5
8A7
100
AcDbEntity
  8
SAISEN
100
AcDbLine
 10
46.506001
 20
6.562864
 30
0.0
 11
47.006001
 21
6.562864
 31
0.0
1001
ACAD
1000
ASC_BOUNDS
1002
{
1070
    19
1002
}
  0
LINE
  5
8A8
100
AcDbEntity
  8
SAISEN
100
AcDbLine
 10
46.506001
 20
6.262864
 30
0.0
 11
46.506001
 21
6.562864
 31
0.0
1001
ACAD
1000
ASC_BOUNDS
1002
{
1070
    19
1002
}
  0
ARC
  5
8A9
100
AcDbEntity
  8
SAISEN
100
AcDbCircle
 10
45.906001
 20
2.162864
 30
0.0
 40
0.6
100
AcDbArc
 50
270.0
 51
0.0
1001
ACAD
1000
ASC_BOUNDS
1002
{
1070
    19
1002
}
  0
ARC
  5
8AA
100
AcDbEntity
  8
SAISEN
100
AcDbCircle
 10
42.106001
 20
2.162864
 30
0.0
 40
0.6
100
AcDbArc
 50
180.0
 51
270.0
1001
ACAD
1000
ASC_BOUNDS
1002
{
1070
    19
1002
}
  0
LINE
  5
8AB
100
AcDbEntity
  8
SAISEN
100
AcDbLine
 10
42.206001
 20
2.262864
 30
0.0
 11
45.806001
 21
2.262864
 31
0.0
1001
ACAD
1000
ASC_BOUNDS
1002
{
1070
    19
1002
}
  0
LINE
  5
8AC
100
AcDbEntity
  8
SAISEN
100
AcDbLine
 10
41.506001
 20
2.162864
 30
0.0
 11
41.506001
 21
2.262864
 31
0.0
1001
ACAD
1000
ASC_BOUNDS
1002
{
1070
    19
1002
}
  0
LINE
  5
8AD
100
AcDbEntity
  8
SAISEN
100
AcDbLine
 10
45.906001
 20
1.562864
 30
0.0
 11
42.106001
 21
1.562864
 31
0.0
1001
ACAD
1000
ASC_BOUNDS
1002
{
1070
    19
1002
}
  0
LINE
  5
8AE
100
AcDbEntity
  8
SAISEN
100
AcDbLine
 10
46.506001
 20
2.262864
 30
0.0
 11
46.506001
 21
2.162864
 31
0.0
1001
ACAD
1000
ASC_BOUNDS
1002
{
1070
    19
1002
}
  0
LINE
  5
8AF
100
AcDbEntity
  8
SAISEN
100
AcDbLine
 10
44.999316
 20
4.740539
 30
0.0
 11
45.699316
 21
4.740539
 31
0.0
1001
ACAD
1000
ASC_BOUNDS
1002
{
1070
    19
1002
}
  0
LINE
  5
8B0
100
AcDbEntity
  8
SAISEN
100
AcDbLine
 10
42.906001
 20
6.562864
 30
0.0
 11
43.606001
 21
6.562864
 31
0.0
1001
ACAD
1000
ASC_BOUNDS
1002
{
1070
    19
1002
}
  0
LINE
  5
8B1
100
AcDbEntity
  8
SAISEN
100
AcDbLine
 10
45.699316
 20
4.740539
 30
0.0
 11
46.506001
 21
2.262864
 31
0.0
1001
ACAD
1000
ASC_BOUNDS
1002
{
1070
    19
1002
}
  0
LINE
  5
8B2
100
AcDbEntity
  8
SAISEN
100
AcDbLine
 10
45.806001
 20
2.262864
 30
0.0
 11
44.999316
 21
4.740539
 31
0.0
1001
ACAD
1000
ASC_BOUNDS
1002
{
1070
    19
1002
}
  0
LINE
  5
8B3
100
AcDbEntity
  8
SAISEN
100
AcDbLine
 10
42.206001
 20
2.262864
 30
0.0
 11
43.606001
 21
6.562864
 31
0.0
1001
ACAD
1000
ASC_BOUNDS
1002
{
1070
    19
1002
}
  0
LINE
  5
8B4
100
AcDbEntity
  8
SAISEN
100
AcDbLine
 10
42.906001
 20
6.562864
 30
0.0
 11
41.506001
 21
2.262864
 31
0.0
1001
ACAD
1000
ASC_BOUNDS
1002
{
1070
    19
1002
}
  0
POLYLINE
  5
8B5
100
AcDbEntity
  8
SAISEN
100
AcDb2dPolyline
 66
     1
 10
0.0
 20
0.0
 30
0.0
 70
     1
1001
ACAD
1000
ASC_BOUNDS
1002
{
1070
    19
1002
}
  0
VERTEX
  5
8B6
100
AcDbEntity
  8
SAISEN
100
AcDbVertex
100
AcDb2dVertex
 10
36.506001
 20
4.412864
 30
0.0
  0
VERTEX
  5
8B7
100
AcDbEntity
  8
SAISEN
100
AcDbVertex
100
AcDb2dVertex
 10
41.506001
 20
4.412864
 30
0.0
  0
VERTEX
  5
8B8
100
AcDbEntity
  8
SAISEN
100
AcDbVertex
100
AcDb2dVertex
 10
41.506001
 20
3.712864
 30
0.0
  0
VERTEX
  5
8B9
100
AcDbEntity
  8
SAISEN
100
AcDbVertex
100
AcDb2dVertex
 10
36.506001
 20
3.712864
 30
0.0
  0
SEQEND
  5
8BA
100
AcDbEntity
  8
SAISEN
  0
POLYLINE
  5
8BB
100
AcDbEntity
  8
SAISEN
100
AcDb2dPolyline
 66
     1
 10
0.0
 20
0.0
 30
0.0
1001
ACAD
1000
ASC_BOUNDS
1002
{
1070
    19
1002
}
  0
VERTEX
  5
8BC
100
AcDbEntity
  8
SAISEN
100
AcDbVertex
100
AcDb2dVertex
 10
33.206001
 20
4.390539
 30
0.0
  0
VERTEX
  5
8BD
100
AcDbEntity
  8
SAISEN
100
AcDbVertex
100
AcDb2dVertex
 10
33.206001
 20
5.090539
 30
0.0
  0
VERTEX
  5
8BE
100
AcDbEntity
  8
SAISEN
100
AcDbVertex
100
AcDb2dVertex
 10
35.206001
 20
5.090539
 30
0.0
 42
-0.414214
  0
VERTEX
  5
8BF
100
AcDbEntity
  8
SAISEN
100
AcDbVertex
100
AcDb2dVertex
 10
35.806001
 20
4.490539
 30
0.0
  0
VERTEX
  5
8C0
100
AcDbEntity
  8
SAISEN
100
AcDbVertex
100
AcDb2dVertex
 10
35.806001
 20
2.262864
 30
0.0
  0
VERTEX
  5
8C1
100
AcDbEntity
  8
SAISEN
100
AcDbVertex
100
AcDb2dVertex
 10
36.506001
 20
2.262864
 30
0.0
  0
VERTEX
  5
8C2
100
AcDbEntity
  8
SAISEN
100
AcDbVertex
100
AcDb2dVertex
 10
36.506001
 20
1.562864
 30
0.0
  0
VERTEX
  5
8C3
100
AcDbEntity
  8
SAISEN
100
AcDbVertex
100
AcDb2dVertex
 10
32.506001
 20
1.562864
 30
0.0
  0
VERTEX
  5
8C4
100
AcDbEntity
  8
SAISEN
100
AcDbVertex
100
AcDb2dVertex
 10
32.506001
 20
2.262864
 30
0.0
  0
VERTEX
  5
8C5
100
AcDbEntity
  8
SAISEN
100
AcDbVertex
100
AcDb2dVertex
 10
35.106001
 20
2.262864
 30
0.0
  0
VERTEX
  5
8C6
100
AcDbEntity
  8
SAISEN
100
AcDbVertex
100
AcDb2dVertex
 10
35.106001
 20
4.390539
 30
0.0
  0
VERTEX
  5
8C7
100
AcDbEntity
  8
SAISEN
100
AcDbVertex
100
AcDb2dVertex
 10
33.206001
 20
4.390539
 30
0.0
  0
SEQEND
  5
8C8
100
AcDbEntity
  8
SAISEN
  0
ARC
  5
8C9
100
AcDbEntity
  8
SAISEN
100
AcDbCircle
 10
28.506001
 20
3.062864
 30
0.0
 40
0.8
100
AcDbArc
 50
180.0
 51
270.0
1001
ACAD
1000
ASC_BOUNDS
1002
{
1070
    19
1002
}
  0
ARC
  5
8CA
100
AcDbEntity
  8
SAISEN
100
AcDbCircle
 10
28.506001
 20
3.062864
 30
0.0
 40
1.5
100
AcDbArc
 50
180.0
 51
270.0
1001
ACAD
1000
ASC_BOUNDS
1002
{
1070
    19
1002
}
  0
LINE
  5
8CB
100
AcDbEntity
  8
SAISEN
100
AcDbLine
 10
27.006001
 20
3.062864
 30
0.0
 11
27.006001
 21
6.562864
 31
0.0
1001
ACAD
1000
ASC_BOUNDS
1002
{
1070
    19
1002
}
  0
LINE
  5
8CC
100
AcDbEntity
  8
SAISEN
100
AcDbLine
 10
32.006001
 20
1.562864
 30
0.0
 11
28.506001
 21
1.562864
 31
0.0
1001
ACAD
1000
ASC_BOUNDS
1002
{
1070
    19
1002
}
  0
LINE
  5
8CD
100
AcDbEntity
  8
SAISEN
100
AcDbLine
 10
32.006001
 20
2.262864
 30
0.0
 11
32.006001
 21
1.562864
 31
0.0
1001
ACAD
1000
ASC_BOUNDS
1002
{
1070
    19
1002
}
  0
LINE
  5
8CE
100
AcDbEntity
  8
SAISEN
100
AcDbLine
 10
28.506001
 20
2.262864
 30
0.0
 11
32.006001
 21
2.262864
 31
0.0
1001
ACAD
1000
ASC_BOUNDS
1002
{
1070
    19
1002
}
  0
LINE
  5
8CF
100
AcDbEntity
  8
SAISEN
100
AcDbLine
 10
27.706001
 20
4.740539
 30
0.0
 11
27.706001
 21
3.062864
 31
0.0
1001
ACAD
1000
ASC_BOUNDS
1002
{
1070
    19
1002
}
  0
LINE
  5
8D0
100
AcDbEntity
  8
SAISEN
100
AcDbLine
 10
32.006001
 20
4.740539
 30
0.0
 11
27.706001
 21
4.740539
 31
0.0
1001
ACAD
1000
ASC_BOUNDS
1002
{
1070
    19
1002
}
  0
LINE
  5
8D1
100
AcDbEntity
  8
SAISEN
100
AcDbLine
 10
32.006001
 20
5.440539
 30
0.0
 11
32.006001
 21
4.740539
 31
0.0
1001
ACAD
1000
ASC_BOUNDS
1002
{
1070
    19
1002
}
  0
LINE
  5
8D2
100
AcDbEntity
  8
SAISEN
100
AcDbLine
 10
27.706001
 20
5.440539
 30
0.0
 11
32.006001
 21
5.440539
 31
0.0
1001
ACAD
1000
ASC_BOUNDS
1002
{
1070
    19
1002
}
  0
LINE
  5
8D3
100
AcDbEntity
  8
SAISEN
100
AcDbLine
 10
27.706001
 20
6.562864
 30
0.0
 11
27.706001
 21
5.440539
 31
0.0
1001
ACAD
1000
ASC_BOUNDS
1002
{
1070
    19
1002
}
  0
LINE
  5
8D4
100
AcDbEntity
  8
SAISEN
100
AcDbLine
 10
27.006001
 20
6.562864
 30
0.0
 11
27.706001
 21
6.562864
 31
0.0
1001
ACAD
1000
ASC_BOUNDS
1002
{
1070
    19
1002
}
  0
POLYLINE
  5
8D5
100
AcDbEntity
  8
SAISEN
100
AcDb2dPolyline
 66
     1
 10
0.0
 20
0.0
 30
0.0
 70
     1
1001
ACAD
1000
ASC_BOUNDS
1002
{
1070
    19
1002
}
  0
VERTEX
  5
8D6
100
AcDbEntity
  8
SAISEN
100
AcDbVertex
100
AcDb2dVertex
 10
24.356001
 20
5.862864
 30
0.0
  0
VERTEX
  5
8D7
100
AcDbEntity
  8
SAISEN
100
AcDbVertex
100
AcDb2dVertex
 10
25.806001
 20
5.862864
 30
0.0
  0
VERTEX
  5
8D8
100
AcDbEntity
  8
SAISEN
100
AcDbVertex
100
AcDb2dVertex
 10
25.806001
 20
4.412864
 30
0.0
  0
VERTEX
  5
8D9
100
AcDbEntity
  8
SAISEN
100
AcDbVertex
100
AcDb2dVertex
 10
24.356001
 20
4.412864
 30
0.0
  0
SEQEND
  5
8DA
100
AcDbEntity
  8
SAISEN
  0
POLYLINE
  5
8DB
100
AcDbEntity
  8
SAISEN
100
AcDb2dPolyline
 66
     1
 10
0.0
 20
0.0
 30
0.0
 70
     1
1001
ACAD
1000
ASC_BOUNDS
1002
{
1070
    19
1002
}
  0
VERTEX
  5
8DC
100
AcDbEntity
  8
SAISEN
100
AcDbVertex
100
AcDb2dVertex
 10
24.356001
 20
3.712864
 30
0.0
  0
VERTEX
  5
8DD
100
AcDbEntity
  8
SAISEN
100
AcDbVertex
100
AcDb2dVertex
 10
25.806001
 20
3.712864
 30
0.0
  0
VERTEX
  5
8DE
100
AcDbEntity
  8
SAISEN
100
AcDbVertex
100
AcDb2dVertex
 10
25.806001
 20
2.262864
 30
0.0
  0
VERTEX
  5
8DF
100
AcDbEntity
  8
SAISEN
100
AcDbVertex
100
AcDb2dVertex
 10
24.356001
 20
2.262864
 30
0.0
  0
SEQEND
  5
8E0
100
AcDbEntity
  8
SAISEN
  0
POLYLINE
  5
8E1
100
AcDbEntity
  8
SAISEN
100
AcDb2dPolyline
 66
     1
 10
0.0
 20
0.0
 30
0.0
 70
     1
1001
ACAD
1000
ASC_BOUNDS
1002
{
1070
    19
1002
}
  0
VERTEX
  5
8E2
100
AcDbEntity
  8
SAISEN
100
AcDbVertex
100
AcDb2dVertex
 10
22.206001
 20
3.712864
 30
0.0
  0
VERTEX
  5
8E3
100
AcDbEntity
  8
SAISEN
100
AcDbVertex
100
AcDb2dVertex
 10
23.656001
 20
3.712864
 30
0.0
  0
VERTEX
  5
8E4
100
AcDbEntity
  8
SAISEN
100
AcDbVertex
100
AcDb2dVertex
 10
23.656001
 20
2.262864
 30
0.0
  0
VERTEX
  5
8E5
100
AcDbEntity
  8
SAISEN
100
AcDbVertex
100
AcDb2dVertex
 10
22.206001
 20
2.262864
 30
0.0
  0
SEQEND
  5
8E6
100
AcDbEntity
  8
SAISEN
  0
POLYLINE
  5
8E7
100
AcDbEntity
  8
SAISEN
100
AcDb2dPolyline
 66
     1
 10
0.0
 20
0.0
 30
0.0
 70
     1
1001
ACAD
1000
ASC_BOUNDS
1002
{
1070
    19
1002
}
  0
VERTEX
  5
8E8
100
AcDbEntity
  8
SAISEN
100
AcDbVertex
100
AcDb2dVertex
 10
22.206001
 20
5.862864
 30
0.0
  0
VERTEX
  5
8E9
100
AcDbEntity
  8
SAISEN
100
AcDbVertex
100
AcDb2dVertex
 10
23.656001
 20
5.862864
 30
0.0
  0
VERTEX
  5
8EA
100
AcDbEntity
  8
SAISEN
100
AcDbVertex
100
AcDb2dVertex
 10
23.656001
 20
4.412864
 30
0.0
  0
VERTEX
  5
8EB
100
AcDbEntity
  8
SAISEN
100
AcDbVertex
100
AcDb2dVertex
 10
22.206001
 20
4.412864
 30
0.0
  0
SEQEND
  5
8EC
100
AcDbEntity
  8
SAISEN
  0
LINE
  5
8ED
100
AcDbEntity
  8
SAISEN
100
AcDbLine
 10
18.656001
 20
5.862864
 30
0.0
 11
18.656001
 21
6.562864
 31
0.0
1001
ACAD
1000
ASC_BOUNDS
1002
{
1070
    19
1002
}
  0
LINE
  5
8EE
100
AcDbEntity
  8
SAISEN
100
AcDbLine
 10
18.656001
 20
6.562864
 30
0.0
 11
20.406001
 21
6.562864
 31
0.0
1001
ACAD
1000
ASC_BOUNDS
1002
{
1070
    19
1002
}
  0
LINE
  5
8EF
100
AcDbEntity
  8
SAISEN
100
AcDbLine
 10
21.006001
 20
5.962864
 30
0.0
 11
21.006001
 21
2.162864
 31
0.0
1001
ACAD
1000
ASC_BOUNDS
1002
{
1070
    19
1002
}
  0
LINE
  5
8F0
100
AcDbEntity
  8
SAISEN
100
AcDbLine
 10
20.406001
 20
1.562864
 30
0.0
 11
18.656001
 21
1.562864
 31
0.0
1001
ACAD
1000
ASC_BOUNDS
1002
{
1070
    19
1002
}
  0
LINE
  5
8F1
100
AcDbEntity
  8
SAISEN
100
AcDbLine
 10
18.656001
 20
1.562864
 30
0.0
 11
18.656001
 21
2.262864
 31
0.0
1001
ACAD
1000
ASC_BOUNDS
1002
{
1070
    19
1002
}
  0
LINE
  5
8F2
100
AcDbEntity
  8
SAISEN
100
AcDbLine
 10
18.656001
 20
2.262864
 30
0.0
 11
20.306001
 21
2.262864
 31
0.0
1001
ACAD
1000
ASC_BOUNDS
1002
{
1070
    19
1002
}
  0
LINE
  5
8F3
100
AcDbEntity
  8
SAISEN
100
AcDbLine
 10
20.306001
 20
2.262864
 30
0.0
 11
20.306001
 21
3.362864
 31
0.0
1001
ACAD
1000
ASC_BOUNDS
1002
{
1070
    19
1002
}
  0
LINE
  5
8F4
100
AcDbEntity
  8
SAISEN
100
AcDbLine
 10
20.306001
 20
5.862864
 30
0.0
 11
18.656001
 21
5.862864
 31
0.0
1001
ACAD
1000
ASC_BOUNDS
1002
{
1070
    19
1002
}
  0
LINE
  5
8F5
100
AcDbEntity
  8
SAISEN
100
AcDbLine
 10
18.656001
 20
4.462864
 30
0.0
 11
18.656001
 21
5.162864
 31
0.0
1001
ACAD
1000
ASC_BOUNDS
1002
{
1070
    19
1002
}
  0
LINE
  5
8F6
100
AcDbEntity
  8
SAISEN
100
AcDbLine
 10
18.656001
 20
4.462864
 30
0.0
 11
20.306001
 21
4.062864
 31
0.0
1001
ACAD
1000
ASC_BOUNDS
1002
{
1070
    19
1002
}
  0
LINE
  5
8F7
100
AcDbEntity
  8
SAISEN
100
AcDbLine
 10
20.306001
 20
4.762864
 30
0.0
 11
18.656001
 21
5.162864
 31
0.0
1001
ACAD
1000
ASC_BOUNDS
1002
{
1070
    19
1002
}
  0
LINE
  5
8F8
100
AcDbEntity
  8
SAISEN
100
AcDbLine
 10
20.306001
 20
3.362864
 30
0.0
 11
18.656001
 21
2.962864
 31
0.0
1001
ACAD
1000
ASC_BOUNDS
1002
{
1070
    19
1002
}
  0
LINE
  5
8F9
100
AcDbEntity
  8
SAISEN
100
AcDbLine
 10
18.656001
 20
3.662864
 30
0.0
 11
20.306001
 21
4.062864
 31
0.0
1001
ACAD
1000
ASC_BOUNDS
1002
{
1070
    19
1002
}
  0
LINE
  5
8FA
100
AcDbEntity
  8
SAISEN
100
AcDbLine
 10
18.656001
 20
3.662864
 30
0.0
 11
18.656001
 21
2.962864
 31
0.0
1001
ACAD
1000
ASC_BOUNDS
1002
{
1070
    19
1002
}
  0
LINE
  5
8FB
100
AcDbEntity
  8
SAISEN
100
AcDbLine
 10
20.306001
 20
4.762864
 30
0.0
 11
20.306001
 21
5.862864
 31
0.0
1001
ACAD
1000
ASC_BOUNDS
1002
{
1070
    19
1002
}
  0
ARC
  5
8FC
100
AcDbEntity
  8
SAISEN
100
AcDbCircle
 10
20.406001
 20
5.962864
 30
0.0
 40
0.6
100
AcDbArc
 50
0.0
 51
90.0
1001
ACAD
1000
ASC_BOUNDS
1002
{
1070
    19
1002
}
  0
ARC
  5
8FD
100
AcDbEntity
  8
SAISEN
100
AcDbCircle
 10
20.406001
 20
2.162864
 30
0.0
 40
0.6
100
AcDbArc
 50
270.0
 51
0.0
1001
ACAD
1000
ASC_BOUNDS
1002
{
1070
    19
1002
}
  0
ARC
  5
8FE
100
AcDbEntity
  8
SAISEN
100
AcDbCircle
 10
17.756001
 20
2.162864
 30
0.0
 40
0.6
100
AcDbArc
 50
270.0
 51
0.0
1001
ACAD
1000
ASC_BOUNDS
1002
{
1070
    19
1002
}
  0
ARC
  5
8FF
100
AcDbEntity
  8
SAISEN
100
AcDbCircle
 10
17.756001
 20
5.962864
 30
0.0
 40
0.6
100
AcDbArc
 50
0.0
 51
90.0
1001
ACAD
1000
ASC_BOUNDS
1002
{
1070
    19
1002
}
  0
LINE
  5
900
100
AcDbEntity
  8
SAISEN
100
AcDbLine
 10
17.656001
 20
4.762864
 30
0.0
 11
17.656001
 21
5.862864
 31
0.0
1001
ACAD
1000
ASC_BOUNDS
1002
{
1070
    19
1002
}
  0
LINE
  5
901
100
AcDbEntity
  8
SAISEN
100
AcDbLine
 10
16.006001
 20
3.662864
 30
0.0
 11
16.006001
 21
2.962864
 31
0.0
1001
ACAD
1000
ASC_BOUNDS
1002
{
1070
    19
1002
}
  0
LINE
  5
902
100
AcDbEntity
  8
SAISEN
100
AcDbLine
 10
16.006001
 20
3.662864
 30
0.0
 11
17.656001
 21
4.062864
 31
0.0
1001
ACAD
1000
ASC_BOUNDS
1002
{
1070
    19
1002
}
  0
LINE
  5
903
100
AcDbEntity
  8
SAISEN
100
AcDbLine
 10
17.656001
 20
3.362864
 30
0.0
 11
16.006001
 21
2.962864
 31
0.0
1001
ACAD
1000
ASC_BOUNDS
1002
{
1070
    19
1002
}
  0
LINE
  5
904
100
AcDbEntity
  8
SAISEN
100
AcDbLine
 10
17.656001
 20
4.762864
 30
0.0
 11
16.006001
 21
5.162864
 31
0.0
1001
ACAD
1000
ASC_BOUNDS
1002
{
1070
    19
1002
}
  0
LINE
  5
905
100
AcDbEntity
  8
SAISEN
100
AcDbLine
 10
16.006001
 20
4.462864
 30
0.0
 11
17.656001
 21
4.062864
 31
0.0
1001
ACAD
1000
ASC_BOUNDS
1002
{
1070
    19
1002
}
  0
LINE
  5
906
100
AcDbEntity
  8
SAISEN
100
AcDbLine
 10
16.006001
 20
4.462864
 30
0.0
 11
16.006001
 21
5.162864
 31
0.0
1001
ACAD
1000
ASC_BOUNDS
1002
{
1070
    19
1002
}
  0
LINE
  5
907
100
AcDbEntity
  8
SAISEN
100
AcDbLine
 10
17.656001
 20
5.862864
 30
0.0
 11
16.006001
 21
5.862864
 31
0.0
1001
ACAD
1000
ASC_BOUNDS
1002
{
1070
    19
1002
}
  0
LINE
  5
908
100
AcDbEntity
  8
SAISEN
100
AcDbLine
 10
17.656001
 20
2.262864
 30
0.0
 11
17.656001
 21
3.362864
 31
0.0
1001
ACAD
1000
ASC_BOUNDS
1002
{
1070
    19
1002
}
  0
LINE
  5
909
100
AcDbEntity
  8
SAISEN
100
AcDbLine
 10
16.006001
 20
2.262864
 30
0.0
 11
17.656001
 21
2.262864
 31
0.0
1001
ACAD
1000
ASC_BOUNDS
1002
{
1070
    19
1002
}
  0
LINE
  5
90A
100
AcDbEntity
  8
SAISEN
100
AcDbLine
 10
16.006001
 20
1.562864
 30
0.0
 11
16.006001
 21
2.262864
 31
0.0
1001
ACAD
1000
ASC_BOUNDS
1002
{
1070
    19
1002
}
  0
LINE
  5
90B
100
AcDbEntity
  8
SAISEN
100
AcDbLine
 10
17.756001
 20
1.562864
 30
0.0
 11
16.006001
 21
1.562864
 31
0.0
1001
ACAD
1000
ASC_BOUNDS
1002
{
1070
    19
1002
}
  0
LINE
  5
90C
100
AcDbEntity
  8
SAISEN
100
AcDbLine
 10
18.356001
 20
5.962864
 30
0.0
 11
18.356001
 21
2.162864
 31
0.0
1001
ACAD
1000
ASC_BOUNDS
1002
{
1070
    19
1002
}
  0
LINE
  5
90D
100
AcDbEntity
  8
SAISEN
100
AcDbLine
 10
16.006001
 20
6.562864
 30
0.0
 11
17.756001
 21
6.562864
 31
0.0
1001
ACAD
1000
ASC_BOUNDS
1002
{
1070
    19
1002
}
  0
LINE
  5
90E
100
AcDbEntity
  8
SAISEN
100
AcDbLine
 10
16.006001
 20
5.862864
 30
0.0
 11
16.006001
 21
6.562864
 31
0.0
1001
ACAD
1000
ASC_BOUNDS
1002
{
1070
    19
1002
}
  0
POLYLINE
  5
90F
100
AcDbEntity
  8
SAISEN
100
AcDb2dPolyline
 66
     1
 10
0.0
 20
0.0
 30
0.0
 70
     1
1001
ACAD
1000
ASC_BOUNDS
1002
{
1070
    19
1002
}
  0
VERTEX
  5
910
100
AcDbEntity
  8
SAISEN
100
AcDbVertex
100
AcDb2dVertex
 10
21.506001
 20
6.562864
 30
0.0
  0
VERTEX
  5
911
100
AcDbEntity
  8
SAISEN
100
AcDbVertex
100
AcDb2dVertex
 10
25.906001
 20
6.562864
 30
0.0
 42
-0.414214
  0
VERTEX
  5
912
100
AcDbEntity
  8
SAISEN
100
AcDbVertex
100
AcDb2dVertex
 10
26.506001
 20
5.962864
 30
0.0
  0
VERTEX
  5
913
100
AcDbEntity
  8
SAISEN
100
AcDbVertex
100
AcDb2dVertex
 10
26.506001
 20
1.562864
 30
0.0
  0
VERTEX
  5
914
100
AcDbEntity
  8
SAISEN
100
AcDbVertex
100
AcDb2dVertex
 10
21.506001
 20
1.562864
 30
0.0
  0
SEQEND
  5
915
100
AcDbEntity
  8
SAISEN
  0
ENDBLK
  5
917
100
AcDbEntity
  8
TEXT
100
AcDbBlockEnd
  0
BLOCK
  5
936
100
AcDbEntity
  8
JISSEN
100
AcDbBlockBegin
  2
A$CE0A5
 70
     0
 10
0.0
 20
0.0
 30
0.0
  3
A$CE0A5
  1

  0
LINE
  5
919
100
AcDbEntity
  8
JISSEN
100
AcDbLine
 10
3902.319269
 20
2672.322792
 30
0.0
 11
3902.319269
 21
2.322792
 31
0.0
  0
LINE
  5
91A
100
AcDbEntity
  8
JISSEN
100
AcDbLine
 10
2.319285
 20
2672.322792
 30
0.0
 11
2.319285
 21
2.322792
 31
0.0
  0
LINE
  5
91B
100
AcDbEntity
  8
JISSEN
100
AcDbLine
 10
2.319285
 20
2672.322792
 30
0.0
 11
3902.319269
 21
2672.322792
 31
0.0
  0
INSERT
  5
91C
100
AcDbEntity
  8
JISSEN
100
AcDbBlockReference
  2
A$CD230
 10
1048.067464
 20
29.921573
 30
0.0
 41
10.0
 42
10.0
 43
10.0
  0
TEXT
  5
91D
100
AcDbEntity
  8
TEXT
100
AcDbText
 10
2686.650411
 20
84.042117
 30
0.0
 40
30.0
  1
10.8.26
  7
K
100
AcDbText
  0
TEXT
  5
91E
100
AcDbEntity
  8
TEXT
100
AcDbText
 10
3620.141937
 20
16.143939
 30
0.0
 40
30.0
  1
AAA-3
  7
K
100
AcDbText
  0
TEXT
  5
91F
100
AcDbEntity
  8
TEXT
100
AcDbText
 10
2496.410401
 20
12.09258
 30
0.0
 40
30.0
  1
A.N
  7
K
100
AcDbText
  0
LINE
  5
920
100
AcDbEntity
  8
JISSEN
100
AcDbLine
 10
2422.677658
 20
77.322792
 30
0.0
 11
3567.429491
 21
77.322792
 31
0.0
  0
LINE
  5
921
100
AcDbEntity
  8
JISSEN
100
AcDbLine
 10
3567.429491
 20
152.322792
 30
0.0
 11
3567.429491
 21
2.322792
 31
0.0
  0
TEXT
  5
922
100
AcDbEntity
  8
TEXT
100
AcDbText
 10
3578.605469
 20
120.226447
 30
0.0
 40
25.0
  1
図番
  7
K
100
AcDbText
  0
TEXT
  5
923
100
AcDbEntity
  8
TEXT
100
AcDbText
 10
2942.872593
 20
49.94222
 30
0.0
 40
25.0
  1
図面名称
  7
K
100
AcDbText
  0
TEXT
  5
924
100
AcDbEntity
  8
TEXT
100
AcDbText
 10
2942.872593
 20
122.422829
 30
0.0
 40
25.0
  1
工事名称
  7
K
100
AcDbText
  0
TEXT
  5
925
100
AcDbEntity
  8
TEXT
100
AcDbText
 10
2623.466464
 20
51.406473
 30
0.0
 40
25.0
  1
縮尺
  7
K
100
AcDbText
  0
TEXT
  5
926
100
AcDbEntity
  8
TEXT
100
AcDbText
 10
2623.466464
 20
122.422829
 30
0.0
 40
25.0
  1
日付
  7
K
100
AcDbText
  0
TEXT
  5
927
100
AcDbEntity
  8
TEXT
100
AcDbText
 10
2438.85558
 20
50.769184
 30
0.0
 40
25.0
  1
作図
  7
K
100
AcDbText
  0
TEXT
  5
928
100
AcDbEntity
  8
TEXT
100
AcDbText
 10
2438.85558
 20
121.690706
 30
0.0
 40
25.0
  1
検図
  7
K
100
AcDbText
  0
LINE
  5
929
100
AcDbEntity
  8
JISSEN
100
AcDbLine
 10
2927.180523
 20
152.322792
 30
0.0
 11
2927.180523
 21
2.322792
 31
0.0
  0
LINE
  5
92A
100
AcDbEntity
  8
JISSEN
100
AcDbLine
 10
2603.781254
 20
152.322792
 30
0.0
 11
2603.781254
 21
2.322792
 31
0.0
  0
LINE
  5
92B
100
AcDbEntity
  8
JISSEN
100
AcDbLine
 10
2422.677658
 20
152.322792
 30
0.0
 11
2422.677658
 21
2.322792
 31
0.0
  0
TEXT
  5
92C
100
AcDbEntity
  8
TEXT
100
AcDbText
 10
2101.077573
 20
12.020507
 30
0.0
 40
30.0
  1
年     月      日
  7
K
100
AcDbText
  0
TEXT
  5
92D
100
AcDbEntity
  8
TEXT
100
AcDbText
 10
1833.324226
 20
109.207568
 30
0.0
 40
30.0
  1
御承認印
  7
K
100
AcDbText
  0
TEXT
  5
92E
100
AcDbEntity
  8
TEXT
100
AcDbText
 10
50.493767
 20
29.984456
 30
0.0
 40
30.0
  1
事
  7
K
100
AcDbText
  0
TEXT
  5
92F
100
AcDbEntity
  8
TEXT
100
AcDbText
 10
50.493767
 20
92.100627
 30
0.0
 40
30.0
  1
記
  7
K
100
AcDbText
  0
LINE
  5
930
100
AcDbEntity
  8
JISSEN
100
AcDbLine
 10
1806.063033
 20
152.322792
 30
0.0
 11
1806.063033
 21
2.322792
 31
0.0
  0
LINE
  5
931
100
AcDbEntity
  8
JISSEN
100
AcDbLine
 10
133.01076
 20
77.322792
 30
0.0
 11
1090.272628
 21
77.322792
 31
0.0
  0
LINE
  5
932
100
AcDbEntity
  8
JISSEN
100
AcDbLine
 10
1090.272628
 20
152.322792
 30
0.0
 11
1090.272628
 21
2.322792
 31
0.0
  0
LINE
  5
933
100
AcDbEntity
  8
JISSEN
100
AcDbLine
 10
133.01076
 20
152.322792
 30
0.0
 11
133.01076
 21
2.322792
 31
0.0
  0
LINE
  5
934
100
AcDbEntity
  8
JISSEN
100
AcDbLine
 10
2.319285
 20
152.322792
 30
0.0
 11
3902.319269
 21
152.322792
 31
0.0
  0
LINE
  5
935
100
AcDbEntity
  8
JISSEN
100
AcDbLine
 10
2.319285
 20
2.322792
 30
0.0
 11
3902.319269
 21
2.322792
 31
0.0
  0
ENDBLK
  5
937
100
AcDbEntity
  8
JISSEN
100
AcDbBlockEnd
  0
BLOCK
  5
93A
100
AcDbEntity
  8
ITTEN
100
AcDbBlockBegin
  2
A$C4094
 70
     0
 10
0.0
 20
0.0
 30
0.0
  3
A$C4094
  1

  0
INSERT
  5
939
100
AcDbEntity
  8
JISSEN
100
AcDbBlockReference
  2
A$CE0A5
 10
-0.149507
 20
-0.144083
 30
0.0
 41
0.1
 42
0.1
 43
0.1
  0
ENDBLK
  5
93B
100
AcDbEntity
  8
ITTEN
100
AcDbBlockEnd
  0
ENDSEC
  0
SECTION
  2
ENTITIES
  0
TEXT
  5
400
100
AcDbEntity
  8
TEXT
100
AcDbText
 10
4971.034742
 20
2306.454756
 30
0.0
 40
90.0
  1
ME1S30
  7
K
100
AcDbText
  0
TEXT
  5
401
100
AcDbEntity
  8
TEXT
100
AcDbText
 10
5095.810234
 20
4783.520829
 30
0.0
 40
90.0
  1
ME1S60
  7
K
100
AcDbText
  0
TEXT
  5
402
100
AcDbEntity
  8
TEXT
100
AcDbText
 10
1272.434264
 20
4852.289209
 30
0.0
 40
90.0
  1
ME1S90
  7
K
100
AcDbText
  0
TEXT
  5
403
100
AcDbEntity
  8
TEXT
100
AcDbText
 10
334.30198
 20
5042.30342
 30
0.0
 40
150.0
  1
直壁
  7
K
100
AcDbText
  0
LINE
  5
404
100
AcDbEntity
  8
ITTEN
100
AcDbLine
 10
1118.791792
 20
2814.137418
 30
0.0
 11
1118.791792
 21
2734.137418
 31
0.0
  0
LINE
  5
405
100
AcDbEntity
  8
ITTEN
100
AcDbLine
 10
1118.791792
 20
2104.137418
 30
0.0
 11
1118.791792
 21
2024.137418
 31
0.0
  0
LINE
  5
406
100
AcDbEntity
  8
TENSEN
100
AcDbLine
 10
1128.791792
 20
2084.137418
 30
0.0
 11
1128.791792
 21
2044.137418
 31
0.0
  0
LINE
  5
407
100
AcDbEntity
  8
TENSEN
100
AcDbLine
 10
1108.791792
 20
2084.137418
 30
0.0
 11
1108.791792
 21
2044.137418
 31
0.0
  0
TEXT
  5
408
100
AcDbEntity
  8
SUNPOU
100
AcDbText
 10
3987.489011
 20
1443.740568
 30
0.0
 40
45.0
  1
300
 50
90.0
  7
K
 72
     1
 11
3987.489011
 21
1508.026283
 31
0.0
100
AcDbText
  0
INSERT
  5
409
100
AcDbEntity
  8
SUNPOU
100
AcDbBlockReference
  2
ARROWANG
 10
4032.489011
 20
1658.026283
 30
0.0
 41
30.0
 42
30.0
 43
30.0
 50
90.0
  0
INSERT
  5
40A
100
AcDbEntity
  8
SUNPOU
100
AcDbBlockReference
  2
ARROWANG
 10
4032.489011
 20
1358.026283
 30
0.0
 41
30.0
 42
30.0
 43
30.0
 50
270.0
  0
LINE
  5
40B
100
AcDbEntity
  8
SUNPOU
100
AcDbLine
 10
4032.489011
 20
1358.026283
 30
0.0
 11
4032.489011
 21
1658.026283
 31
0.0
  0
LINE
  5
40C
100
AcDbEntity
  8
SUNPOU
100
AcDbLine
 10
4002.489011
 20
1658.026283
 30
0.0
 11
4002.489011
 21
1658.026283
 31
0.0
  0
LINE
  5
40D
100
AcDbEntity
  8
SUNPOU
100
AcDbLine
 10
4002.489011
 20
1358.026283
 30
0.0
 11
4002.489011
 21
1358.026283
 31
0.0
  0
LINE
  5
40E
100
AcDbEntity
  8
ITTEN
100
AcDbLine
 10
4837.489011
 20
1558.026283
 30
0.0
 11
4777.489011
 21
1558.026283
 31
0.0
  0
LINE
  5
40F
100
AcDbEntity
  8
ITTEN
100
AcDbLine
 10
4807.489011
 20
1588.026283
 30
0.0
 11
4807.489011
 21
1528.026283
 31
0.0
  0
TEXT
  5
410
100
AcDbEntity
  8
SUNPOU
100
AcDbText
 10
4577.568815
 20
1424.740568
 30
0.0
 40
45.0
  1
292
 50
90.0
  7
K
 72
     1
 11
4577.568815
 21
1489.026283
 31
0.0
100
AcDbText
  0
INSERT
  5
411
100
AcDbEntity
  8
SUNPOU
100
AcDbBlockReference
  2
ARROWANG
 10
4622.568815
 20
1635.026283
 30
0.0
 41
30.0
 42
30.0
 43
30.0
 50
90.0
  0
INSERT
  5
412
100
AcDbEntity
  8
SUNPOU
100
AcDbBlockReference
  2
ARROWANG
 10
4622.568815
 20
1343.026283
 30
0.0
 41
30.0
 42
30.0
 43
30.0
 50
270.0
  0
LINE
  5
413
100
AcDbEntity
  8
SUNPOU
100
AcDbLine
 10
4622.568815
 20
1343.026283
 30
0.0
 11
4622.568815
 21
1635.026283
 31
0.0
  0
LINE
  5
415
100
AcDbEntity
  8
SUNPOU
100
AcDbLine
 10
4592.568815
 20
1343.026283
 30
0.0
 11
4592.568815
 21
1343.026283
 31
0.0
  0
TEXT
  5
416
100
AcDbEntity
  8
SUNPOU
100
AcDbText
 10
4852.489011
 20
1216.276283
 30
0.0
 40
45.0
  1
100
 50
90.0
  7
K
 72
     1
 11
4852.489011
 21
1283.776283
 31
0.0
100
AcDbText
  0
LINE
  5
417
100
AcDbEntity
  8
SUNPOU
100
AcDbLine
 10
4897.489011
 20
1458.026283
 30
0.0
 11
4897.489011
 21
1518.026283
 31
0.0
  0
LINE
  5
418
100
AcDbEntity
  8
SUNPOU
100
AcDbLine
 10
4897.489011
 20
1358.026283
 30
0.0
 11
4897.489011
 21
1209.526283
 31
0.0
  0
INSERT
  5
419
100
AcDbEntity
  8
SUNPOU
100
AcDbBlockReference
  2
ARROWANG
 10
4897.489011
 20
1458.026283
 30
0.0
 41
30.0
 42
30.0
 43
30.0
 50
270.0
  0
INSERT
  5
41A
100
AcDbEntity
  8
SUNPOU
100
AcDbBlockReference
  2
ARROWANG
 10
4897.489011
 20
1358.026283
 30
0.0
 41
30.0
 42
30.0
 43
30.0
 50
90.0
  0
LINE
  5
41B
100
AcDbEntity
  8
SUNPOU
100
AcDbLine
 10
4807.489011
 20
1458.026283
 30
0.0
 11
4927.489011
 21
1458.026283
 31
0.0
  0
LINE
  5
41C
100
AcDbEntity
  8
SUNPOU
100
AcDbLine
 10
4927.489011
 20
1358.026283
 30
0.0
 11
4927.489011
 21
1358.026283
 31
0.0
  0
TEXT
  5
41D
100
AcDbEntity
  8
SUNPOU
100
AcDbText
 10
4852.489011
 20
1664.776283
 30
0.0
 40
45.0
  1
100
 50
90.0
  7
K
 72
     1
 11
4852.489011
 21
1732.276283
 31
0.0
100
AcDbText
  0
LINE
  5
41E
100
AcDbEntity
  8
SUNPOU
100
AcDbLine
 10
4897.489011
 20
1558.026283
 30
0.0
 11
4897.489012
 21
1498.026283
 31
0.0
  0
LINE
  5
41F
100
AcDbEntity
  8
SUNPOU
100
AcDbLine
 10
4897.489011
 20
1658.026283
 30
0.0
 11
4897.489011
 21
1806.526283
 31
0.0
  0
INSERT
  5
420
100
AcDbEntity
  8
SUNPOU
100
AcDbBlockReference
  2
ARROWANG
 10
4897.489011
 20
1658.026283
 30
0.0
 41
30.0
 42
30.0
 43
30.0
 50
270.0
  0
INSERT
  5
421
100
AcDbEntity
  8
SUNPOU
100
AcDbBlockReference
  2
ARROWANG
 10
4897.489011
 20
1558.026283
 30
0.0
 41
30.0
 42
30.0
 43
30.0
 50
90.0
  0
LINE
  5
422
100
AcDbEntity
  8
SUNPOU
100
AcDbLine
 10
4927.489011
 20
1658.026283
 30
0.0
 11
4927.489011
 21
1658.026283
 31
0.0
  0
LINE
  5
423
100
AcDbEntity
  8
SUNPOU
100
AcDbLine
 10
4807.489011
 20
1558.026283
 30
0.0
 11
4927.489011
 21
1558.026283
 31
0.0
  0
LINE
  5
424
100
AcDbEntity
  8
ITTEN
100
AcDbLine
 10
6207.489011
 20
1458.026283
 30
0.0
 11
6032.489011
 21
1458.026283
 31
0.0
  0
LINE
  5
425
100
AcDbEntity
  8
ITTEN
100
AcDbLine
 10
6707.489011
 20
1558.026283
 30
0.0
 11
6882.489011
 21
1558.026283
 31
0.0
  0
LINE
  5
426
100
AcDbEntity
  8
ITTEN
100
AcDbLine
 10
6882.489011
 20
1458.026283
 30
0.0
 11
6707.489011
 21
1458.026283
 31
0.0
  0
LINE
  5
427
100
AcDbEntity
  8
ITTEN
100
AcDbLine
 10
6032.489011
 20
1558.026283
 30
0.0
 11
6207.489011
 21
1558.026283
 31
0.0
  0
LINE
  5
428
100
AcDbEntity
  8
TENSEN
100
AcDbLine
 10
6782.489011
 20
1548.026283
 30
0.0
 11
6832.489011
 21
1548.026283
 31
0.0
  0
LINE
  5
429
100
AcDbEntity
  8
TENSEN
100
AcDbLine
 10
6782.489011
 20
1568.026283
 30
0.0
 11
6782.489011
 21
1548.026283
 31
0.0
  0
LINE
  5
42A
100
AcDbEntity
  8
TENSEN
100
AcDbLine
 10
6832.489011
 20
1568.026283
 30
0.0
 11
6782.489011
 21
1568.026283
 31
0.0
  0
LINE
  5
42B
100
AcDbEntity
  8
TENSEN
100
AcDbLine
 10
6782.489011
 20
1468.026283
 30
0.0
 11
6832.489011
 21
1468.026283
 31
0.0
  0
LINE
  5
42C
100
AcDbEntity
  8
TENSEN
100
AcDbLine
 10
6782.489011
 20
1448.026283
 30
0.0
 11
6782.489011
 21
1468.026283
 31
0.0
  0
LINE
  5
42D
100
AcDbEntity
  8
TENSEN
100
AcDbLine
 10
6832.489011
 20
1448.026283
 30
0.0
 11
6782.489011
 21
1448.026283
 31
0.0
  0
LINE
  5
42E
100
AcDbEntity
  8
JISSEN
100
AcDbLine
 10
6132.489011
 20
1448.026283
 30
0.0
 11
6082.489011
 21
1448.026283
 31
0.0
  0
LINE
  5
42F
100
AcDbEntity
  8
JISSEN
100
AcDbLine
 10
6132.489011
 20
1468.026283
 30
0.0
 11
6132.489011
 21
1448.026283
 31
0.0
  0
LINE
  5
430
100
AcDbEntity
  8
JISSEN
100
AcDbLine
 10
6082.489011
 20
1468.026283
 30
0.0
 11
6132.489011
 21
1468.026283
 31
0.0
  0
LINE
  5
431
100
AcDbEntity
  8
JISSEN
100
AcDbLine
 10
6132.489011
 20
1548.026283
 30
0.0
 11
6082.489011
 21
1548.026283
 31
0.0
  0
LINE
  5
432
100
AcDbEntity
  8
JISSEN
100
AcDbLine
 10
6132.489011
 20
1568.026283
 30
0.0
 11
6132.489011
 21
1548.026283
 31
0.0
  0
LINE
  5
433
100
AcDbEntity
  8
JISSEN
100
AcDbLine
 10
6082.489011
 20
1568.026283
 30
0.0
 11
6132.489011
 21
1568.026283
 31
0.0
  0
LINE
  5
434
100
AcDbEntity
  8
ITTEN
100
AcDbLine
 10
4837.489011
 20
1458.026283
 30
0.0
 11
4777.489011
 21
1458.026283
 31
0.0
  0
LINE
  5
435
100
AcDbEntity
  8
ITTEN
100
AcDbLine
 10
4807.489011
 20
1488.026283
 30
0.0
 11
4807.489011
 21
1428.026283
 31
0.0
  0
CIRCLE
  5
436
100
AcDbEntity
  8
JISSEN
100
AcDbCircle
 10
4807.489011
 20
1458.026283
 30
0.0
 40
10.0
  0
CIRCLE
  5
437
100
AcDbEntity
  8
JISSEN
100
AcDbCircle
 10
4807.489011
 20
1558.026283
 30
0.0
 40
10.0
  0
LINE
  5
438
100
AcDbEntity
  8
ITTEN
100
AcDbLine
 10
6257.489011
 20
1493.026283
 30
0.0
 11
6657.489011
 21
1493.026283
 31
0.0
  0
LINE
  5
439
100
AcDbEntity
  8
JISSEN
100
AcDbLine
 10
6457.489011
 20
1480.526283
 30
0.0
 11
6320.989011
 21
1480.526283
 31
0.0
  0
LINE
  5
43A
100
AcDbEntity
  8
TENSEN
100
AcDbLine
 10
6593.989011
 20
1480.526283
 30
0.0
 11
6457.489011
 21
1480.526283
 31
0.0
  0
LINE
  5
43B
100
AcDbEntity
  8
TENSEN
100
AcDbLine
 10
6457.489011
 20
1505.526283
 30
0.0
 11
6593.989011
 21
1505.526283
 31
0.0
  0
LINE
  5
43C
100
AcDbEntity
  8
JISSEN
100
AcDbLine
 10
6320.989011
 20
1505.526283
 30
0.0
 11
6457.489011
 21
1505.526283
 31
0.0
  0
ARC
  5
43D
100
AcDbEntity
  8
JISSEN
100
AcDbCircle
 10
6320.989011
 20
1493.026283
 30
0.0
 40
12.5
100
AcDbArc
 50
90.0
 51
270.0
  0
ARC
  5
43E
100
AcDbEntity
  8
TENSEN
100
AcDbCircle
 10
6593.989011
 20
1493.026283
 30
0.0
 40
12.5
100
AcDbArc
 50
270.0
 51
90.0
  0
LINE
  5
43F
100
AcDbEntity
  8
ITTEN
100
AcDbLine
 10
6457.489011
 20
1758.026283
 30
0.0
 11
6457.489011
 21
1258.026283
 31
0.0
  0
TEXT
  5
440
100
AcDbEntity
  8
SUNPOU
100
AcDbText
 10
6392.131882
 20
1853.026283
 30
0.0
 40
45.0
  1
600
  7
K
 72
     1
 11
6457.489025
 21
1853.026283
 31
0.0
100
AcDbText
  0
INSERT
  5
441
100
AcDbEntity
  8
SUNPOU
100
AcDbBlockReference
  2
ARROWANG
 10
6757.489011
 20
1808.026283
 30
0.0
 41
30.0
 42
30.0
 43
30.0
  0
INSERT
  5
442
100
AcDbEntity
  8
SUNPOU
100
AcDbBlockReference
  2
ARROWANG
 10
6157.489011
 20
1808.026283
 30
0.0
 41
30.0
 42
30.0
 43
30.0
 50
180.0
  0
LINE
  5
443
100
AcDbEntity
  8
SUNPOU
100
AcDbLine
 10
6157.489011
 20
1808.026283
 30
0.0
 11
6757.489011
 21
1808.026283
 31
0.0
  0
LINE
  5
444
100
AcDbEntity
  8
SUNPOU
100
AcDbLine
 10
6757.489011
 20
1778.026283
 30
0.0
 11
6757.489011
 21
1778.026283
 31
0.0
  0
LINE
  5
445
100
AcDbEntity
  8
SUNPOU
100
AcDbLine
 10
6157.489011
 20
1778.026283
 30
0.0
 11
6157.489011
 21
1778.026283
 31
0.0
  0
LINE
  5
446
100
AcDbEntity
  8
SUNPOU
100
AcDbLine
 10
6757.489011
 20
1808.026283
 30
0.0
 11
6697.489011
 21
1808.026283
 31
0.0
  0
LINE
  5
447
100
AcDbEntity
  8
SUNPOU
100
AcDbLine
 10
6832.489011
 20
1808.026283
 30
0.0
 11
6892.489011
 21
1808.026283
 31
0.0
  0
TEXT
  5
448
100
AcDbEntity
  8
SUNPOU
100
AcDbText
 10
6752.131882
 20
1853.026283
 30
0.0
 40
45.0
  1
75
  7
K
 72
     1
 11
6794.989025
 21
1853.026283
 31
0.0
100
AcDbText
  0
INSERT
  5
449
100
AcDbEntity
  8
SUNPOU
100
AcDbBlockReference
  2
ARROWANG
 10
6757.489011
 20
1808.026283
 30
0.0
 41
30.0
 42
30.0
 43
30.0
  0
INSERT
  5
44A
100
AcDbEntity
  8
SUNPOU
100
AcDbBlockReference
  2
ARROWANG
 10
6832.489011
 20
1808.026283
 30
0.0
 41
30.0
 42
30.0
 43
30.0
 50
180.0
  0
LINE
  5
44B
100
AcDbEntity
  8
SUNPOU
100
AcDbLine
 10
6757.489011
 20
1808.026283
 30
0.0
 11
6832.489011
 21
1808.026283
 31
0.0
  0
LINE
  5
44C
100
AcDbEntity
  8
SUNPOU
100
AcDbLine
 10
6832.489011
 20
1838.026283
 30
0.0
 11
6832.489011
 21
1838.026283
 31
0.0
  0
LINE
  5
44D
100
AcDbEntity
  8
SUNPOU
100
AcDbLine
 10
6757.489011
 20
1665.026283
 30
0.0
 11
6757.489011
 21
1838.026283
 31
0.0
  0
LINE
  5
44E
100
AcDbEntity
  8
SUNPOU
100
AcDbLine
 10
6082.489011
 20
1808.026283
 30
0.0
 11
6022.489011
 21
1808.026283
 31
0.0
  0
LINE
  5
44F
100
AcDbEntity
  8
SUNPOU
100
AcDbLine
 10
6157.489011
 20
1808.026283
 30
0.0
 11
6217.489011
 21
1808.026283
 31
0.0
  0
TEXT
  5
450
100
AcDbEntity
  8
SUNPOU
100
AcDbText
 10
6077.131882
 20
1853.026283
 30
0.0
 40
45.0
  1
75
  7
K
 72
     1
 11
6119.989025
 21
1853.026283
 31
0.0
100
AcDbText
  0
INSERT
  5
451
100
AcDbEntity
  8
SUNPOU
100
AcDbBlockReference
  2
ARROWANG
 10
6082.489011
 20
1808.026283
 30
0.0
 41
30.0
 42
30.0
 43
30.0
  0
INSERT
  5
452
100
AcDbEntity
  8
SUNPOU
100
AcDbBlockReference
  2
ARROWANG
 10
6157.489011
 20
1808.026283
 30
0.0
 41
30.0
 42
30.0
 43
30.0
 50
180.0
  0
LINE
  5
453
100
AcDbEntity
  8
SUNPOU
100
AcDbLine
 10
6082.489011
 20
1808.026283
 30
0.0
 11
6157.489011
 21
1808.026283
 31
0.0
  0
LINE
  5
454
100
AcDbEntity
  8
SUNPOU
100
AcDbLine
 10
6157.489011
 20
1665.026283
 30
0.0
 11
6157.489011
 21
1838.026283
 31
0.0
  0
LINE
  5
455
100
AcDbEntity
  8
SUNPOU
100
AcDbLine
 10
6082.489011
 20
1838.026283
 30
0.0
 11
6082.489011
 21
1838.026283
 31
0.0
  0
TEXT
  5
456
100
AcDbEntity
  8
SUNPOU
100
AcDbText
 10
6393.203296
 20
2003.026283
 30
0.0
 40
45.0
  1
750
  7
K
 72
     1
 11
6457.489011
 21
2003.026283
 31
0.0
100
AcDbText
  0
INSERT
  5
457
100
AcDbEntity
  8
SUNPOU
100
AcDbBlockReference
  2
ARROWANG
 10
6082.489011
 20
1958.026283
 30
0.0
 41
30.0
 42
30.0
 43
30.0
 50
180.0
  0
INSERT
  5
458
100
AcDbEntity
  8
SUNPOU
100
AcDbBlockReference
  2
ARROWANG
 10
6832.489011
 20
1958.026283
 30
0.0
 41
30.0
 42
30.0
 43
30.0
  0
LINE
  5
459
100
AcDbEntity
  8
SUNPOU
100
AcDbLine
 10
6082.489011
 20
1958.026283
 30
0.0
 11
6832.489011
 21
1958.026283
 31
0.0
  0
LINE
  5
45A
100
AcDbEntity
  8
SUNPOU
100
AcDbLine
 10
6832.489011
 20
1688.026283
 30
0.0
 11
6832.489011
 21
1988.026283
 31
0.0
  0
LINE
  5
45B
100
AcDbEntity
  8
SUNPOU
100
AcDbLine
 10
6082.489011
 20
1688.026283
 30
0.0
 11
6082.489011
 21
1988.026283
 31
0.0
  0
LINE
  5
45C
100
AcDbEntity
  8
JISSEN
100
AcDbLine
 10
6082.489011
 20
1658.026283
 30
0.0
 11
6122.489011
 21
1658.026283
 31
0.0
  0
LINE
  5
45D
100
AcDbEntity
  8
JISSEN
100
AcDbLine
 10
6122.489011
 20
1658.026283
 30
0.0
 11
6129.489011
 21
1635.026283
 31
0.0
  0
LINE
  5
45E
100
AcDbEntity
  8
JISSEN
100
AcDbLine
 10
6129.489011
 20
1635.026283
 30
0.0
 11
6157.489011
 21
1635.026283
 31
0.0
  0
LINE
  5
45F
100
AcDbEntity
  8
JISSEN
100
AcDbLine
 10
6082.489011
 20
1658.026283
 30
0.0
 11
6082.489011
 21
1358.026283
 31
0.0
  0
LINE
  5
460
100
AcDbEntity
  8
JISSEN
100
AcDbLine
 10
6082.489011
 20
1358.026283
 30
0.0
 11
6123.489011
 21
1358.026283
 31
0.0
  0
LINE
  5
461
100
AcDbEntity
  8
JISSEN
100
AcDbLine
 10
6123.489011
 20
1358.026283
 30
0.0
 11
6132.489011
 21
1343.026283
 31
0.0
  0
LINE
  5
462
100
AcDbEntity
  8
JISSEN
100
AcDbLine
 10
6132.489011
 20
1343.026283
 30
0.0
 11
6157.489011
 21
1343.026283
 31
0.0
  0
LINE
  5
463
100
AcDbEntity
  8
JISSEN
100
AcDbLine
 10
6157.489011
 20
1635.026283
 30
0.0
 11
6157.489011
 21
1343.026283
 31
0.0
  0
LINE
  5
464
100
AcDbEntity
  8
TENSEN
100
AcDbLine
 10
6757.489011
 20
1635.026283
 30
0.0
 11
6757.489011
 21
1343.026283
 31
0.0
  0
LINE
  5
465
100
AcDbEntity
  8
JISSEN
100
AcDbLine
 10
6782.489011
 20
1343.026283
 30
0.0
 11
6757.489011
 21
1343.026283
 31
0.0
  0
LINE
  5
466
100
AcDbEntity
  8
JISSEN
100
AcDbLine
 10
6791.489011
 20
1358.026283
 30
0.0
 11
6782.489011
 21
1343.026283
 31
0.0
  0
LINE
  5
467
100
AcDbEntity
  8
JISSEN
100
AcDbLine
 10
6832.489011
 20
1358.026283
 30
0.0
 11
6791.489011
 21
1358.026283
 31
0.0
  0
LINE
  5
468
100
AcDbEntity
  8
JISSEN
100
AcDbLine
 10
6832.489011
 20
1658.026283
 30
0.0
 11
6832.489011
 21
1358.026283
 31
0.0
  0
LINE
  5
469
100
AcDbEntity
  8
TENSEN
100
AcDbLine
 10
6785.489011
 20
1635.026283
 30
0.0
 11
6757.489011
 21
1635.026283
 31
0.0
  0
LINE
  5
46A
100
AcDbEntity
  8
TENSEN
100
AcDbLine
 10
6792.489011
 20
1658.026283
 30
0.0
 11
6785.489011
 21
1635.026283
 31
0.0
  0
LINE
  5
46B
100
AcDbEntity
  8
JISSEN
100
AcDbLine
 10
6832.489011
 20
1658.026283
 30
0.0
 11
6792.489011
 21
1658.026283
 31
0.0
  0
LINE
  5
46C
100
AcDbEntity
  8
JISSEN
100
AcDbLine
 10
6123.489011
 20
1658.026283
 30
0.0
 11
6792.489011
 21
1658.026283
 31
0.0
  0
LINE
  5
46D
100
AcDbEntity
  8
JISSEN
100
AcDbLine
 10
6157.489011
 20
1635.026283
 30
0.0
 11
6457.489011
 21
1635.026283
 31
0.0
  0
LINE
  5
46E
100
AcDbEntity
  8
TENSEN
100
AcDbLine
 10
6457.489011
 20
1635.026283
 30
0.0
 11
6757.489011
 21
1635.026283
 31
0.0
  0
LINE
  5
46F
100
AcDbEntity
  8
JISSEN
100
AcDbLine
 10
6157.489011
 20
1343.026283
 30
0.0
 11
6757.489011
 21
1343.026283
 31
0.0
  0
LINE
  5
470
100
AcDbEntity
  8
TENSEN
100
AcDbLine
 10
6123.489011
 20
1358.026283
 30
0.0
 11
6457.489011
 21
1358.026283
 31
0.0
  0
LINE
  5
471
100
AcDbEntity
  8
JISSEN
100
AcDbLine
 10
6457.489011
 20
1358.026283
 30
0.0
 11
6791.489011
 21
1358.026283
 31
0.0
  0
LINE
  5
472
100
AcDbEntity
  8
SUNPOU
100
AcDbLine
 10
6277.489011
 20
1343.026283
 30
0.0
 11
6277.489011
 21
1343.026283
 31
0.0
  0
LINE
  5
473
100
AcDbEntity
  8
SUNPOU
100
AcDbLine
 10
6437.489011
 20
1343.026283
 30
0.0
 11
6452.568815
 21
1343.026283
 31
0.0
  0
LINE
  5
474
100
AcDbEntity
  8
SUNPOU
100
AcDbLine
 10
6437.489011
 20
1635.026283
 30
0.0
 11
6452.568815
 21
1635.026283
 31
0.0
  0
LINE
  5
476
100
AcDbEntity
  8
SUNPOU
100
AcDbLine
 10
4637.489011
 20
1343.026283
 30
0.0
 11
4652.568815
 21
1343.026283
 31
0.0
  0
TEXT
  5
477
100
AcDbEntity
  8
SUNPOU
100
AcDbText
 10
4462.489011
 20
1350.526283
 30
0.0
 40
45.0
  1
150
 50
90.0
  7
K
 72
     1
 11
4462.489011
 21
1418.026283
 31
0.0
100
AcDbText
  0
INSERT
  5
478
100
AcDbEntity
  8
SUNPOU
100
AcDbBlockReference
  2
ARROWANG
 10
4507.489011
 20
1493.026283
 30
0.0
 41
30.0
 42
30.0
 43
30.0
 50
90.0
  0
INSERT
  5
479
100
AcDbEntity
  8
SUNPOU
100
AcDbBlockReference
  2
ARROWANG
 10
4507.489011
 20
1343.026283
 30
0.0
 41
30.0
 42
30.0
 43
30.0
 50
270.0
  0
LINE
  5
47A
100
AcDbEntity
  8
SUNPOU
100
AcDbLine
 10
4507.489011
 20
1343.026283
 30
0.0
 11
4507.489011
 21
1493.026283
 31
0.0
  0
LINE
  5
47B
100
AcDbEntity
  8
SUNPOU
100
AcDbLine
 10
4477.489011
 20
1493.026283
 30
0.0
 11
4477.489011
 21
1493.026283
 31
0.0
  0
LINE
  5
47C
100
AcDbEntity
  8
SUNPOU
100
AcDbLine
 10
4477.489011
 20
1343.026283
 30
0.0
 11
4477.489011
 21
1343.026283
 31
0.0
  0
LINE
  5
47D
100
AcDbEntity
  8
ITTEN
100
AcDbLine
 10
4257.489011
 20
1493.026283
 30
0.0
 11
4523.713287
 21
1493.026283
 31
0.0
  0
LINE
  5
47E
100
AcDbEntity
  8
JISSEN
100
AcDbLine
 10
4457.489011
 20
1480.526283
 30
0.0
 11
4357.489011
 21
1480.526283
 31
0.0
  0
LINE
  5
47F
100
AcDbEntity
  8
JISSEN
100
AcDbLine
 10
4357.489011
 20
1505.526283
 30
0.0
 11
4457.489011
 21
1505.526283
 31
0.0
  0
ARC
  5
480
100
AcDbEntity
  8
JISSEN
100
AcDbCircle
 10
4457.489011
 20
1493.026283
 30
0.0
 40
12.5
100
AcDbArc
 50
270.0
 51
90.0
  0
TEXT
  5
481
100
AcDbEntity
  8
SUNPOU
100
AcDbText
 10
4137.489011
 20
1361.454854
 30
0.0
 40
45.0
  1
15
 50
90.0
  7
K
 72
     1
 11
4137.489011
 21
1407.526283
 31
0.0
100
AcDbText
  0
LINE
  5
482
100
AcDbEntity
  8
SUNPOU
100
AcDbLine
 10
4182.489011
 20
1343.026283
 30
0.0
 11
4182.489012
 21
1283.026283
 31
0.0
  0
LINE
  5
483
100
AcDbEntity
  8
SUNPOU
100
AcDbLine
 10
4182.489011
 20
1358.026283
 30
0.0
 11
4182.489011
 21
1457.026283
 31
0.0
  0
INSERT
  5
484
100
AcDbEntity
  8
SUNPOU
100
AcDbBlockReference
  2
ARROWANG
 10
4182.489011
 20
1358.026283
 30
0.0
 41
30.0
 42
30.0
 43
30.0
 50
270.0
  0
INSERT
  5
485
100
AcDbEntity
  8
SUNPOU
100
AcDbBlockReference
  2
ARROWANG
 10
4182.489011
 20
1343.026283
 30
0.0
 41
30.0
 42
30.0
 43
30.0
 50
90.0
  0
LINE
  5
486
100
AcDbEntity
  8
SUNPOU
100
AcDbLine
 10
4212.489011
 20
1358.026283
 30
0.0
 11
4212.489011
 21
1358.026283
 31
0.0
  0
LINE
  5
487
100
AcDbEntity
  8
SUNPOU
100
AcDbLine
 10
4302.489011
 20
1343.026283
 30
0.0
 11
4152.489011
 21
1343.026283
 31
0.0
  0
TEXT
  5
488
100
AcDbEntity
  8
SUNPOU
100
AcDbText
 10
4137.489011
 20
1542.66914
 30
0.0
 40
45.0
  1
23
 50
90.0
  7
K
 72
     1
 11
4137.489011
 21
1585.526283
 31
0.0
100
AcDbText
  0
LINE
  5
489
100
AcDbEntity
  8
SUNPOU
100
AcDbLine
 10
4182.489011
 20
1658.026283
 30
0.0
 11
4182.489011
 21
1718.026283
 31
0.0
  0
LINE
  5
48A
100
AcDbEntity
  8
SUNPOU
100
AcDbLine
 10
4182.489011
 20
1635.026283
 30
0.0
 11
4182.489011
 21
1836.026283
 31
0.0
  0
INSERT
  5
48B
100
AcDbEntity
  8
SUNPOU
100
AcDbBlockReference
  2
ARROWANG
 10
4182.489011
 20
1658.026283
 30
0.0
 41
30.0
 42
30.0
 43
30.0
 50
270.0
  0
INSERT
  5
48C
100
AcDbEntity
  8
SUNPOU
100
AcDbBlockReference
  2
ARROWANG
 10
4182.489011
 20
1635.026283
 30
0.0
 41
30.0
 42
30.0
 43
30.0
 50
90.0
  0
LINE
  5
48D
100
AcDbEntity
  8
SUNPOU
100
AcDbLine
 10
4212.489011
 20
1658.026283
 30
0.0
 11
4212.489011
 21
1658.026283
 31
0.0
  0
LINE
  5
48E
100
AcDbEntity
  8
SUNPOU
100
AcDbLine
 10
4299.489011
 20
1635.026283
 30
0.0
 11
4152.489011
 21
1635.026283
 31
0.0
  0
LINE
  5
48F
100
AcDbEntity
  8
SUNPOU
100
AcDbLine
 10
4252.489011
 20
1658.026283
 30
0.0
 11
4002.489011
 21
1658.026283
 31
0.0
  0
LINE
  5
490
100
AcDbEntity
  8
SUNPOU
100
AcDbLine
 10
4252.489011
 20
1358.026283
 30
0.0
 11
4002.489011
 21
1358.026283
 31
0.0
  0
LINE
  5
4B9
100
AcDbEntity
  8
ITTEN
100
AcDbLine
 10
4807.489011
 20
1758.026283
 30
0.0
 11
4807.489011
 21
1258.026283
 31
0.0
  0
LINE
  5
4BC
100
AcDbEntity
  8
JISSEN
100
AcDbLine
 10
4357.489011
 20
1343.026283
 30
0.0
 11
5257.489011
 21
1343.026283
 31
0.0
  0
LINE
  5
4BF
100
AcDbEntity
  8
JISSEN
100
AcDbLine
 10
4323.489011
 20
1658.026283
 30
0.0
 11
5292.489011
 21
1658.026283
 31
0.0
  0
LINE
  5
4C0
100
AcDbEntity
  8
JISSEN
100
AcDbLine
 10
5332.489011
 20
1658.026283
 30
0.0
 11
5292.489011
 21
1658.026283
 31
0.0
  0
LINE
  5
4C1
100
AcDbEntity
  8
TENSEN
100
AcDbLine
 10
5292.489011
 20
1658.026283
 30
0.0
 11
5285.489011
 21
1635.026283
 31
0.0
  0
LINE
  5
4C2
100
AcDbEntity
  8
TENSEN
100
AcDbLine
 10
5285.489011
 20
1635.026283
 30
0.0
 11
5257.489011
 21
1635.026283
 31
0.0
  0
LINE
  5
4C3
100
AcDbEntity
  8
JISSEN
100
AcDbLine
 10
5332.489011
 20
1658.026283
 30
0.0
 11
5332.489011
 21
1358.026283
 31
0.0
  0
LINE
  5
4C4
100
AcDbEntity
  8
JISSEN
100
AcDbLine
 10
5332.489011
 20
1358.026283
 30
0.0
 11
5291.489011
 21
1358.026283
 31
0.0
  0
LINE
  5
4C5
100
AcDbEntity
  8
JISSEN
100
AcDbLine
 10
5291.489011
 20
1358.026283
 30
0.0
 11
5282.489011
 21
1343.026283
 31
0.0
  0
LINE
  5
4C6
100
AcDbEntity
  8
JISSEN
100
AcDbLine
 10
5282.489011
 20
1343.026283
 30
0.0
 11
5257.489011
 21
1343.026283
 31
0.0
  0
LINE
  5
4C7
100
AcDbEntity
  8
TENSEN
100
AcDbLine
 10
5257.489011
 20
1635.026283
 30
0.0
 11
5257.489011
 21
1343.026283
 31
0.0
  0
LINE
  5
4C8
100
AcDbEntity
  8
JISSEN
100
AcDbLine
 10
4357.489011
 20
1635.026283
 30
0.0
 11
4357.489011
 21
1343.026283
 31
0.0
  0
LINE
  5
4C9
100
AcDbEntity
  8
JISSEN
100
AcDbLine
 10
4332.489011
 20
1343.026283
 30
0.0
 11
4357.489011
 21
1343.026283
 31
0.0
  0
LINE
  5
4CA
100
AcDbEntity
  8
JISSEN
100
AcDbLine
 10
4323.489011
 20
1358.026283
 30
0.0
 11
4332.489011
 21
1343.026283
 31
0.0
  0
LINE
  5
4CB
100
AcDbEntity
  8
JISSEN
100
AcDbLine
 10
4282.489011
 20
1358.026283
 30
0.0
 11
4323.489011
 21
1358.026283
 31
0.0
  0
LINE
  5
4CC
100
AcDbEntity
  8
JISSEN
100
AcDbLine
 10
4282.489011
 20
1658.026283
 30
0.0
 11
4282.489011
 21
1358.026283
 31
0.0
  0
LINE
  5
4CD
100
AcDbEntity
  8
JISSEN
100
AcDbLine
 10
4329.489011
 20
1635.026283
 30
0.0
 11
4357.489011
 21
1635.026283
 31
0.0
  0
LINE
  5
4CE
100
AcDbEntity
  8
JISSEN
100
AcDbLine
 10
4322.489011
 20
1658.026283
 30
0.0
 11
4329.489011
 21
1635.026283
 31
0.0
  0
LINE
  5
4CF
100
AcDbEntity
  8
JISSEN
100
AcDbLine
 10
4282.489011
 20
1658.026283
 30
0.0
 11
4322.489011
 21
1658.026283
 31
0.0
  0
LINE
  5
4D0
100
AcDbEntity
  8
ITTEN
100
AcDbLine
 10
6257.489011
 20
1493.026283
 30
0.0
 11
6357.489011
 21
1493.026283
 31
0.0
  0
LINE
  5
4D1
100
AcDbEntity
  8
SUNPOU
100
AcDbLine
 10
4477.489011
 20
1493.026283
 30
0.0
 11
4477.489011
 21
1493.026283
 31
0.0
  0
TEXT
  5
4D2
100
AcDbEntity
  8
SUNPOU
100
AcDbText
 10
4703.415827
 20
3767.109018
 30
0.0
 40
45.0
  1
592
 50
90.0
  7
K
 72
     1
 11
4703.415827
 21
3831.394733
 31
0.0
100
AcDbText
  0
INSERT
  5
4D3
100
AcDbEntity
  8
SUNPOU
100
AcDbBlockReference
  2
ARROWANG
 10
4748.415827
 20
4127.394733
 30
0.0
 41
30.0
 42
30.0
 43
30.0
 50
90.0
  0
INSERT
  5
4D4
100
AcDbEntity
  8
SUNPOU
100
AcDbBlockReference
  2
ARROWANG
 10
4748.415827
 20
3535.394733
 30
0.0
 41
30.0
 42
30.0
 43
30.0
 50
270.0
  0
LINE
  5
4D5
100
AcDbEntity
  8
SUNPOU
100
AcDbLine
 10
4748.415827
 20
3535.394733
 30
0.0
 11
4748.415827
 21
4127.394733
 31
0.0
  0
LINE
  5
4D6
100
AcDbEntity
  8
SUNPOU
100
AcDbLine
 10
4718.415827
 20
4127.394733
 30
0.0
 11
4718.415827
 21
4127.394733
 31
0.0
  0
LINE
  5
4D7
100
AcDbEntity
  8
SUNPOU
100
AcDbLine
 10
4718.415827
 20
3535.394733
 30
0.0
 11
4718.415827
 21
3535.394733
 31
0.0
  0
TEXT
  5
4D8
100
AcDbEntity
  8
SUNPOU
100
AcDbText
 10
4588.336022
 20
3771.109018
 30
0.0
 40
45.0
  1
300
 50
90.0
  7
K
 72
     1
 11
4588.336022
 21
3835.394733
 31
0.0
100
AcDbText
  0
INSERT
  5
4D9
100
AcDbEntity
  8
SUNPOU
100
AcDbBlockReference
  2
ARROWANG
 10
4633.336022
 20
3985.394733
 30
0.0
 41
30.0
 42
30.0
 43
30.0
 50
90.0
  0
INSERT
  5
4DA
100
AcDbEntity
  8
SUNPOU
100
AcDbBlockReference
  2
ARROWANG
 10
4633.336022
 20
3685.394733
 30
0.0
 41
30.0
 42
30.0
 43
30.0
 50
270.0
  0
LINE
  5
4DB
100
AcDbEntity
  8
SUNPOU
100
AcDbLine
 10
4633.336022
 20
3685.394733
 30
0.0
 11
4633.336022
 21
3985.394733
 31
0.0
  0
LINE
  5
4DC
100
AcDbEntity
  8
SUNPOU
100
AcDbLine
 10
4603.336022
 20
3985.394733
 30
0.0
 11
4603.336022
 21
3985.394733
 31
0.0
  0
LINE
  5
4DD
100
AcDbEntity
  8
SUNPOU
100
AcDbLine
 10
4603.336022
 20
3685.394733
 30
0.0
 11
4603.336022
 21
3685.394733
 31
0.0
  0
TEXT
  5
4DE
100
AcDbEntity
  8
SUNPOU
100
AcDbText
 10
4113.336022
 20
3785.03759
 30
0.0
 40
45.0
  1
600
 50
90.0
  7
K
 72
     1
 11
4113.336022
 21
3850.394733
 31
0.0
100
AcDbText
  0
INSERT
  5
4DF
100
AcDbEntity
  8
SUNPOU
100
AcDbBlockReference
  2
ARROWANG
 10
4158.336022
 20
4150.394733
 30
0.0
 41
30.0
 42
30.0
 43
30.0
 50
90.0
  0
INSERT
  5
4E0
100
AcDbEntity
  8
SUNPOU
100
AcDbBlockReference
  2
ARROWANG
 10
4158.336022
 20
3550.394733
 30
0.0
 41
30.0
 42
30.0
 43
30.0
 50
270.0
  0
LINE
  5
4E1
100
AcDbEntity
  8
SUNPOU
100
AcDbLine
 10
4158.336022
 20
3550.394733
 30
0.0
 11
4158.336022
 21
4150.394733
 31
0.0
  0
LINE
  5
4E2
100
AcDbEntity
  8
SUNPOU
100
AcDbLine
 10
4128.336022
 20
4150.394733
 30
0.0
 11
4128.336022
 21
4150.394733
 31
0.0
  0
LINE
  5
4E3
100
AcDbEntity
  8
SUNPOU
100
AcDbLine
 10
4128.336022
 20
3550.394733
 30
0.0
 11
4128.336022
 21
3550.394733
 31
0.0
  0
LINE
  5
4E4
100
AcDbEntity
  8
ITTEN
100
AcDbLine
 10
6283.336022
 20
3685.394733
 30
0.0
 11
6383.336022
 21
3685.394733
 31
0.0
  0
LINE
  5
4E5
100
AcDbEntity
  8
ITTEN
100
AcDbLine
 10
6283.336022
 20
3985.394733
 30
0.0
 11
6383.336022
 21
3985.394733
 31
0.0
  0
LINE
  5
4E6
100
AcDbEntity
  8
ITTEN
100
AcDbLine
 10
2468.791792
 20
3444.137418
 30
0.0
 11
2568.791792
 21
3444.137418
 31
0.0
  0
LINE
  5
4E7
100
AcDbEntity
  8
ITTEN
100
AcDbLine
 10
2468.791792
 20
4044.137418
 30
0.0
 11
2568.791792
 21
4044.137418
 31
0.0
  0
LINE
  5
4E8
100
AcDbEntity
  8
JISSEN
100
AcDbLine
 10
4408.336022
 20
4150.394733
 30
0.0
 11
4448.336022
 21
4150.394733
 31
0.0
  0
LINE
  5
4E9
100
AcDbEntity
  8
JISSEN
100
AcDbLine
 10
4448.336022
 20
4150.394733
 30
0.0
 11
4455.336022
 21
4127.394733
 31
0.0
  0
LINE
  5
4EA
100
AcDbEntity
  8
JISSEN
100
AcDbLine
 10
4455.336022
 20
4127.394733
 30
0.0
 11
4483.336022
 21
4127.394733
 31
0.0
  0
LINE
  5
4EB
100
AcDbEntity
  8
JISSEN
100
AcDbLine
 10
4408.336022
 20
4150.394733
 30
0.0
 11
4408.336022
 21
3550.394733
 31
0.0
  0
LINE
  5
4EC
100
AcDbEntity
  8
JISSEN
100
AcDbLine
 10
4408.336022
 20
3550.394733
 30
0.0
 11
4449.336022
 21
3550.394733
 31
0.0
  0
LINE
  5
4ED
100
AcDbEntity
  8
JISSEN
100
AcDbLine
 10
4449.336022
 20
3550.394733
 30
0.0
 11
4458.336022
 21
3535.394733
 31
0.0
  0
LINE
  5
4EE
100
AcDbEntity
  8
JISSEN
100
AcDbLine
 10
4458.336022
 20
3535.394733
 30
0.0
 11
4483.336022
 21
3535.394733
 31
0.0
  0
LINE
  5
4EF
100
AcDbEntity
  8
JISSEN
100
AcDbLine
 10
4483.336022
 20
4127.394733
 30
0.0
 11
4483.336022
 21
3535.394733
 31
0.0
  0
LINE
  5
4F0
100
AcDbEntity
  8
TENSEN
100
AcDbLine
 10
5383.336022
 20
4127.394733
 30
0.0
 11
5383.336022
 21
3535.394733
 31
0.0
  0
LINE
  5
4F1
100
AcDbEntity
  8
JISSEN
100
AcDbLine
 10
5408.336022
 20
3535.394733
 30
0.0
 11
5383.336022
 21
3535.394733
 31
0.0
  0
LINE
  5
4F2
100
AcDbEntity
  8
JISSEN
100
AcDbLine
 10
5417.336022
 20
3550.394733
 30
0.0
 11
5408.336022
 21
3535.394733
 31
0.0
  0
LINE
  5
4F3
100
AcDbEntity
  8
JISSEN
100
AcDbLine
 10
5458.336022
 20
3550.394733
 30
0.0
 11
5417.336022
 21
3550.394733
 31
0.0
  0
LINE
  5
4F4
100
AcDbEntity
  8
JISSEN
100
AcDbLine
 10
5458.336022
 20
4150.394733
 30
0.0
 11
5458.336022
 21
3550.394733
 31
0.0
  0
LINE
  5
4F5
100
AcDbEntity
  8
TENSEN
100
AcDbLine
 10
5411.336022
 20
4127.394733
 30
0.0
 11
5383.336022
 21
4127.394733
 31
0.0
  0
LINE
  5
4F6
100
AcDbEntity
  8
TENSEN
100
AcDbLine
 10
5418.336022
 20
4150.394733
 30
0.0
 11
5411.336022
 21
4127.394733
 31
0.0
  0
LINE
  5
4F7
100
AcDbEntity
  8
JISSEN
100
AcDbLine
 10
5458.336022
 20
4150.394733
 30
0.0
 11
5418.336022
 21
4150.394733
 31
0.0
  0
LINE
  5
4F8
100
AcDbEntity
  8
JISSEN
100
AcDbLine
 10
4449.336022
 20
4150.394733
 30
0.0
 11
5418.336022
 21
4150.394733
 31
0.0
  0
LINE
  5
4FB
100
AcDbEntity
  8
JISSEN
100
AcDbLine
 10
4483.336022
 20
3535.394733
 30
0.0
 11
5383.336022
 21
3535.394733
 31
0.0
  0
LINE
  5
527
100
AcDbEntity
  8
SUNPOU
100
AcDbLine
 10
4378.336022
 20
3550.394733
 30
0.0
 11
4128.336022
 21
3550.394733
 31
0.0
  0
LINE
  5
528
100
AcDbEntity
  8
SUNPOU
100
AcDbLine
 10
4378.336022
 20
4150.394733
 30
0.0
 11
4128.336022
 21
4150.394733
 31
0.0
  0
LINE
  5
529
100
AcDbEntity
  8
SUNPOU
100
AcDbLine
 10
4425.336022
 20
4127.394733
 30
0.0
 11
4278.336022
 21
4127.394733
 31
0.0
  0
LINE
  5
52A
100
AcDbEntity
  8
SUNPOU
100
AcDbLine
 10
4338.336022
 20
4150.394733
 30
0.0
 11
4338.336022
 21
4150.394733
 31
0.0
  0
INSERT
  5
52B
100
AcDbEntity
  8
SUNPOU
100
AcDbBlockReference
  2
ARROWANG
 10
4308.336022
 20
4127.394733
 30
0.0
 41
30.0
 42
30.0
 43
30.0
 50
90.0
  0
INSERT
  5
52C
100
AcDbEntity
  8
SUNPOU
100
AcDbBlockReference
  2
ARROWANG
 10
4308.336022
 20
4150.394733
 30
0.0
 41
30.0
 42
30.0
 43
30.0
 50
270.0
  0
LINE
  5
52D
100
AcDbEntity
  8
SUNPOU
100
AcDbLine
 10
4308.336022
 20
4127.394733
 30
0.0
 11
4308.336022
 21
4028.394733
 31
0.0
  0
LINE
  5
52E
100
AcDbEntity
  8
SUNPOU
100
AcDbLine
 10
4308.336022
 20
4150.394733
 30
0.0
 11
4308.336022
 21
4210.394733
 31
0.0
  0
TEXT
  5
52F
100
AcDbEntity
  8
SUNPOU
100
AcDbText
 10
4263.336022
 20
4035.03759
 30
0.0
 40
45.0
  1
23
 50
90.0
  7
K
 72
     1
 11
4263.336022
 21
4077.894733
 31
0.0
100
AcDbText
  0
LINE
  5
530
100
AcDbEntity
  8
SUNPOU
100
AcDbLine
 10
4428.336022
 20
3535.394733
 30
0.0
 11
4278.336022
 21
3535.394733
 31
0.0
  0
LINE
  5
531
100
AcDbEntity
  8
SUNPOU
100
AcDbLine
 10
4338.336022
 20
3550.394733
 30
0.0
 11
4338.336022
 21
3550.394733
 31
0.0
  0
INSERT
  5
532
100
AcDbEntity
  8
SUNPOU
100
AcDbBlockReference
  2
ARROWANG
 10
4308.336022
 20
3535.394733
 30
0.0
 41
30.0
 42
30.0
 43
30.0
 50
90.0
  0
INSERT
  5
533
100
AcDbEntity
  8
SUNPOU
100
AcDbBlockReference
  2
ARROWANG
 10
4308.336022
 20
3550.394733
 30
0.0
 41
30.0
 42
30.0
 43
30.0
 50
270.0
  0
LINE
  5
534
100
AcDbEntity
  8
SUNPOU
100
AcDbLine
 10
4308.336022
 20
3550.394733
 30
0.0
 11
4308.336022
 21
3649.394733
 31
0.0
  0
LINE
  5
535
100
AcDbEntity
  8
SUNPOU
100
AcDbLine
 10
4308.336022
 20
3535.394733
 30
0.0
 11
4308.336023
 21
3475.394733
 31
0.0
  0
TEXT
  5
536
100
AcDbEntity
  8
SUNPOU
100
AcDbText
 10
4263.336022
 20
3553.823304
 30
0.0
 40
45.0
  1
15
 50
90.0
  7
K
 72
     1
 11
4263.336022
 21
3599.894733
 31
0.0
100
AcDbText
  0
ARC
  5
537
100
AcDbEntity
  8
JISSEN
100
AcDbCircle
 10
4583.336022
 20
3685.394733
 30
0.0
 40
12.5
100
AcDbArc
 50
270.0
 51
90.0
  0
LINE
  5
538
100
AcDbEntity
  8
JISSEN
100
AcDbLine
 10
4483.336022
 20
3697.894733
 30
0.0
 11
4583.336022
 21
3697.894733
 31
0.0
  0
LINE
  5
539
100
AcDbEntity
  8
JISSEN
100
AcDbLine
 10
4583.336022
 20
3672.894733
 30
0.0
 11
4483.336022
 21
3672.894733
 31
0.0
  0
LINE
  5
53A
100
AcDbEntity
  8
ITTEN
100
AcDbLine
 10
4383.336022
 20
3685.394733
 30
0.0
 11
4683.336022
 21
3685.394733
 31
0.0
  0
LINE
  5
53B
100
AcDbEntity
  8
ITTEN
100
AcDbLine
 10
4383.336022
 20
3985.394733
 30
0.0
 11
4653.791532
 21
3985.394733
 31
0.0
  0
LINE
  5
53C
100
AcDbEntity
  8
ITTEN
100
AcDbLine
 10
4383.336022
 20
3985.394733
 30
0.0
 11
4683.336022
 21
3985.394733
 31
0.0
  0
LINE
  5
53D
100
AcDbEntity
  8
JISSEN
100
AcDbLine
 10
4583.336022
 20
3972.894733
 30
0.0
 11
4483.336022
 21
3972.894733
 31
0.0
  0
LINE
  5
53E
100
AcDbEntity
  8
JISSEN
100
AcDbLine
 10
4483.336022
 20
3997.894733
 30
0.0
 11
4583.336022
 21
3997.894733
 31
0.0
  0
ARC
  5
53F
100
AcDbEntity
  8
JISSEN
100
AcDbCircle
 10
4583.336022
 20
3985.394733
 30
0.0
 40
12.5
100
AcDbArc
 50
270.0
 51
90.0
  0
LINE
  5
540
100
AcDbEntity
  8
SUNPOU
100
AcDbLine
 10
4633.336022
 20
3985.394733
 30
0.0
 11
4633.336022
 21
3985.394733
 31
0.0
  0
LINE
  5
541
100
AcDbEntity
  8
SUNPOU
100
AcDbLine
 10
4603.336022
 20
3535.394733
 30
0.0
 11
4603.336022
 21
3535.394733
 31
0.0
  0
LINE
  5
542
100
AcDbEntity
  8
SUNPOU
100
AcDbLine
 10
4603.336022
 20
3685.394733
 30
0.0
 11
4603.336022
 21
3685.394733
 31
0.0
  0
LINE
  5
543
100
AcDbEntity
  8
SUNPOU
100
AcDbLine
 10
4633.336022
 20
3535.394733
 30
0.0
 11
4633.336022
 21
3685.394733
 31
0.0
  0
INSERT
  5
544
100
AcDbEntity
  8
SUNPOU
100
AcDbBlockReference
  2
ARROWANG
 10
4633.336022
 20
3535.394733
 30
0.0
 41
30.0
 42
30.0
 43
30.0
 50
270.0
  0
INSERT
  5
545
100
AcDbEntity
  8
SUNPOU
100
AcDbBlockReference
  2
ARROWANG
 10
4633.336022
 20
3685.394733
 30
0.0
 41
30.0
 42
30.0
 43
30.0
 50
90.0
  0
TEXT
  5
546
100
AcDbEntity
  8
SUNPOU
100
AcDbText
 10
4588.336022
 20
3542.894733
 30
0.0
 40
45.0
  1
150
 50
90.0
  7
K
 72
     1
 11
4588.336022
 21
3610.394733
 31
0.0
100
AcDbText
  0
LINE
  5
547
100
AcDbEntity
  8
SUNPOU
100
AcDbLine
 10
4763.336022
 20
3535.394733
 30
0.0
 11
4778.415827
 21
3535.394733
 31
0.0
  0
LINE
  5
548
100
AcDbEntity
  8
SUNPOU
100
AcDbLine
 10
4763.336022
 20
4127.394733
 30
0.0
 11
4778.415827
 21
4127.394733
 31
0.0
  0
LINE
  5
549
100
AcDbEntity
  8
SUNPOU
100
AcDbLine
 10
6463.336022
 20
4127.394733
 30
0.0
 11
6478.415827
 21
4127.394733
 31
0.0
  0
LINE
  5
54A
100
AcDbEntity
  8
SUNPOU
100
AcDbLine
 10
6463.336022
 20
3535.394733
 30
0.0
 11
6478.415827
 21
3535.394733
 31
0.0
  0
LINE
  5
54B
100
AcDbEntity
  8
SUNPOU
100
AcDbLine
 10
6303.336022
 20
3535.394733
 30
0.0
 11
6303.336022
 21
3535.394733
 31
0.0
  0
LINE
  5
54C
100
AcDbEntity
  8
JISSEN
100
AcDbLine
 10
6483.336022
 20
3550.394733
 30
0.0
 11
6817.336022
 21
3550.394733
 31
0.0
  0
LINE
  5
54D
100
AcDbEntity
  8
TENSEN
100
AcDbLine
 10
6149.336022
 20
3550.394733
 30
0.0
 11
6483.336022
 21
3550.394733
 31
0.0
  0
LINE
  5
54E
100
AcDbEntity
  8
JISSEN
100
AcDbLine
 10
6183.336022
 20
3535.394733
 30
0.0
 11
6783.336022
 21
3535.394733
 31
0.0
  0
LINE
  5
54F
100
AcDbEntity
  8
TENSEN
100
AcDbLine
 10
6483.336022
 20
4127.394733
 30
0.0
 11
6783.336022
 21
4127.394733
 31
0.0
  0
LINE
  5
550
100
AcDbEntity
  8
JISSEN
100
AcDbLine
 10
6183.336022
 20
4127.394733
 30
0.0
 11
6483.336022
 21
4127.394733
 31
0.0
  0
LINE
  5
551
100
AcDbEntity
  8
JISSEN
100
AcDbLine
 10
6149.336022
 20
4150.394733
 30
0.0
 11
6818.336022
 21
4150.394733
 31
0.0
  0
LINE
  5
552
100
AcDbEntity
  8
JISSEN
100
AcDbLine
 10
6858.336022
 20
4150.394733
 30
0.0
 11
6818.336022
 21
4150.394733
 31
0.0
  0
LINE
  5
553
100
AcDbEntity
  8
TENSEN
100
AcDbLine
 10
6818.336022
 20
4150.394733
 30
0.0
 11
6811.336022
 21
4127.394733
 31
0.0
  0
LINE
  5
554
100
AcDbEntity
  8
TENSEN
100
AcDbLine
 10
6811.336022
 20
4127.394733
 30
0.0
 11
6783.336022
 21
4127.394733
 31
0.0
  0
LINE
  5
555
100
AcDbEntity
  8
JISSEN
100
AcDbLine
 10
6858.336022
 20
4150.394733
 30
0.0
 11
6858.336022
 21
3550.394733
 31
0.0
  0
LINE
  5
556
100
AcDbEntity
  8
JISSEN
100
AcDbLine
 10
6858.336022
 20
3550.394733
 30
0.0
 11
6817.336022
 21
3550.394733
 31
0.0
  0
LINE
  5
557
100
AcDbEntity
  8
JISSEN
100
AcDbLine
 10
6817.336022
 20
3550.394733
 30
0.0
 11
6808.336022
 21
3535.394733
 31
0.0
  0
LINE
  5
558
100
AcDbEntity
  8
JISSEN
100
AcDbLine
 10
6808.336022
 20
3535.394733
 30
0.0
 11
6783.336022
 21
3535.394733
 31
0.0
  0
LINE
  5
559
100
AcDbEntity
  8
TENSEN
100
AcDbLine
 10
6783.336022
 20
4127.394733
 30
0.0
 11
6783.336022
 21
3535.394733
 31
0.0
  0
LINE
  5
55A
100
AcDbEntity
  8
JISSEN
100
AcDbLine
 10
6183.336022
 20
4127.394733
 30
0.0
 11
6183.336022
 21
3535.394733
 31
0.0
  0
LINE
  5
55B
100
AcDbEntity
  8
JISSEN
100
AcDbLine
 10
6158.336022
 20
3535.394733
 30
0.0
 11
6183.336022
 21
3535.394733
 31
0.0
  0
LINE
  5
55C
100
AcDbEntity
  8
JISSEN
100
AcDbLine
 10
6149.336022
 20
3550.394733
 30
0.0
 11
6158.336022
 21
3535.394733
 31
0.0
  0
LINE
  5
55D
100
AcDbEntity
  8
JISSEN
100
AcDbLine
 10
6108.336022
 20
3550.394733
 30
0.0
 11
6149.336022
 21
3550.394733
 31
0.0
  0
LINE
  5
55E
100
AcDbEntity
  8
JISSEN
100
AcDbLine
 10
6108.336022
 20
4150.394733
 30
0.0
 11
6108.336022
 21
3550.394733
 31
0.0
  0
LINE
  5
55F
100
AcDbEntity
  8
JISSEN
100
AcDbLine
 10
6155.336022
 20
4127.394733
 30
0.0
 11
6183.336022
 21
4127.394733
 31
0.0
  0
LINE
  5
560
100
AcDbEntity
  8
JISSEN
100
AcDbLine
 10
6148.336022
 20
4150.394733
 30
0.0
 11
6155.336022
 21
4127.394733
 31
0.0
  0
LINE
  5
561
100
AcDbEntity
  8
JISSEN
100
AcDbLine
 10
6108.336022
 20
4150.394733
 30
0.0
 11
6148.336022
 21
4150.394733
 31
0.0
  0
LINE
  5
562
100
AcDbEntity
  8
SUNPOU
100
AcDbLine
 10
6108.336022
 20
4180.394733
 30
0.0
 11
6108.336022
 21
4480.394733
 31
0.0
  0
LINE
  5
563
100
AcDbEntity
  8
SUNPOU
100
AcDbLine
 10
6858.336022
 20
4180.394733
 30
0.0
 11
6858.336022
 21
4480.394733
 31
0.0
  0
LINE
  5
564
100
AcDbEntity
  8
SUNPOU
100
AcDbLine
 10
6108.336022
 20
4450.394733
 30
0.0
 11
6858.336022
 21
4450.394733
 31
0.0
  0
INSERT
  5
565
100
AcDbEntity
  8
SUNPOU
100
AcDbBlockReference
  2
ARROWANG
 10
6858.336022
 20
4450.394733
 30
0.0
 41
30.0
 42
30.0
 43
30.0
  0
INSERT
  5
566
100
AcDbEntity
  8
SUNPOU
100
AcDbBlockReference
  2
ARROWANG
 10
6108.336022
 20
4450.394733
 30
0.0
 41
30.0
 42
30.0
 43
30.0
 50
180.0
  0
TEXT
  5
567
100
AcDbEntity
  8
SUNPOU
100
AcDbText
 10
6419.050308
 20
4495.394733
 30
0.0
 40
45.0
  1
750
  7
K
 72
     1
 11
6483.336022
 21
4495.394733
 31
0.0
100
AcDbText
  0
LINE
  5
568
100
AcDbEntity
  8
SUNPOU
100
AcDbLine
 10
6108.336022
 20
4330.394733
 30
0.0
 11
6108.336022
 21
4330.394733
 31
0.0
  0
LINE
  5
569
100
AcDbEntity
  8
SUNPOU
100
AcDbLine
 10
6183.336022
 20
4157.394733
 30
0.0
 11
6183.336022
 21
4330.394733
 31
0.0
  0
LINE
  5
56A
100
AcDbEntity
  8
SUNPOU
100
AcDbLine
 10
6108.336022
 20
4300.394733
 30
0.0
 11
6183.336022
 21
4300.394733
 31
0.0
  0
INSERT
  5
56B
100
AcDbEntity
  8
SUNPOU
100
AcDbBlockReference
  2
ARROWANG
 10
6183.336022
 20
4300.394733
 30
0.0
 41
30.0
 42
30.0
 43
30.0
 50
180.0
  0
INSERT
  5
56C
100
AcDbEntity
  8
SUNPOU
100
AcDbBlockReference
  2
ARROWANG
 10
6108.336022
 20
4300.394733
 30
0.0
 41
30.0
 42
30.0
 43
30.0
  0
TEXT
  5
56D
100
AcDbEntity
  8
SUNPOU
100
AcDbText
 10
6102.978894
 20
4345.394733
 30
0.0
 40
45.0
  1
75
  7
K
 72
     1
 11
6145.836037
 21
4345.394733
 31
0.0
100
AcDbText
  0
LINE
  5
56E
100
AcDbEntity
  8
SUNPOU
100
AcDbLine
 10
6183.336022
 20
4300.394733
 30
0.0
 11
6243.336022
 21
4300.394733
 31
0.0
  0
LINE
  5
56F
100
AcDbEntity
  8
SUNPOU
100
AcDbLine
 10
6108.336022
 20
4300.394733
 30
0.0
 11
6048.336022
 21
4300.394733
 31
0.0
  0
LINE
  5
570
100
AcDbEntity
  8
SUNPOU
100
AcDbLine
 10
6783.336022
 20
4157.394733
 30
0.0
 11
6783.336022
 21
4330.394733
 31
0.0
  0
LINE
  5
571
100
AcDbEntity
  8
SUNPOU
100
AcDbLine
 10
6858.336022
 20
4330.394733
 30
0.0
 11
6858.336022
 21
4330.394733
 31
0.0
  0
LINE
  5
572
100
AcDbEntity
  8
SUNPOU
100
AcDbLine
 10
6783.336022
 20
4300.394733
 30
0.0
 11
6858.336022
 21
4300.394733
 31
0.0
  0
INSERT
  5
573
100
AcDbEntity
  8
SUNPOU
100
AcDbBlockReference
  2
ARROWANG
 10
6858.336022
 20
4300.394733
 30
0.0
 41
30.0
 42
30.0
 43
30.0
 50
180.0
  0
INSERT
  5
574
100
AcDbEntity
  8
SUNPOU
100
AcDbBlockReference
  2
ARROWANG
 10
6783.336022
 20
4300.394733
 30
0.0
 41
30.0
 42
30.0
 43
30.0
  0
TEXT
  5
575
100
AcDbEntity
  8
SUNPOU
100
AcDbText
 10
6777.978894
 20
4345.394733
 30
0.0
 40
45.0
  1
75
  7
K
 72
     1
 11
6820.836037
 21
4345.394733
 31
0.0
100
AcDbText
  0
LINE
  5
576
100
AcDbEntity
  8
SUNPOU
100
AcDbLine
 10
6858.336022
 20
4300.394733
 30
0.0
 11
6918.336022
 21
4300.394733
 31
0.0
  0
LINE
  5
577
100
AcDbEntity
  8
SUNPOU
100
AcDbLine
 10
6783.336022
 20
4300.394733
 30
0.0
 11
6723.336022
 21
4300.394733
 31
0.0
  0
LINE
  5
578
100
AcDbEntity
  8
SUNPOU
100
AcDbLine
 10
6183.336022
 20
4270.394733
 30
0.0
 11
6183.336022
 21
4270.394733
 31
0.0
  0
LINE
  5
579
100
AcDbEntity
  8
SUNPOU
100
AcDbLine
 10
6783.336022
 20
4270.394733
 30
0.0
 11
6783.336022
 21
4270.394733
 31
0.0
  0
LINE
  5
57A
100
AcDbEntity
  8
SUNPOU
100
AcDbLine
 10
6183.336022
 20
4300.394733
 30
0.0
 11
6783.336022
 21
4300.394733
 31
0.0
  0
INSERT
  5
57B
100
AcDbEntity
  8
SUNPOU
100
AcDbBlockReference
  2
ARROWANG
 10
6183.336022
 20
4300.394733
 30
0.0
 41
30.0
 42
30.0
 43
30.0
 50
180.0
  0
INSERT
  5
57C
100
AcDbEntity
  8
SUNPOU
100
AcDbBlockReference
  2
ARROWANG
 10
6783.336022
 20
4300.394733
 30
0.0
 41
30.0
 42
30.0
 43
30.0
  0
TEXT
  5
57D
100
AcDbEntity
  8
SUNPOU
100
AcDbText
 10
6417.978894
 20
4345.394733
 30
0.0
 40
45.0
  1
600
  7
K
 72
     1
 11
6483.336037
 21
4345.394733
 31
0.0
100
AcDbText
  0
LINE
  5
57E
100
AcDbEntity
  8
ITTEN
100
AcDbLine
 10
6483.336022
 20
4250.394733
 30
0.0
 11
6483.336022
 21
3450.394733
 31
0.0
  0
ARC
  5
57F
100
AcDbEntity
  8
TENSEN
100
AcDbCircle
 10
6619.836022
 20
3685.394733
 30
0.0
 40
12.5
100
AcDbArc
 50
270.0
 51
90.0
  0
ARC
  5
580
100
AcDbEntity
  8
JISSEN
100
AcDbCircle
 10
6346.836022
 20
3685.394733
 30
0.0
 40
12.5
100
AcDbArc
 50
90.0
 51
270.0
  0
LINE
  5
581
100
AcDbEntity
  8
JISSEN
100
AcDbLine
 10
6346.836022
 20
3697.894733
 30
0.0
 11
6483.336022
 21
3697.894733
 31
0.0
  0
LINE
  5
582
100
AcDbEntity
  8
TENSEN
100
AcDbLine
 10
6483.336022
 20
3697.894733
 30
0.0
 11
6619.836022
 21
3697.894733
 31
0.0
  0
LINE
  5
583
100
AcDbEntity
  8
TENSEN
100
AcDbLine
 10
6619.836022
 20
3672.894733
 30
0.0
 11
6483.336022
 21
3672.894733
 31
0.0
  0
LINE
  5
584
100
AcDbEntity
  8
JISSEN
100
AcDbLine
 10
6483.336022
 20
3672.894733
 30
0.0
 11
6346.836022
 21
3672.894733
 31
0.0
  0
LINE
  5
585
100
AcDbEntity
  8
ITTEN
100
AcDbLine
 10
6283.336022
 20
3685.394733
 30
0.0
 11
6683.336022
 21
3685.394733
 31
0.0
  0
LINE
  5
586
100
AcDbEntity
  8
ITTEN
100
AcDbLine
 10
6283.336022
 20
3985.394733
 30
0.0
 11
6683.336022
 21
3985.394733
 31
0.0
  0
LINE
  5
587
100
AcDbEntity
  8
JISSEN
100
AcDbLine
 10
6483.336022
 20
3972.894733
 30
0.0
 11
6346.836022
 21
3972.894733
 31
0.0
  0
LINE
  5
588
100
AcDbEntity
  8
TENSEN
100
AcDbLine
 10
6619.836022
 20
3972.894733
 30
0.0
 11
6483.336022
 21
3972.894733
 31
0.0
  0
LINE
  5
589
100
AcDbEntity
  8
TENSEN
100
AcDbLine
 10
6483.336022
 20
3997.894733
 30
0.0
 11
6619.836022
 21
3997.894733
 31
0.0
  0
LINE
  5
58A
100
AcDbEntity
  8
JISSEN
100
AcDbLine
 10
6346.836022
 20
3997.894733
 30
0.0
 11
6483.336022
 21
3997.894733
 31
0.0
  0
ARC
  5
58B
100
AcDbEntity
  8
JISSEN
100
AcDbCircle
 10
6346.836022
 20
3985.394733
 30
0.0
 40
12.5
100
AcDbArc
 50
90.0
 51
270.0
  0
ARC
  5
58C
100
AcDbEntity
  8
TENSEN
100
AcDbCircle
 10
6619.836022
 20
3985.394733
 30
0.0
 40
12.5
100
AcDbArc
 50
270.0
 51
90.0
  0
CIRCLE
  5
58D
100
AcDbEntity
  8
JISSEN
100
AcDbCircle
 10
4933.336022
 20
4050.394733
 30
0.0
 40
10.0
  0
LINE
  5
58E
100
AcDbEntity
  8
ITTEN
100
AcDbLine
 10
4933.336022
 20
4080.394733
 30
0.0
 11
4933.336022
 21
4020.394733
 31
0.0
  0
LINE
  5
58F
100
AcDbEntity
  8
ITTEN
100
AcDbLine
 10
4963.336022
 20
4050.394733
 30
0.0
 11
4903.336022
 21
4050.394733
 31
0.0
  0
CIRCLE
  5
590
100
AcDbEntity
  8
JISSEN
100
AcDbCircle
 10
4933.336022
 20
3650.394733
 30
0.0
 40
10.0
  0
LINE
  5
591
100
AcDbEntity
  8
ITTEN
100
AcDbLine
 10
4933.336022
 20
3680.394733
 30
0.0
 11
4933.336022
 21
3620.394733
 31
0.0
  0
LINE
  5
592
100
AcDbEntity
  8
ITTEN
100
AcDbLine
 10
4963.336022
 20
3650.394733
 30
0.0
 11
4903.336022
 21
3650.394733
 31
0.0
  0
LINE
  5
593
100
AcDbEntity
  8
SUNPOU
100
AcDbLine
 10
4933.336022
 20
4050.394733
 30
0.0
 11
5053.336022
 21
4050.394733
 31
0.0
  0
LINE
  5
594
100
AcDbEntity
  8
SUNPOU
100
AcDbLine
 10
5053.336022
 20
4150.394733
 30
0.0
 11
5053.336022
 21
4150.394733
 31
0.0
  0
INSERT
  5
595
100
AcDbEntity
  8
SUNPOU
100
AcDbBlockReference
  2
ARROWANG
 10
5023.336022
 20
4050.394733
 30
0.0
 41
30.0
 42
30.0
 43
30.0
 50
90.0
  0
INSERT
  5
596
100
AcDbEntity
  8
SUNPOU
100
AcDbBlockReference
  2
ARROWANG
 10
5023.336022
 20
4150.394733
 30
0.0
 41
30.0
 42
30.0
 43
30.0
 50
270.0
  0
LINE
  5
597
100
AcDbEntity
  8
SUNPOU
100
AcDbLine
 10
5023.336022
 20
4050.394733
 30
0.0
 11
5023.336022
 21
3901.894733
 31
0.0
  0
LINE
  5
598
100
AcDbEntity
  8
SUNPOU
100
AcDbLine
 10
5023.336022
 20
4150.394733
 30
0.0
 11
5023.336022
 21
4210.394733
 31
0.0
  0
TEXT
  5
599
100
AcDbEntity
  8
SUNPOU
100
AcDbText
 10
4978.336022
 20
3908.644733
 30
0.0
 40
45.0
  1
100
 50
90.0
  7
K
 72
     1
 11
4978.336022
 21
3976.144733
 31
0.0
100
AcDbText
  0
LINE
  5
59A
100
AcDbEntity
  8
SUNPOU
100
AcDbLine
 10
5053.336022
 20
3550.394733
 30
0.0
 11
5053.336022
 21
3550.394733
 31
0.0
  0
LINE
  5
59B
100
AcDbEntity
  8
SUNPOU
100
AcDbLine
 10
4933.336022
 20
3650.394733
 30
0.0
 11
5053.336022
 21
3650.394733
 31
0.0
  0
INSERT
  5
59C
100
AcDbEntity
  8
SUNPOU
100
AcDbBlockReference
  2
ARROWANG
 10
5023.336022
 20
3550.394733
 30
0.0
 41
30.0
 42
30.0
 43
30.0
 50
90.0
  0
INSERT
  5
59D
100
AcDbEntity
  8
SUNPOU
100
AcDbBlockReference
  2
ARROWANG
 10
5023.336022
 20
3650.394733
 30
0.0
 41
30.0
 42
30.0
 43
30.0
 50
270.0
  0
LINE
  5
59E
100
AcDbEntity
  8
SUNPOU
100
AcDbLine
 10
5023.336022
 20
3650.394733
 30
0.0
 11
5023.336022
 21
3798.894733
 31
0.0
  0
LINE
  5
59F
100
AcDbEntity
  8
SUNPOU
100
AcDbLine
 10
5023.336022
 20
3550.394733
 30
0.0
 11
5023.336023
 21
3490.394733
 31
0.0
  0
TEXT
  5
5A0
100
AcDbEntity
  8
SUNPOU
100
AcDbText
 10
4978.336022
 20
3657.144733
 30
0.0
 40
45.0
  1
100
 50
90.0
  7
K
 72
     1
 11
4978.336022
 21
3724.644733
 31
0.0
100
AcDbText
  0
LINE
  5
5A1
100
AcDbEntity
  8
JISSEN
100
AcDbLine
 10
6108.336022
 20
4060.394733
 30
0.0
 11
6158.336022
 21
4060.394733
 31
0.0
  0
LINE
  5
5A2
100
AcDbEntity
  8
JISSEN
100
AcDbLine
 10
6158.336022
 20
4060.394733
 30
0.0
 11
6158.336022
 21
4040.394733
 31
0.0
  0
LINE
  5
5A3
100
AcDbEntity
  8
JISSEN
100
AcDbLine
 10
6158.336022
 20
4040.394733
 30
0.0
 11
6108.336022
 21
4040.394733
 31
0.0
  0
LINE
  5
5A4
100
AcDbEntity
  8
JISSEN
100
AcDbLine
 10
6108.336022
 20
3660.394733
 30
0.0
 11
6158.336022
 21
3660.394733
 31
0.0
  0
LINE
  5
5A5
100
AcDbEntity
  8
JISSEN
100
AcDbLine
 10
6158.336022
 20
3660.394733
 30
0.0
 11
6158.336022
 21
3640.394733
 31
0.0
  0
LINE
  5
5A6
100
AcDbEntity
  8
JISSEN
100
AcDbLine
 10
6158.336022
 20
3640.394733
 30
0.0
 11
6108.336022
 21
3640.394733
 31
0.0
  0
LINE
  5
5A7
100
AcDbEntity
  8
TENSEN
100
AcDbLine
 10
6858.336022
 20
3640.394733
 30
0.0
 11
6808.336022
 21
3640.394733
 31
0.0
  0
LINE
  5
5A8
100
AcDbEntity
  8
TENSEN
100
AcDbLine
 10
6808.336022
 20
3640.394733
 30
0.0
 11
6808.336022
 21
3660.394733
 31
0.0
  0
LINE
  5
5A9
100
AcDbEntity
  8
TENSEN
100
AcDbLine
 10
6808.336022
 20
3660.394733
 30
0.0
 11
6858.336022
 21
3660.394733
 31
0.0
  0
LINE
  5
5AA
100
AcDbEntity
  8
TENSEN
100
AcDbLine
 10
6858.336022
 20
4060.394733
 30
0.0
 11
6808.336022
 21
4060.394733
 31
0.0
  0
LINE
  5
5AB
100
AcDbEntity
  8
TENSEN
100
AcDbLine
 10
6808.336022
 20
4060.394733
 30
0.0
 11
6808.336022
 21
4040.394733
 31
0.0
  0
LINE
  5
5AC
100
AcDbEntity
  8
TENSEN
100
AcDbLine
 10
6808.336022
 20
4040.394733
 30
0.0
 11
6858.336022
 21
4040.394733
 31
0.0
  0
LINE
  5
5AD
100
AcDbEntity
  8
ITTEN
100
AcDbLine
 10
6058.336022
 20
4050.394733
 30
0.0
 11
6233.336022
 21
4050.394733
 31
0.0
  0
LINE
  5
5AE
100
AcDbEntity
  8
ITTEN
100
AcDbLine
 10
6908.336022
 20
3650.394733
 30
0.0
 11
6733.336022
 21
3650.394733
 31
0.0
  0
LINE
  5
5AF
100
AcDbEntity
  8
ITTEN
100
AcDbLine
 10
6733.336022
 20
4050.394733
 30
0.0
 11
6908.336022
 21
4050.394733
 31
0.0
  0
LINE
  5
5B0
100
AcDbEntity
  8
ITTEN
100
AcDbLine
 10
6233.336022
 20
3650.394733
 30
0.0
 11
6058.336022
 21
3650.394733
 31
0.0
  0
LINE
  5
5B1
100
AcDbEntity
  8
ITTEN
100
AcDbLine
 10
2418.791792
 20
3409.137418
 30
0.0
 11
2243.791792
 21
3409.137418
 31
0.0
  0
LINE
  5
5B2
100
AcDbEntity
  8
ITTEN
100
AcDbLine
 10
2918.791792
 20
4109.137418
 30
0.0
 11
3093.791792
 21
4109.137418
 31
0.0
  0
LINE
  5
5B3
100
AcDbEntity
  8
ITTEN
100
AcDbLine
 10
3093.791792
 20
3409.137418
 30
0.0
 11
2918.791792
 21
3409.137418
 31
0.0
  0
LINE
  5
5B4
100
AcDbEntity
  8
ITTEN
100
AcDbLine
 10
2243.791792
 20
4109.137418
 30
0.0
 11
2418.791792
 21
4109.137418
 31
0.0
  0
LINE
  5
5B5
100
AcDbEntity
  8
TENSEN
100
AcDbLine
 10
2993.791792
 20
4099.137418
 30
0.0
 11
3043.791792
 21
4099.137418
 31
0.0
  0
LINE
  5
5B6
100
AcDbEntity
  8
TENSEN
100
AcDbLine
 10
2993.791792
 20
4119.137418
 30
0.0
 11
2993.791792
 21
4099.137418
 31
0.0
  0
LINE
  5
5B7
100
AcDbEntity
  8
TENSEN
100
AcDbLine
 10
3043.791792
 20
4119.137418
 30
0.0
 11
2993.791792
 21
4119.137418
 31
0.0
  0
LINE
  5
5B8
100
AcDbEntity
  8
TENSEN
100
AcDbLine
 10
2993.791792
 20
3419.137418
 30
0.0
 11
3043.791792
 21
3419.137418
 31
0.0
  0
LINE
  5
5B9
100
AcDbEntity
  8
TENSEN
100
AcDbLine
 10
2993.791792
 20
3399.137418
 30
0.0
 11
2993.791792
 21
3419.137418
 31
0.0
  0
LINE
  5
5BA
100
AcDbEntity
  8
TENSEN
100
AcDbLine
 10
3043.791792
 20
3399.137418
 30
0.0
 11
2993.791792
 21
3399.137418
 31
0.0
  0
LINE
  5
5BB
100
AcDbEntity
  8
JISSEN
100
AcDbLine
 10
2343.791792
 20
3399.137418
 30
0.0
 11
2293.791792
 21
3399.137418
 31
0.0
  0
LINE
  5
5BC
100
AcDbEntity
  8
JISSEN
100
AcDbLine
 10
2343.791792
 20
3419.137418
 30
0.0
 11
2343.791792
 21
3399.137418
 31
0.0
  0
LINE
  5
5BD
100
AcDbEntity
  8
JISSEN
100
AcDbLine
 10
2293.791792
 20
3419.137418
 30
0.0
 11
2343.791792
 21
3419.137418
 31
0.0
  0
LINE
  5
5BE
100
AcDbEntity
  8
JISSEN
100
AcDbLine
 10
2343.791792
 20
4099.137418
 30
0.0
 11
2293.791792
 21
4099.137418
 31
0.0
  0
LINE
  5
5BF
100
AcDbEntity
  8
JISSEN
100
AcDbLine
 10
2343.791792
 20
4119.137418
 30
0.0
 11
2343.791792
 21
4099.137418
 31
0.0
  0
LINE
  5
5C0
100
AcDbEntity
  8
JISSEN
100
AcDbLine
 10
2293.791792
 20
4119.137418
 30
0.0
 11
2343.791792
 21
4119.137418
 31
0.0
  0
TEXT
  5
5C1
100
AcDbEntity
  8
SUNPOU
100
AcDbText
 10
1163.791792
 20
3415.887418
 30
0.0
 40
45.0
  1
100
 50
90.0
  7
K
 72
     1
 11
1163.791792
 21
3483.387418
 31
0.0
100
AcDbText
  0
LINE
  5
5C2
100
AcDbEntity
  8
SUNPOU
100
AcDbLine
 10
1208.791792
 20
3309.137418
 30
0.0
 11
1208.791794
 21
3249.137418
 31
0.0
  0
LINE
  5
5C3
100
AcDbEntity
  8
SUNPOU
100
AcDbLine
 10
1208.791792
 20
3409.137418
 30
0.0
 11
1208.791792
 21
3557.637418
 31
0.0
  0
INSERT
  5
5C4
100
AcDbEntity
  8
SUNPOU
100
AcDbBlockReference
  2
ARROWANG
 10
1208.791792
 20
3409.137418
 30
0.0
 41
30.0
 42
30.0
 43
30.0
 50
270.0
  0
INSERT
  5
5C5
100
AcDbEntity
  8
SUNPOU
100
AcDbBlockReference
  2
ARROWANG
 10
1208.791792
 20
3309.137418
 30
0.0
 41
30.0
 42
30.0
 43
30.0
 50
90.0
  0
LINE
  5
5C6
100
AcDbEntity
  8
SUNPOU
100
AcDbLine
 10
1118.791792
 20
3409.137418
 30
0.0
 11
1238.791792
 21
3409.137418
 31
0.0
  0
LINE
  5
5C7
100
AcDbEntity
  8
SUNPOU
100
AcDbLine
 10
1238.791792
 20
3309.137418
 30
0.0
 11
1238.791792
 21
3309.137418
 31
0.0
  0
TEXT
  5
5C8
100
AcDbEntity
  8
SUNPOU
100
AcDbText
 10
1163.791792
 20
3967.387418
 30
0.0
 40
45.0
  1
100
 50
90.0
  7
K
 72
     1
 11
1163.791792
 21
4034.887418
 31
0.0
100
AcDbText
  0
LINE
  5
5C9
100
AcDbEntity
  8
SUNPOU
100
AcDbLine
 10
1208.791792
 20
4209.137418
 30
0.0
 11
1208.791792
 21
4269.137418
 31
0.0
  0
LINE
  5
5CA
100
AcDbEntity
  8
SUNPOU
100
AcDbLine
 10
1208.791792
 20
4109.137418
 30
0.0
 11
1208.791792
 21
3960.637418
 31
0.0
  0
INSERT
  5
5CB
100
AcDbEntity
  8
SUNPOU
100
AcDbBlockReference
  2
ARROWANG
 10
1208.791792
 20
4209.137418
 30
0.0
 41
30.0
 42
30.0
 43
30.0
 50
270.0
  0
INSERT
  5
5CC
100
AcDbEntity
  8
SUNPOU
100
AcDbBlockReference
  2
ARROWANG
 10
1208.791792
 20
4109.137418
 30
0.0
 41
30.0
 42
30.0
 43
30.0
 50
90.0
  0
LINE
  5
5CD
100
AcDbEntity
  8
SUNPOU
100
AcDbLine
 10
1238.791792
 20
4209.137418
 30
0.0
 11
1238.791792
 21
4209.137418
 31
0.0
  0
LINE
  5
5CE
100
AcDbEntity
  8
SUNPOU
100
AcDbLine
 10
1118.791792
 20
4109.137418
 30
0.0
 11
1238.791792
 21
4109.137418
 31
0.0
  0
LINE
  5
5CF
100
AcDbEntity
  8
ITTEN
100
AcDbLine
 10
1148.791792
 20
3409.137418
 30
0.0
 11
1088.791792
 21
3409.137418
 31
0.0
  0
LINE
  5
5D0
100
AcDbEntity
  8
ITTEN
100
AcDbLine
 10
1118.791792
 20
3439.137418
 30
0.0
 11
1118.791792
 21
3379.137418
 31
0.0
  0
CIRCLE
  5
5D1
100
AcDbEntity
  8
JISSEN
100
AcDbCircle
 10
1118.791792
 20
3409.137418
 30
0.0
 40
10.0
  0
LINE
  5
5D2
100
AcDbEntity
  8
ITTEN
100
AcDbLine
 10
1148.791792
 20
4109.137418
 30
0.0
 11
1088.791792
 21
4109.137418
 31
0.0
  0
LINE
  5
5D3
100
AcDbEntity
  8
ITTEN
100
AcDbLine
 10
1118.791792
 20
4139.137418
 30
0.0
 11
1118.791792
 21
4079.137418
 31
0.0
  0
CIRCLE
  5
5D4
100
AcDbEntity
  8
JISSEN
100
AcDbCircle
 10
1118.791792
 20
4109.137418
 30
0.0
 40
10.0
  0
LINE
  5
5D5
100
AcDbEntity
  8
TENSEN
100
AcDbLine
 10
1128.791792
 20
2794.137418
 30
0.0
 11
1128.791792
 21
2754.137418
 31
0.0
  0
LINE
  5
5D6
100
AcDbEntity
  8
TENSEN
100
AcDbLine
 10
1108.791792
 20
2794.137418
 30
0.0
 11
1108.791792
 21
2754.137418
 31
0.0
  0
LINE
  5
5DA
100
AcDbEntity
  8
ITTEN
100
AcDbLine
 10
968.791792
 20
2249.668799
 30
0.0
 11
968.791792
 21
1944.137418
 31
0.0
  0
TEXT
  5
5E3
100
AcDbEntity
  8
SUNPOU
100
AcDbText
 10
1303.654475
 20
2487.484533
 30
0.0
 40
45.0
  1
R300
 50
27.064934
  7
K
 72
     1
 11
1381.890508
 21
2527.459533
 31
0.0
100
AcDbText
  0
INSERT
  5
5E4
100
AcDbEntity
  8
SUNPOU
100
AcDbBlockReference
  2
ARROWANG
 10
1535.939224
 20
2555.637418
 30
0.0
 41
30.0
 42
30.0
 43
30.0
 50
27.064934
  0
LINE
  5
5E5
100
AcDbEntity
  8
SUNPOU
100
AcDbLine
 10
1535.939224
 20
2555.637418
 30
0.0
 11
1268.791792
 21
2419.137418
 31
0.0
  0
TEXT
  5
5E7
100
AcDbEntity
  8
SUNPOU
100
AcDbText
 10
1054.506093
 20
1939.137418
 30
0.0
 40
45.0
  1
300
  7
K
 72
     1
 11
1118.791807
 21
1939.137418
 31
0.0
100
AcDbText
  0
INSERT
  5
5E8
100
AcDbEntity
  8
SUNPOU
100
AcDbBlockReference
  2
ARROWANG
 10
1268.791792
 20
1894.137418
 30
0.0
 41
30.0
 42
30.0
 43
30.0
  0
INSERT
  5
5E9
100
AcDbEntity
  8
SUNPOU
100
AcDbBlockReference
  2
ARROWANG
 10
968.791792
 20
1894.137418
 30
0.0
 41
30.0
 42
30.0
 43
30.0
 50
180.0
  0
LINE
  5
5EA
100
AcDbEntity
  8
SUNPOU
100
AcDbLine
 10
968.791792
 20
1894.137418
 30
0.0
 11
1268.791792
 21
1894.137418
 31
0.0
  0
LINE
  5
5EB
100
AcDbEntity
  8
SUNPOU
100
AcDbLine
 10
1268.791792
 20
1864.137418
 30
0.0
 11
1268.791792
 21
1864.137418
 31
0.0
  0
LINE
  5
5EC
100
AcDbEntity
  8
SUNPOU
100
AcDbLine
 10
968.791792
 20
1944.137418
 30
0.0
 11
968.791792
 21
1864.137418
 31
0.0
  0
ARC
  5
5F8
100
AcDbEntity
  8
ITTEN
100
AcDbCircle
 10
726.291792
 20
2325.137418
 30
0.0
 40
42.5
100
AcDbArc
 50
270.0
 51
0.0
  0
ARC
  5
5F9
100
AcDbEntity
  8
ITTEN
100
AcDbCircle
 10
726.291792
 20
2513.137418
 30
0.0
 40
42.5
100
AcDbArc
 50
0.0
 51
90.0
  0
LINE
  5
5FA
100
AcDbEntity
  8
ITTEN
100
AcDbLine
 10
726.291792
 20
2282.637418
 30
0.0
 11
701.644361
 21
2282.637418
 31
0.0
  0
LINE
  5
5FB
100
AcDbEntity
  8
ITTEN
100
AcDbLine
 10
768.791792
 20
2513.137418
 30
0.0
 11
768.791792
 21
2325.137418
 31
0.0
  0
LINE
  5
5FC
100
AcDbEntity
  8
ITTEN
100
AcDbLine
 10
726.291792
 20
2555.637418
 30
0.0
 11
701.644361
 21
2555.637418
 31
0.0
  0
ARC
  5
5FD
100
AcDbEntity
  8
JISSEN
100
AcDbCircle
 10
726.291792
 20
2325.137418
 30
0.0
 40
55.0
100
AcDbArc
 50
270.0
 51
0.0
  0
ARC
  5
5FE
100
AcDbEntity
  8
JISSEN
100
AcDbCircle
 10
726.291792
 20
2513.137418
 30
0.0
 40
55.0
100
AcDbArc
 50
0.0
 51
90.0
  0
ARC
  5
5FF
100
AcDbEntity
  8
JISSEN
100
AcDbCircle
 10
726.291792
 20
2325.137418
 30
0.0
 40
30.0
100
AcDbArc
 50
270.0
 51
0.0
  0
ARC
  5
600
100
AcDbEntity
  8
JISSEN
100
AcDbCircle
 10
726.291792
 20
2513.137418
 30
0.0
 40
30.0
100
AcDbArc
 50
0.0
 51
90.0
  0
LINE
  5
601
100
AcDbEntity
  8
JISSEN
100
AcDbLine
 10
726.291792
 20
2568.137418
 30
0.0
 11
708.409381
 21
2568.137418
 31
0.0
  0
LINE
  5
602
100
AcDbEntity
  8
JISSEN
100
AcDbLine
 10
781.291792
 20
2325.137418
 30
0.0
 11
781.291792
 21
2513.137418
 31
0.0
  0
LINE
  5
605
100
AcDbEntity
  8
JISSEN
100
AcDbLine
 10
756.291792
 20
2513.137418
 30
0.0
 11
756.291792
 21
2325.137418
 31
0.0
  0
LINE
  5
606
100
AcDbEntity
  8
JISSEN
100
AcDbLine
 10
726.291792
 20
2543.137418
 30
0.0
 11
695.617855
 21
2543.137418
 31
0.0
  0
LINE
  5
607
100
AcDbEntity
  8
JISSEN
100
AcDbLine
 10
673.067983
 20
2543.137418
 30
0.0
 11
673.067983
 21
2543.137418
 31
0.0
  0
LINE
  5
608
100
AcDbEntity
  8
ITTEN
100
AcDbLine
 10
493.791792
 20
2419.137418
 30
0.0
 11
1743.791792
 21
2419.137418
 31
0.0
  0
LINE
  5
609
100
AcDbEntity
  8
ITTEN
100
AcDbLine
 10
1268.791792
 20
2894.137418
 30
0.0
 11
1268.791792
 21
1944.137418
 31
0.0
  0
LINE
  5
60A
100
AcDbEntity
  8
ITTEN
100
AcDbLine
 10
968.791792
 20
2894.137418
 30
0.0
 11
968.791792
 21
2332.770567
 31
0.0
  0
ARC
  5
60F
100
AcDbEntity
  8
JISSEN
100
AcDbCircle
 10
2468.791792
 20
2419.137418
 30
0.0
 40
1835.0
100
AcDbArc
 50
191.792017
 51
191.792017
  0
LINE
  5
61E
100
AcDbEntity
  8
JISSEN
100
AcDbLine
 10
1268.791792
 20
2719.137418
 30
0.0
 11
968.791792
 21
2719.137418
 31
0.0
  0
ARC
  5
623
100
AcDbEntity
  8
JISSEN
100
AcDbCircle
 10
1268.791792
 20
2419.137418
 30
0.0
 40
335.0
100
AcDbArc
 50
270.0
 51
90.0
  0
ARC
  5
624
100
AcDbEntity
  8
JISSEN
100
AcDbCircle
 10
1268.791792
 20
2419.137418
 30
0.0
 40
328.0
100
AcDbArc
 50
270.0
 51
90.0
  0
ARC
  5
625
100
AcDbEntity
  8
JISSEN
100
AcDbCircle
 10
1268.791792
 20
2419.137418
 30
0.0
 40
300.0
100
AcDbArc
 50
270.0
 51
90.0
  0
ARC
  5
626
100
AcDbEntity
  8
JISSEN
100
AcDbCircle
 10
1268.791792
 20
2419.137418
 30
0.0
 40
375.0
100
AcDbArc
 50
270.0
 51
90.0
  0
ARC
  5
627
100
AcDbEntity
  8
TENSEN
100
AcDbCircle
 10
2805.291792
 20
4044.137418
 30
0.0
 40
12.5
100
AcDbArc
 50
270.0
 51
90.0
  0
ARC
  5
628
100
AcDbEntity
  8
JISSEN
100
AcDbCircle
 10
2532.291792
 20
4044.137418
 30
0.0
 40
12.5
100
AcDbArc
 50
90.0
 51
270.0
  0
LINE
  5
629
100
AcDbEntity
  8
JISSEN
100
AcDbLine
 10
2532.291792
 20
4056.637418
 30
0.0
 11
2668.791792
 21
4056.637418
 31
0.0
  0
LINE
  5
62A
100
AcDbEntity
  8
TENSEN
100
AcDbLine
 10
2668.791792
 20
4056.637418
 30
0.0
 11
2805.291792
 21
4056.637418
 31
0.0
  0
LINE
  5
62B
100
AcDbEntity
  8
TENSEN
100
AcDbLine
 10
2805.291792
 20
4031.637418
 30
0.0
 11
2668.791792
 21
4031.637418
 31
0.0
  0
LINE
  5
62C
100
AcDbEntity
  8
JISSEN
100
AcDbLine
 10
2668.791792
 20
4031.637418
 30
0.0
 11
2532.291792
 21
4031.637418
 31
0.0
  0
LINE
  5
62D
100
AcDbEntity
  8
ITTEN
100
AcDbLine
 10
2468.791792
 20
4044.137418
 30
0.0
 11
2868.791792
 21
4044.137418
 31
0.0
  0
ARC
  5
62E
100
AcDbEntity
  8
TENSEN
100
AcDbCircle
 10
2805.291792
 20
3744.137418
 30
0.0
 40
12.5
100
AcDbArc
 50
270.0
 51
90.0
  0
ARC
  5
62F
100
AcDbEntity
  8
JISSEN
100
AcDbCircle
 10
2532.291792
 20
3744.137418
 30
0.0
 40
12.5
100
AcDbArc
 50
90.0
 51
270.0
  0
LINE
  5
630
100
AcDbEntity
  8
JISSEN
100
AcDbLine
 10
2532.291792
 20
3756.637418
 30
0.0
 11
2668.791792
 21
3756.637418
 31
0.0
  0
LINE
  5
631
100
AcDbEntity
  8
TENSEN
100
AcDbLine
 10
2668.791792
 20
3756.637418
 30
0.0
 11
2805.291792
 21
3756.637418
 31
0.0
  0
LINE
  5
632
100
AcDbEntity
  8
TENSEN
100
AcDbLine
 10
2805.291792
 20
3731.637418
 30
0.0
 11
2668.791792
 21
3731.637418
 31
0.0
  0
LINE
  5
633
100
AcDbEntity
  8
JISSEN
100
AcDbLine
 10
2668.791792
 20
3731.637418
 30
0.0
 11
2532.291792
 21
3731.637418
 31
0.0
  0
LINE
  5
634
100
AcDbEntity
  8
ITTEN
100
AcDbLine
 10
2468.791792
 20
3744.137418
 30
0.0
 11
2868.791792
 21
3744.137418
 31
0.0
  0
LINE
  5
635
100
AcDbEntity
  8
ITTEN
100
AcDbLine
 10
2468.791792
 20
3444.137418
 30
0.0
 11
2868.791792
 21
3444.137418
 31
0.0
  0
LINE
  5
636
100
AcDbEntity
  8
JISSEN
100
AcDbLine
 10
2668.791792
 20
3431.637418
 30
0.0
 11
2532.291792
 21
3431.637418
 31
0.0
  0
LINE
  5
637
100
AcDbEntity
  8
TENSEN
100
AcDbLine
 10
2805.291792
 20
3431.637418
 30
0.0
 11
2668.791792
 21
3431.637418
 31
0.0
  0
LINE
  5
638
100
AcDbEntity
  8
TENSEN
100
AcDbLine
 10
2668.791792
 20
3456.637418
 30
0.0
 11
2805.291792
 21
3456.637418
 31
0.0
  0
LINE
  5
639
100
AcDbEntity
  8
JISSEN
100
AcDbLine
 10
2532.291792
 20
3456.637418
 30
0.0
 11
2668.791792
 21
3456.637418
 31
0.0
  0
ARC
  5
63A
100
AcDbEntity
  8
JISSEN
100
AcDbCircle
 10
2532.291792
 20
3444.137418
 30
0.0
 40
12.5
100
AcDbArc
 50
90.0
 51
270.0
  0
ARC
  5
63B
100
AcDbEntity
  8
TENSEN
100
AcDbCircle
 10
2805.291792
 20
3444.137418
 30
0.0
 40
12.5
100
AcDbArc
 50
270.0
 51
90.0
  0
LINE
  5
63C
100
AcDbEntity
  8
ITTEN
100
AcDbLine
 10
2668.791792
 20
4309.137418
 30
0.0
 11
2668.791792
 21
3209.137418
 31
0.0
  0
TEXT
  5
63D
100
AcDbEntity
  8
SUNPOU
100
AcDbText
 10
2603.434664
 20
4404.137418
 30
0.0
 40
45.0
  1
600
  7
K
 72
     1
 11
2668.791807
 21
4404.137418
 31
0.0
100
AcDbText
  0
INSERT
  5
63E
100
AcDbEntity
  8
SUNPOU
100
AcDbBlockReference
  2
ARROWANG
 10
2968.791792
 20
4359.137418
 30
0.0
 41
30.0
 42
30.0
 43
30.0
  0
INSERT
  5
63F
100
AcDbEntity
  8
SUNPOU
100
AcDbBlockReference
  2
ARROWANG
 10
2368.791792
 20
4359.137418
 30
0.0
 41
30.0
 42
30.0
 43
30.0
 50
180.0
  0
LINE
  5
640
100
AcDbEntity
  8
SUNPOU
100
AcDbLine
 10
2368.791792
 20
4359.137418
 30
0.0
 11
2968.791792
 21
4359.137418
 31
0.0
  0
LINE
  5
641
100
AcDbEntity
  8
SUNPOU
100
AcDbLine
 10
2968.791792
 20
4329.137418
 30
0.0
 11
2968.791792
 21
4329.137418
 31
0.0
  0
LINE
  5
642
100
AcDbEntity
  8
SUNPOU
100
AcDbLine
 10
2368.791792
 20
4329.137418
 30
0.0
 11
2368.791792
 21
4329.137418
 31
0.0
  0
LINE
  5
643
100
AcDbEntity
  8
SUNPOU
100
AcDbLine
 10
2968.791792
 20
4359.137418
 30
0.0
 11
2908.791792
 21
4359.137418
 31
0.0
  0
LINE
  5
644
100
AcDbEntity
  8
SUNPOU
100
AcDbLine
 10
3043.791792
 20
4359.137418
 30
0.0
 11
3103.791792
 21
4359.137418
 31
0.0
  0
TEXT
  5
645
100
AcDbEntity
  8
SUNPOU
100
AcDbText
 10
2963.434664
 20
4404.137418
 30
0.0
 40
45.0
  1
75
  7
K
 72
     1
 11
3006.291807
 21
4404.137418
 31
0.0
100
AcDbText
  0
INSERT
  5
646
100
AcDbEntity
  8
SUNPOU
100
AcDbBlockReference
  2
ARROWANG
 10
2968.791792
 20
4359.137418
 30
0.0
 41
30.0
 42
30.0
 43
30.0
  0
INSERT
  5
647
100
AcDbEntity
  8
SUNPOU
100
AcDbBlockReference
  2
ARROWANG
 10
3043.791792
 20
4359.137418
 30
0.0
 41
30.0
 42
30.0
 43
30.0
 50
180.0
  0
LINE
  5
648
100
AcDbEntity
  8
SUNPOU
100
AcDbLine
 10
2968.791792
 20
4359.137418
 30
0.0
 11
3043.791792
 21
4359.137418
 31
0.0
  0
LINE
  5
649
100
AcDbEntity
  8
SUNPOU
100
AcDbLine
 10
3043.791792
 20
4389.137418
 30
0.0
 11
3043.791792
 21
4389.137418
 31
0.0
  0
LINE
  5
64A
100
AcDbEntity
  8
SUNPOU
100
AcDbLine
 10
2968.791792
 20
4216.137418
 30
0.0
 11
2968.791792
 21
4389.137418
 31
0.0
  0
LINE
  5
64B
100
AcDbEntity
  8
SUNPOU
100
AcDbLine
 10
2293.791792
 20
4359.137418
 30
0.0
 11
2233.791792
 21
4359.137418
 31
0.0
  0
LINE
  5
64C
100
AcDbEntity
  8
SUNPOU
100
AcDbLine
 10
2368.791792
 20
4359.137418
 30
0.0
 11
2428.791792
 21
4359.137418
 31
0.0
  0
TEXT
  5
64D
100
AcDbEntity
  8
SUNPOU
100
AcDbText
 10
2288.434664
 20
4404.137418
 30
0.0
 40
45.0
  1
75
  7
K
 72
     1
 11
2331.291807
 21
4404.137418
 31
0.0
100
AcDbText
  0
INSERT
  5
64E
100
AcDbEntity
  8
SUNPOU
100
AcDbBlockReference
  2
ARROWANG
 10
2293.791792
 20
4359.137418
 30
0.0
 41
30.0
 42
30.0
 43
30.0
  0
INSERT
  5
64F
100
AcDbEntity
  8
SUNPOU
100
AcDbBlockReference
  2
ARROWANG
 10
2368.791792
 20
4359.137418
 30
0.0
 41
30.0
 42
30.0
 43
30.0
 50
180.0
  0
LINE
  5
650
100
AcDbEntity
  8
SUNPOU
100
AcDbLine
 10
2293.791792
 20
4359.137418
 30
0.0
 11
2368.791792
 21
4359.137418
 31
0.0
  0
LINE
  5
651
100
AcDbEntity
  8
SUNPOU
100
AcDbLine
 10
2368.791792
 20
4216.137418
 30
0.0
 11
2368.791792
 21
4389.137418
 31
0.0
  0
LINE
  5
652
100
AcDbEntity
  8
SUNPOU
100
AcDbLine
 10
2293.791792
 20
4389.137418
 30
0.0
 11
2293.791792
 21
4389.137418
 31
0.0
  0
TEXT
  5
653
100
AcDbEntity
  8
SUNPOU
100
AcDbText
 10
2604.506078
 20
4554.137418
 30
0.0
 40
45.0
  1
750
  7
K
 72
     1
 11
2668.791792
 21
4554.137418
 31
0.0
100
AcDbText
  0
INSERT
  5
654
100
AcDbEntity
  8
SUNPOU
100
AcDbBlockReference
  2
ARROWANG
 10
2293.791792
 20
4509.137418
 30
0.0
 41
30.0
 42
30.0
 43
30.0
 50
180.0
  0
INSERT
  5
655
100
AcDbEntity
  8
SUNPOU
100
AcDbBlockReference
  2
ARROWANG
 10
3043.791792
 20
4509.137418
 30
0.0
 41
30.0
 42
30.0
 43
30.0
  0
LINE
  5
656
100
AcDbEntity
  8
SUNPOU
100
AcDbLine
 10
2293.791792
 20
4509.137418
 30
0.0
 11
3043.791792
 21
4509.137418
 31
0.0
  0
LINE
  5
657
100
AcDbEntity
  8
SUNPOU
100
AcDbLine
 10
3043.791792
 20
4239.137418
 30
0.0
 11
3043.791792
 21
4539.137418
 31
0.0
  0
LINE
  5
658
100
AcDbEntity
  8
SUNPOU
100
AcDbLine
 10
2293.791792
 20
4239.137418
 30
0.0
 11
2293.791792
 21
4539.137418
 31
0.0
  0
LINE
  5
659
100
AcDbEntity
  8
JISSEN
100
AcDbLine
 10
2293.791792
 20
4209.137418
 30
0.0
 11
2333.791792
 21
4209.137418
 31
0.0
  0
LINE
  5
65A
100
AcDbEntity
  8
JISSEN
100
AcDbLine
 10
2333.791792
 20
4209.137418
 30
0.0
 11
2340.791792
 21
4186.137418
 31
0.0
  0
LINE
  5
65B
100
AcDbEntity
  8
JISSEN
100
AcDbLine
 10
2340.791792
 20
4186.137418
 30
0.0
 11
2368.791792
 21
4186.137418
 31
0.0
  0
LINE
  5
65C
100
AcDbEntity
  8
JISSEN
100
AcDbLine
 10
2293.791792
 20
4209.137418
 30
0.0
 11
2293.791792
 21
3309.137418
 31
0.0
  0
LINE
  5
65D
100
AcDbEntity
  8
JISSEN
100
AcDbLine
 10
2293.791792
 20
3309.137418
 30
0.0
 11
2334.791792
 21
3309.137418
 31
0.0
  0
LINE
  5
65E
100
AcDbEntity
  8
JISSEN
100
AcDbLine
 10
2334.791792
 20
3309.137418
 30
0.0
 11
2343.791792
 21
3294.137418
 31
0.0
  0
LINE
  5
65F
100
AcDbEntity
  8
JISSEN
100
AcDbLine
 10
2343.791792
 20
3294.137418
 30
0.0
 11
2368.791792
 21
3294.137418
 31
0.0
  0
LINE
  5
660
100
AcDbEntity
  8
JISSEN
100
AcDbLine
 10
2368.791792
 20
4186.137418
 30
0.0
 11
2368.791792
 21
3294.137418
 31
0.0
  0
LINE
  5
661
100
AcDbEntity
  8
TENSEN
100
AcDbLine
 10
2968.791792
 20
4186.137418
 30
0.0
 11
2968.791792
 21
3294.137418
 31
0.0
  0
LINE
  5
662
100
AcDbEntity
  8
JISSEN
100
AcDbLine
 10
2993.791792
 20
3294.137418
 30
0.0
 11
2968.791792
 21
3294.137418
 31
0.0
  0
LINE
  5
663
100
AcDbEntity
  8
JISSEN
100
AcDbLine
 10
3002.791792
 20
3309.137418
 30
0.0
 11
2993.791792
 21
3294.137418
 31
0.0
  0
LINE
  5
664
100
AcDbEntity
  8
JISSEN
100
AcDbLine
 10
3043.791792
 20
3309.137418
 30
0.0
 11
3002.791792
 21
3309.137418
 31
0.0
  0
LINE
  5
665
100
AcDbEntity
  8
JISSEN
100
AcDbLine
 10
3043.791792
 20
4209.137418
 30
0.0
 11
3043.791792
 21
3309.137418
 31
0.0
  0
LINE
  5
666
100
AcDbEntity
  8
TENSEN
100
AcDbLine
 10
2996.791792
 20
4186.137418
 30
0.0
 11
2968.791792
 21
4186.137418
 31
0.0
  0
LINE
  5
667
100
AcDbEntity
  8
TENSEN
100
AcDbLine
 10
3003.791792
 20
4209.137418
 30
0.0
 11
2996.791792
 21
4186.137418
 31
0.0
  0
LINE
  5
668
100
AcDbEntity
  8
JISSEN
100
AcDbLine
 10
3043.791792
 20
4209.137418
 30
0.0
 11
3003.791792
 21
4209.137418
 31
0.0
  0
LINE
  5
669
100
AcDbEntity
  8
JISSEN
100
AcDbLine
 10
2334.791792
 20
4209.137418
 30
0.0
 11
3003.791792
 21
4209.137418
 31
0.0
  0
LINE
  5
66A
100
AcDbEntity
  8
JISSEN
100
AcDbLine
 10
2368.791792
 20
4186.137418
 30
0.0
 11
2668.791792
 21
4186.137418
 31
0.0
  0
LINE
  5
66B
100
AcDbEntity
  8
TENSEN
100
AcDbLine
 10
2668.791792
 20
4186.137418
 30
0.0
 11
2968.791792
 21
4186.137418
 31
0.0
  0
LINE
  5
66C
100
AcDbEntity
  8
JISSEN
100
AcDbLine
 10
2368.791792
 20
3294.137418
 30
0.0
 11
2968.791792
 21
3294.137418
 31
0.0
  0
LINE
  5
66D
100
AcDbEntity
  8
TENSEN
100
AcDbLine
 10
2334.791792
 20
3309.137418
 30
0.0
 11
2668.791792
 21
3309.137418
 31
0.0
  0
LINE
  5
66E
100
AcDbEntity
  8
JISSEN
100
AcDbLine
 10
2668.791792
 20
3309.137418
 30
0.0
 11
3002.791792
 21
3309.137418
 31
0.0
  0
LINE
  5
66F
100
AcDbEntity
  8
SUNPOU
100
AcDbLine
 10
2488.791792
 20
3294.137418
 30
0.0
 11
2488.791792
 21
3294.137418
 31
0.0
  0
LINE
  5
670
100
AcDbEntity
  8
SUNPOU
100
AcDbLine
 10
2648.791792
 20
3294.137418
 30
0.0
 11
2663.871597
 21
3294.137418
 31
0.0
  0
LINE
  5
671
100
AcDbEntity
  8
SUNPOU
100
AcDbLine
 10
2648.791792
 20
4186.137418
 30
0.0
 11
2663.871597
 21
4186.137418
 31
0.0
  0
TEXT
  5
672
100
AcDbEntity
  8
SUNPOU
100
AcDbText
 10
888.871597
 20
3678.760886
 30
0.0
 40
45.0
  1
892
 50
90.0
  7
K
 72
     1
 11
888.871597
 21
3743.0466
 31
0.0
100
AcDbText
  0
INSERT
  5
673
100
AcDbEntity
  8
SUNPOU
100
AcDbBlockReference
  2
ARROWANG
 10
933.871597
 20
4186.137418
 30
0.0
 41
30.0
 42
30.0
 43
30.0
 50
90.0
  0
INSERT
  5
674
100
AcDbEntity
  8
SUNPOU
100
AcDbBlockReference
  2
ARROWANG
 10
933.871597
 20
3294.137418
 30
0.0
 41
30.0
 42
30.0
 43
30.0
 50
270.0
  0
LINE
  5
675
100
AcDbEntity
  8
SUNPOU
100
AcDbLine
 10
933.871597
 20
3294.137418
 30
0.0
 11
933.871597
 21
4186.137418
 31
0.0
  0
LINE
  5
676
100
AcDbEntity
  8
SUNPOU
100
AcDbLine
 10
948.791792
 20
4186.137418
 30
0.0
 11
963.871597
 21
4186.137418
 31
0.0
  0
LINE
  5
677
100
AcDbEntity
  8
SUNPOU
100
AcDbLine
 10
948.791792
 20
3294.137418
 30
0.0
 11
963.871597
 21
3294.137418
 31
0.0
  0
TEXT
  5
678
100
AcDbEntity
  8
SUNPOU
100
AcDbText
 10
773.791792
 20
3301.637418
 30
0.0
 40
45.0
  1
150
 50
90.0
  7
K
 72
     1
 11
773.791792
 21
3369.137418
 31
0.0
100
AcDbText
  0
INSERT
  5
679
100
AcDbEntity
  8
SUNPOU
100
AcDbBlockReference
  2
ARROWANG
 10
818.791792
 20
3444.137418
 30
0.0
 41
30.0
 42
30.0
 43
30.0
 50
90.0
  0
INSERT
  5
67A
100
AcDbEntity
  8
SUNPOU
100
AcDbBlockReference
  2
ARROWANG
 10
818.791792
 20
3294.137418
 30
0.0
 41
30.0
 42
30.0
 43
30.0
 50
270.0
  0
LINE
  5
67B
100
AcDbEntity
  8
SUNPOU
100
AcDbLine
 10
818.791792
 20
3294.137418
 30
0.0
 11
818.791792
 21
3444.137418
 31
0.0
  0
LINE
  5
67C
100
AcDbEntity
  8
SUNPOU
100
AcDbLine
 10
788.791792
 20
3444.137418
 30
0.0
 11
788.791792
 21
3444.137418
 31
0.0
  0
LINE
  5
67D
100
AcDbEntity
  8
SUNPOU
100
AcDbLine
 10
788.791792
 20
3294.137418
 30
0.0
 11
788.791792
 21
3294.137418
 31
0.0
  0
TEXT
  5
67E
100
AcDbEntity
  8
SUNPOU
100
AcDbText
 10
773.791792
 20
3529.851704
 30
0.0
 40
45.0
  1
300
 50
90.0
  7
K
 72
     1
 11
773.791792
 21
3594.137418
 31
0.0
100
AcDbText
  0
INSERT
  5
67F
100
AcDbEntity
  8
SUNPOU
100
AcDbBlockReference
  2
ARROWANG
 10
818.791792
 20
3744.137418
 30
0.0
 41
30.0
 42
30.0
 43
30.0
 50
90.0
  0
INSERT
  5
680
100
AcDbEntity
  8
SUNPOU
100
AcDbBlockReference
  2
ARROWANG
 10
818.791792
 20
3444.137418
 30
0.0
 41
30.0
 42
30.0
 43
30.0
 50
270.0
  0
LINE
  5
681
100
AcDbEntity
  8
SUNPOU
100
AcDbLine
 10
818.791792
 20
3444.137418
 30
0.0
 11
818.791792
 21
3744.137418
 31
0.0
  0
LINE
  5
682
100
AcDbEntity
  8
SUNPOU
100
AcDbLine
 10
848.791792
 20
3744.137418
 30
0.0
 11
848.791792
 21
3744.137418
 31
0.0
  0
LINE
  5
683
100
AcDbEntity
  8
SUNPOU
100
AcDbLine
 10
848.791792
 20
3444.137418
 30
0.0
 11
848.791792
 21
3444.137418
 31
0.0
  0
TEXT
  5
684
100
AcDbEntity
  8
SUNPOU
100
AcDbText
 10
773.791792
 20
3829.851704
 30
0.0
 40
45.0
  1
300
 50
90.0
  7
K
 72
     1
 11
773.791792
 21
3894.137418
 31
0.0
100
AcDbText
  0
INSERT
  5
685
100
AcDbEntity
  8
SUNPOU
100
AcDbBlockReference
  2
ARROWANG
 10
818.791792
 20
4044.137418
 30
0.0
 41
30.0
 42
30.0
 43
30.0
 50
90.0
  0
INSERT
  5
686
100
AcDbEntity
  8
SUNPOU
100
AcDbBlockReference
  2
ARROWANG
 10
818.791792
 20
3744.137418
 30
0.0
 41
30.0
 42
30.0
 43
30.0
 50
270.0
  0
LINE
  5
687
100
AcDbEntity
  8
SUNPOU
100
AcDbLine
 10
818.791792
 20
3744.137418
 30
0.0
 11
818.791792
 21
4044.137418
 31
0.0
  0
LINE
  5
688
100
AcDbEntity
  8
SUNPOU
100
AcDbLine
 10
848.791792
 20
4044.137418
 30
0.0
 11
848.791792
 21
4044.137418
 31
0.0
  0
LINE
  5
689
100
AcDbEntity
  8
SUNPOU
100
AcDbLine
 10
848.791792
 20
3744.137418
 30
0.0
 11
848.791792
 21
3744.137418
 31
0.0
  0
ARC
  5
68A
100
AcDbEntity
  8
JISSEN
100
AcDbCircle
 10
768.791792
 20
4044.137418
 30
0.0
 40
12.5
100
AcDbArc
 50
270.0
 51
90.0
  0
LINE
  5
68B
100
AcDbEntity
  8
JISSEN
100
AcDbLine
 10
668.791792
 20
4056.637418
 30
0.0
 11
768.791792
 21
4056.637418
 31
0.0
  0
LINE
  5
68C
100
AcDbEntity
  8
JISSEN
100
AcDbLine
 10
768.791792
 20
4031.637418
 30
0.0
 11
668.791792
 21
4031.637418
 31
0.0
  0
LINE
  5
68D
100
AcDbEntity
  8
ITTEN
100
AcDbLine
 10
568.791792
 20
4044.137418
 30
0.0
 11
868.791792
 21
4044.137418
 31
0.0
  0
ARC
  5
68E
100
AcDbEntity
  8
JISSEN
100
AcDbCircle
 10
768.791792
 20
3744.137418
 30
0.0
 40
12.5
100
AcDbArc
 50
270.0
 51
90.0
  0
LINE
  5
68F
100
AcDbEntity
  8
JISSEN
100
AcDbLine
 10
668.791792
 20
3756.637418
 30
0.0
 11
768.791792
 21
3756.637418
 31
0.0
  0
LINE
  5
690
100
AcDbEntity
  8
JISSEN
100
AcDbLine
 10
768.791792
 20
3731.637418
 30
0.0
 11
668.791792
 21
3731.637418
 31
0.0
  0
LINE
  5
691
100
AcDbEntity
  8
ITTEN
100
AcDbLine
 10
568.791792
 20
3744.137418
 30
0.0
 11
839.247303
 21
3744.137418
 31
0.0
  0
LINE
  5
692
100
AcDbEntity
  8
ITTEN
100
AcDbLine
 10
568.791792
 20
3444.137418
 30
0.0
 11
868.791792
 21
3444.137418
 31
0.0
  0
LINE
  5
693
100
AcDbEntity
  8
JISSEN
100
AcDbLine
 10
768.791792
 20
3431.637418
 30
0.0
 11
668.791792
 21
3431.637418
 31
0.0
  0
LINE
  5
694
100
AcDbEntity
  8
JISSEN
100
AcDbLine
 10
668.791792
 20
3456.637418
 30
0.0
 11
768.791792
 21
3456.637418
 31
0.0
  0
ARC
  5
695
100
AcDbEntity
  8
JISSEN
100
AcDbCircle
 10
768.791792
 20
3444.137418
 30
0.0
 40
12.5
100
AcDbArc
 50
270.0
 51
90.0
  0
TEXT
  5
696
100
AcDbEntity
  8
SUNPOU
100
AcDbText
 10
448.791792
 20
3312.565989
 30
0.0
 40
45.0
  1
15
 50
90.0
  7
K
 72
     1
 11
448.791792
 21
3358.637418
 31
0.0
100
AcDbText
  0
LINE
  5
697
100
AcDbEntity
  8
SUNPOU
100
AcDbLine
 10
493.791792
 20
3294.137418
 30
0.0
 11
493.791794
 21
3234.137418
 31
0.0
  0
LINE
  5
698
100
AcDbEntity
  8
SUNPOU
100
AcDbLine
 10
493.791792
 20
3309.137418
 30
0.0
 11
493.791792
 21
3408.137418
 31
0.0
  0
INSERT
  5
699
100
AcDbEntity
  8
SUNPOU
100
AcDbBlockReference
  2
ARROWANG
 10
493.791792
 20
3309.137418
 30
0.0
 41
30.0
 42
30.0
 43
30.0
 50
270.0
  0
INSERT
  5
69A
100
AcDbEntity
  8
SUNPOU
100
AcDbBlockReference
  2
ARROWANG
 10
493.791792
 20
3294.137418
 30
0.0
 41
30.0
 42
30.0
 43
30.0
 50
90.0
  0
LINE
  5
69B
100
AcDbEntity
  8
SUNPOU
100
AcDbLine
 10
523.791792
 20
3309.137418
 30
0.0
 11
523.791792
 21
3309.137418
 31
0.0
  0
LINE
  5
69C
100
AcDbEntity
  8
SUNPOU
100
AcDbLine
 10
613.791792
 20
3294.137418
 30
0.0
 11
463.791792
 21
3294.137418
 31
0.0
  0
TEXT
  5
69D
100
AcDbEntity
  8
SUNPOU
100
AcDbText
 10
448.791792
 20
4093.780275
 30
0.0
 40
45.0
  1
23
 50
90.0
  7
K
 72
     1
 11
448.791792
 21
4136.637418
 31
0.0
100
AcDbText
  0
LINE
  5
69E
100
AcDbEntity
  8
SUNPOU
100
AcDbLine
 10
493.791792
 20
4209.137418
 30
0.0
 11
493.791792
 21
4269.137418
 31
0.0
  0
LINE
  5
69F
100
AcDbEntity
  8
SUNPOU
100
AcDbLine
 10
493.791792
 20
4186.137418
 30
0.0
 11
493.791792
 21
4087.137418
 31
0.0
  0
INSERT
  5
6A0
100
AcDbEntity
  8
SUNPOU
100
AcDbBlockReference
  2
ARROWANG
 10
493.791792
 20
4209.137418
 30
0.0
 41
30.0
 42
30.0
 43
30.0
 50
270.0
  0
INSERT
  5
6A1
100
AcDbEntity
  8
SUNPOU
100
AcDbBlockReference
  2
ARROWANG
 10
493.791792
 20
4186.137418
 30
0.0
 41
30.0
 42
30.0
 43
30.0
 50
90.0
  0
LINE
  5
6A2
100
AcDbEntity
  8
SUNPOU
100
AcDbLine
 10
523.791792
 20
4209.137418
 30
0.0
 11
523.791792
 21
4209.137418
 31
0.0
  0
LINE
  5
6A3
100
AcDbEntity
  8
SUNPOU
100
AcDbLine
 10
610.791792
 20
4186.137418
 30
0.0
 11
463.791792
 21
4186.137418
 31
0.0
  0
TEXT
  5
6A4
100
AcDbEntity
  8
SUNPOU
100
AcDbText
 10
298.791792
 20
3694.851704
 30
0.0
 40
45.0
  1
900
 50
90.0
  7
K
 72
     1
 11
298.791792
 21
3759.137418
 31
0.0
100
AcDbText
  0
INSERT
  5
6A5
100
AcDbEntity
  8
SUNPOU
100
AcDbBlockReference
  2
ARROWANG
 10
343.791792
 20
4209.137418
 30
0.0
 41
30.0
 42
30.0
 43
30.0
 50
90.0
  0
INSERT
  5
6A6
100
AcDbEntity
  8
SUNPOU
100
AcDbBlockReference
  2
ARROWANG
 10
343.791792
 20
3309.137418
 30
0.0
 41
30.0
 42
30.0
 43
30.0
 50
270.0
  0
LINE
  5
6A7
100
AcDbEntity
  8
SUNPOU
100
AcDbLine
 10
343.791792
 20
3309.137418
 30
0.0
 11
343.791792
 21
4209.137418
 31
0.0
  0
LINE
  5
6A8
100
AcDbEntity
  8
SUNPOU
100
AcDbLine
 10
563.791792
 20
4209.137418
 30
0.0
 11
313.791792
 21
4209.137418
 31
0.0
  0
LINE
  5
6A9
100
AcDbEntity
  8
SUNPOU
100
AcDbLine
 10
563.791792
 20
3309.137418
 30
0.0
 11
313.791792
 21
3309.137418
 31
0.0
  0
LINE
  5
6AE
100
AcDbEntity
  8
SUNPOU
100
AcDbLine
 10
1568.791792
 20
4329.137418
 30
0.0
 11
1568.791792
 21
4329.137418
 31
0.0
  0
TEXT
  5
6B6
100
AcDbEntity
  8
SUNPOU
100
AcDbText
 10
1054.506093
 20
4404.137418
 30
0.0
 40
45.0
  1
900
  7
K
 72
     1
 11
1118.791807
 21
4404.137418
 31
0.0
100
AcDbText
  0
INSERT
  5
6B7
100
AcDbEntity
  8
SUNPOU
100
AcDbBlockReference
  2
ARROWANG
 10
1568.791792
 20
4359.137418
 30
0.0
 41
30.0
 42
30.0
 43
30.0
  0
INSERT
  5
6B8
100
AcDbEntity
  8
SUNPOU
100
AcDbBlockReference
  2
ARROWANG
 10
668.791792
 20
4359.137418
 30
0.0
 41
30.0
 42
30.0
 43
30.0
 50
180.0
  0
LINE
  5
6B9
100
AcDbEntity
  8
SUNPOU
100
AcDbLine
 10
668.791792
 20
4359.137418
 30
0.0
 11
1568.791792
 21
4359.137418
 31
0.0
  0
LINE
  5
6BA
100
AcDbEntity
  8
SUNPOU
100
AcDbLine
 10
1568.791792
 20
4329.137418
 30
0.0
 11
1568.791792
 21
4329.137418
 31
0.0
  0
LINE
  5
6BB
100
AcDbEntity
  8
SUNPOU
100
AcDbLine
 10
668.791792
 20
4329.137418
 30
0.0
 11
668.791792
 21
4329.137418
 31
0.0
  0
LINE
  5
6BC
100
AcDbEntity
  8
SUNPOU
100
AcDbLine
 10
1568.791792
 20
4359.137418
 30
0.0
 11
1508.791792
 21
4359.137418
 31
0.0
  0
LINE
  5
6BD
100
AcDbEntity
  8
SUNPOU
100
AcDbLine
 10
1643.791792
 20
4359.137418
 30
0.0
 11
1703.791792
 21
4359.137418
 31
0.0
  0
TEXT
  5
6BE
100
AcDbEntity
  8
SUNPOU
100
AcDbText
 10
1563.43465
 20
4404.137418
 30
0.0
 40
45.0
  1
75
  7
K
 72
     1
 11
1606.291792
 21
4404.137418
 31
0.0
100
AcDbText
  0
INSERT
  5
6BF
100
AcDbEntity
  8
SUNPOU
100
AcDbBlockReference
  2
ARROWANG
 10
1568.791792
 20
4359.137418
 30
0.0
 41
30.0
 42
30.0
 43
30.0
  0
INSERT
  5
6C0
100
AcDbEntity
  8
SUNPOU
100
AcDbBlockReference
  2
ARROWANG
 10
1643.791792
 20
4359.137418
 30
0.0
 41
30.0
 42
30.0
 43
30.0
 50
180.0
  0
LINE
  5
6C1
100
AcDbEntity
  8
SUNPOU
100
AcDbLine
 10
1568.791792
 20
4359.137418
 30
0.0
 11
1643.791792
 21
4359.137418
 31
0.0
  0
LINE
  5
6C2
100
AcDbEntity
  8
SUNPOU
100
AcDbLine
 10
1643.791792
 20
4389.137418
 30
0.0
 11
1643.791792
 21
4389.137418
 31
0.0
  0
LINE
  5
6C4
100
AcDbEntity
  8
SUNPOU
100
AcDbLine
 10
593.791792
 20
4359.137418
 30
0.0
 11
533.791792
 21
4359.137418
 31
0.0
  0
LINE
  5
6C5
100
AcDbEntity
  8
SUNPOU
100
AcDbLine
 10
668.791792
 20
4359.137418
 30
0.0
 11
728.791792
 21
4359.137418
 31
0.0
  0
TEXT
  5
6C6
100
AcDbEntity
  8
SUNPOU
100
AcDbText
 10
588.434664
 20
4404.137418
 30
0.0
 40
45.0
  1
75
  7
K
 72
     1
 11
631.291807
 21
4404.137418
 31
0.0
100
AcDbText
  0
INSERT
  5
6C7
100
AcDbEntity
  8
SUNPOU
100
AcDbBlockReference
  2
ARROWANG
 10
593.791792
 20
4359.137418
 30
0.0
 41
30.0
 42
30.0
 43
30.0
  0
INSERT
  5
6C8
100
AcDbEntity
  8
SUNPOU
100
AcDbBlockReference
  2
ARROWANG
 10
668.791792
 20
4359.137418
 30
0.0
 41
30.0
 42
30.0
 43
30.0
 50
180.0
  0
LINE
  5
6C9
100
AcDbEntity
  8
SUNPOU
100
AcDbLine
 10
593.791792
 20
4359.137418
 30
0.0
 11
668.791792
 21
4359.137418
 31
0.0
  0
LINE
  5
6CB
100
AcDbEntity
  8
SUNPOU
100
AcDbLine
 10
593.791792
 20
4389.137418
 30
0.0
 11
593.791792
 21
4389.137418
 31
0.0
  0
TEXT
  5
6CC
100
AcDbEntity
  8
SUNPOU
100
AcDbText
 10
1029.863221
 20
4554.137418
 30
0.0
 40
45.0
  1
1050
  7
K
 72
     1
 11
1118.791792
 21
4554.137418
 31
0.0
100
AcDbText
  0
INSERT
  5
6CD
100
AcDbEntity
  8
SUNPOU
100
AcDbBlockReference
  2
ARROWANG
 10
593.791792
 20
4509.137418
 30
0.0
 41
30.0
 42
30.0
 43
30.0
 50
180.0
  0
INSERT
  5
6CE
100
AcDbEntity
  8
SUNPOU
100
AcDbBlockReference
  2
ARROWANG
 10
1643.791792
 20
4509.137418
 30
0.0
 41
30.0
 42
30.0
 43
30.0
  0
LINE
  5
6CF
100
AcDbEntity
  8
SUNPOU
100
AcDbLine
 10
593.791792
 20
4509.137418
 30
0.0
 11
1643.791792
 21
4509.137418
 31
0.0
  0
LINE
  5
6D3
100
AcDbEntity
  8
HASEN
100
AcDbLine
 10
968.791792
 20
3309.137418
 30
0.0
 11
1118.791792
 21
3309.137418
 31
0.0
  0
LINE
  5
6D4
100
AcDbEntity
  8
TENSEN
100
AcDbLine
 10
634.791792
 20
3309.137418
 30
0.0
 11
968.791792
 21
3309.137418
 31
0.0
  0
LINE
  5
6D5
100
AcDbEntity
  8
JISSEN
100
AcDbLine
 10
668.791792
 20
3294.137418
 30
0.0
 11
1568.791792
 21
3294.137418
 31
0.0
  0
LINE
  5
6D6
100
AcDbEntity
  8
JISSEN
100
AcDbLine
 10
968.791792
 20
4186.137418
 30
0.0
 11
1118.791792
 21
4186.137418
 31
0.0
  0
LINE
  5
6D7
100
AcDbEntity
  8
JISSEN
100
AcDbLine
 10
668.791792
 20
4186.137418
 30
0.0
 11
968.791792
 21
4186.137418
 31
0.0
  0
LINE
  5
6D8
100
AcDbEntity
  8
JISSEN
100
AcDbLine
 10
634.791792
 20
4209.137418
 30
0.0
 11
1603.791792
 21
4209.137418
 31
0.0
  0
LINE
  5
6D9
100
AcDbEntity
  8
JISSEN
100
AcDbLine
 10
1643.791792
 20
4209.137418
 30
0.0
 11
1603.791792
 21
4209.137418
 31
0.0
  0
LINE
  5
6DA
100
AcDbEntity
  8
TENSEN
100
AcDbLine
 10
1603.791792
 20
4209.137418
 30
0.0
 11
1596.791792
 21
4186.137418
 31
0.0
  0
LINE
  5
6DB
100
AcDbEntity
  8
TENSEN
100
AcDbLine
 10
1596.791792
 20
4186.137418
 30
0.0
 11
1568.791792
 21
4186.137418
 31
0.0
  0
LINE
  5
6DC
100
AcDbEntity
  8
JISSEN
100
AcDbLine
 10
1643.791792
 20
4209.137418
 30
0.0
 11
1643.791792
 21
3309.137418
 31
0.0
  0
LINE
  5
6DD
100
AcDbEntity
  8
JISSEN
100
AcDbLine
 10
1643.791792
 20
3309.137418
 30
0.0
 11
1602.791792
 21
3309.137418
 31
0.0
  0
LINE
  5
6DE
100
AcDbEntity
  8
JISSEN
100
AcDbLine
 10
1602.791792
 20
3309.137418
 30
0.0
 11
1593.791792
 21
3294.137418
 31
0.0
  0
LINE
  5
6DF
100
AcDbEntity
  8
JISSEN
100
AcDbLine
 10
1593.791792
 20
3294.137418
 30
0.0
 11
1568.791792
 21
3294.137418
 31
0.0
  0
LINE
  5
6E0
100
AcDbEntity
  8
TENSEN
100
AcDbLine
 10
1568.791792
 20
4186.137418
 30
0.0
 11
1568.791792
 21
3294.137418
 31
0.0
  0
LINE
  5
6E1
100
AcDbEntity
  8
JISSEN
100
AcDbLine
 10
668.791792
 20
4186.137418
 30
0.0
 11
668.791792
 21
3294.137418
 31
0.0
  0
LINE
  5
6E2
100
AcDbEntity
  8
JISSEN
100
AcDbLine
 10
643.791792
 20
3294.137418
 30
0.0
 11
668.791792
 21
3294.137418
 31
0.0
  0
LINE
  5
6E3
100
AcDbEntity
  8
JISSEN
100
AcDbLine
 10
634.791792
 20
3309.137418
 30
0.0
 11
643.791792
 21
3294.137418
 31
0.0
  0
LINE
  5
6E4
100
AcDbEntity
  8
JISSEN
100
AcDbLine
 10
593.791792
 20
3309.137418
 30
0.0
 11
634.791792
 21
3309.137418
 31
0.0
  0
LINE
  5
6E5
100
AcDbEntity
  8
JISSEN
100
AcDbLine
 10
593.791792
 20
4209.137418
 30
0.0
 11
593.791792
 21
3309.137418
 31
0.0
  0
LINE
  5
6E6
100
AcDbEntity
  8
JISSEN
100
AcDbLine
 10
640.791792
 20
4186.137418
 30
0.0
 11
668.791792
 21
4186.137418
 31
0.0
  0
LINE
  5
6E7
100
AcDbEntity
  8
JISSEN
100
AcDbLine
 10
633.791792
 20
4209.137418
 30
0.0
 11
640.791792
 21
4186.137418
 31
0.0
  0
LINE
  5
6E8
100
AcDbEntity
  8
JISSEN
100
AcDbLine
 10
593.791792
 20
4209.137418
 30
0.0
 11
633.791792
 21
4209.137418
 31
0.0
  0
ARC
  5
6EB
100
AcDbEntity
  8
JISSEN
100
AcDbCircle
 10
968.791792
 20
2419.137418
 30
0.0
 40
375.0
100
AcDbArc
 50
90.0
 51
270.0
  0
ARC
  5
6EC
100
AcDbEntity
  8
JISSEN
100
AcDbCircle
 10
968.791792
 20
2419.137418
 30
0.0
 40
335.0
100
AcDbArc
 50
90.0
 51
270.0
  0
ARC
  5
6ED
100
AcDbEntity
  8
JISSEN
100
AcDbCircle
 10
968.791792
 20
2419.137418
 30
0.0
 40
328.0
100
AcDbArc
 50
90.0
 51
270.0
  0
ARC
  5
6EE
100
AcDbEntity
  8
JISSEN
100
AcDbCircle
 10
968.791792
 20
2419.137418
 30
0.0
 40
300.0
100
AcDbArc
 50
90.0
 51
270.0
  0
LINE
  5
6EF
100
AcDbEntity
  8
ITTEN
100
AcDbLine
 10
968.791792
 20
2894.137418
 30
0.0
 11
968.791792
 21
1944.137418
 31
0.0
  0
LINE
  5
6F0
100
AcDbEntity
  8
JISSEN
100
AcDbLine
 10
968.791792
 20
2794.137418
 30
0.0
 11
1268.791792
 21
2794.137418
 31
0.0
  0
LINE
  5
6F1
100
AcDbEntity
  8
JISSEN
100
AcDbLine
 10
968.791792
 20
2754.137418
 30
0.0
 11
1268.791792
 21
2754.137418
 31
0.0
  0
LINE
  5
6F3
100
AcDbEntity
  8
JISSEN
100
AcDbLine
 10
968.791792
 20
2747.137418
 30
0.0
 11
1268.791792
 21
2747.137418
 31
0.0
  0
LINE
  5
6F4
100
AcDbEntity
  8
JISSEN
100
AcDbLine
 10
1268.791792
 20
2119.137418
 30
0.0
 11
968.791792
 21
2119.137418
 31
0.0
  0
LINE
  5
6F5
100
AcDbEntity
  8
JISSEN
100
AcDbLine
 10
968.791792
 20
2091.137418
 30
0.0
 11
1268.791792
 21
2091.137418
 31
0.0
  0
LINE
  5
6F6
100
AcDbEntity
  8
JISSEN
100
AcDbLine
 10
968.791792
 20
2084.137418
 30
0.0
 11
1268.791792
 21
2084.137418
 31
0.0
  0
LINE
  5
6F7
100
AcDbEntity
  8
JISSEN
100
AcDbLine
 10
968.791792
 20
2044.137418
 30
0.0
 11
1268.791792
 21
2044.137418
 31
0.0
  0
LINE
  5
6FB
100
AcDbEntity
  8
JISSEN
100
AcDbLine
 10
726.291792
 20
2270.137418
 30
0.0
 11
708.409381
 21
2270.137418
 31
0.0
  0
LINE
  5
6FC
100
AcDbEntity
  8
JISSEN
100
AcDbLine
 10
726.291792
 20
2295.137418
 30
0.0
 11
695.617855
 21
2295.137418
 31
0.0
  0
LINE
  5
705
100
AcDbEntity
  8
SUNPOU
100
AcDbLine
 10
1268.791792
 20
1944.137418
 30
0.0
 11
1268.791792
 21
1864.137418
 31
0.0
  0
LINE
  5
709
100
AcDbEntity
  8
SUNPOU
100
AcDbLine
 10
728.36378
 20
2598.565317
 30
0.0
 11
968.791792
 21
2419.137418
 31
0.0
  0
INSERT
  5
70A
100
AcDbEntity
  8
SUNPOU
100
AcDbBlockReference
  2
ARROWANG
 10
728.36378
 20
2598.565317
 30
0.0
 41
40.0
 42
40.0
 43
40.0
 50
143.26656
  0
TEXT
  5
70B
100
AcDbEntity
  8
SUNPOUT
100
AcDbText
 10
803.932967
 20
2579.602384
 30
0.0
 40
40.0
  1
R300
 50
323.26656
  7
K
 72
     1
 11
866.520576
 21
2532.894169
 31
0.0
100
AcDbText
  0
LINE
  5
70F
100
AcDbEntity
  8
ITTEN
100
AcDbLine
 10
1118.791792
 20
2957.80609
 30
0.0
 11
1118.791792
 21
1828.334303
 31
0.0
  0
LINE
  5
711
100
AcDbEntity
  8
TENSEN
100
AcDbLine
 10
1118.791792
 20
4186.137418
 30
0.0
 11
1568.791792
 21
4186.137418
 31
0.0
  0
LINE
  5
712
100
AcDbEntity
  8
JISSEN
100
AcDbLine
 10
1118.791792
 20
3309.137418
 30
0.0
 11
1602.791792
 21
3309.137418
 31
0.0
  0
LINE
  5
715
100
AcDbEntity
  8
ITTEN
100
AcDbLine
 10
1118.791792
 20
4313.26791
 30
0.0
 11
1118.791792
 21
3220.958127
 31
0.0
  0
LINE
  5
71E
100
AcDbEntity
  8
SUNPOU
100
AcDbLine
 10
1643.791792
 20
4239.137418
 30
0.0
 11
1643.791792
 21
4539.137418
 31
0.0
  0
LINE
  5
71F
100
AcDbEntity
  8
SUNPOU
100
AcDbLine
 10
1568.791792
 20
4216.137418
 30
0.0
 11
1568.791792
 21
4389.137418
 31
0.0
  0
LINE
  5
720
100
AcDbEntity
  8
SUNPOU
100
AcDbLine
 10
593.791792
 20
4239.137418
 30
0.0
 11
593.791792
 21
4539.137418
 31
0.0
  0
LINE
  5
721
100
AcDbEntity
  8
SUNPOU
100
AcDbLine
 10
668.791792
 20
4216.137418
 30
0.0
 11
668.791792
 21
4389.137418
 31
0.0
  0
LINE
  5
72E
100
AcDbEntity
  8
SUNPOU
100
AcDbLine
 10
668.791792
 20
2399.137418
 30
0.0
 11
668.791792
 21
1764.795056
 31
0.0
  0
LINE
  5
72F
100
AcDbEntity
  8
SUNPOU
100
AcDbLine
 10
1568.791792
 20
2399.137418
 30
0.0
 11
1568.791792
 21
1764.795056
 31
0.0
  0
LINE
  5
730
100
AcDbEntity
  8
SUNPOU
100
AcDbLine
 10
668.791792
 20
1784.795056
 30
0.0
 11
1568.791792
 21
1784.795056
 31
0.0
  0
INSERT
  5
731
100
AcDbEntity
  8
SUNPOU
100
AcDbBlockReference
  2
ARROWANG
 10
668.791792
 20
1784.795056
 30
0.0
 41
30.0
 42
30.0
 43
30.0
 50
180.0
  0
INSERT
  5
732
100
AcDbEntity
  8
SUNPOU
100
AcDbBlockReference
  2
ARROWANG
 10
1568.791792
 20
1784.795056
 30
0.0
 41
30.0
 42
30.0
 43
30.0
  0
TEXT
  5
733
100
AcDbEntity
  8
SUNPOUT
100
AcDbText
 10
1061.648935
 20
1814.795056
 30
0.0
 40
40.0
  1
900
  7
K
 72
     1
 11
1118.791792
 21
1814.795056
 31
0.0
100
AcDbText
  0
LINE
  5
734
100
AcDbEntity
  8
SUNPOU
100
AcDbLine
 10
1288.791792
 20
2119.137418
 30
0.0
 11
1873.450526
 21
2119.137418
 31
0.0
  0
LINE
  5
735
100
AcDbEntity
  8
SUNPOU
100
AcDbLine
 10
1288.791792
 20
2719.137418
 30
0.0
 11
1873.450526
 21
2719.137418
 31
0.0
  0
LINE
  5
736
100
AcDbEntity
  8
SUNPOU
100
AcDbLine
 10
1853.450526
 20
2119.137418
 30
0.0
 11
1853.450526
 21
2719.137418
 31
0.0
  0
INSERT
  5
737
100
AcDbEntity
  8
SUNPOU
100
AcDbBlockReference
  2
ARROWANG
 10
1853.450526
 20
2119.137418
 30
0.0
 41
30.0
 42
30.0
 43
30.0
 50
270.0
  0
INSERT
  5
738
100
AcDbEntity
  8
SUNPOU
100
AcDbBlockReference
  2
ARROWANG
 10
1853.450526
 20
2719.137418
 30
0.0
 41
30.0
 42
30.0
 43
30.0
 50
90.0
  0
TEXT
  5
739
100
AcDbEntity
  8
SUNPOUT
100
AcDbText
 10
1823.450526
 20
2361.04218
 30
0.0
 40
40.0
  1
600
 50
90.0
  7
K
 72
     1
 11
1823.450526
 21
2419.137418
 31
0.0
100
AcDbText
  0
LINE
  5
73A
100
AcDbEntity
  8
SUNPOU
100
AcDbLine
 10
1833.450526
 20
2719.137418
 30
0.0
 11
1833.450526
 21
2719.137418
 31
0.0
  0
LINE
  5
73B
100
AcDbEntity
  8
SUNPOU
100
AcDbLine
 10
1288.791792
 20
2794.137418
 30
0.0
 11
1873.450526
 21
2794.137418
 31
0.0
  0
LINE
  5
73C
100
AcDbEntity
  8
SUNPOU
100
AcDbLine
 10
1853.450526
 20
2719.137418
 30
0.0
 11
1853.450526
 21
2794.137418
 31
0.0
  0
INSERT
  5
73D
100
AcDbEntity
  8
SUNPOU
100
AcDbBlockReference
  2
ARROWANG
 10
1853.450526
 20
2719.137418
 30
0.0
 41
30.0
 42
30.0
 43
30.0
 50
270.0
  0
INSERT
  5
73E
100
AcDbEntity
  8
SUNPOU
100
AcDbBlockReference
  2
ARROWANG
 10
1853.450526
 20
2794.137418
 30
0.0
 41
30.0
 42
30.0
 43
30.0
 50
90.0
  0
TEXT
  5
73F
100
AcDbEntity
  8
SUNPOUT
100
AcDbText
 10
1823.450526
 20
2718.54218
 30
0.0
 40
40.0
  1
75
 50
90.0
  7
K
 72
     1
 11
1823.450526
 21
2756.637418
 31
0.0
100
AcDbText
  0
LINE
  5
740
100
AcDbEntity
  8
SUNPOU
100
AcDbLine
 10
1288.791792
 20
2044.137418
 30
0.0
 11
1873.450526
 21
2044.137418
 31
0.0
  0
LINE
  5
741
100
AcDbEntity
  8
SUNPOU
100
AcDbLine
 10
1833.450526
 20
2119.137418
 30
0.0
 11
1833.450526
 21
2119.137418
 31
0.0
  0
LINE
  5
742
100
AcDbEntity
  8
SUNPOU
100
AcDbLine
 10
1853.450526
 20
2044.137418
 30
0.0
 11
1853.450526
 21
2119.137418
 31
0.0
  0
INSERT
  5
743
100
AcDbEntity
  8
SUNPOU
100
AcDbBlockReference
  2
ARROWANG
 10
1853.450526
 20
2044.137418
 30
0.0
 41
30.0
 42
30.0
 43
30.0
 50
270.0
  0
INSERT
  5
744
100
AcDbEntity
  8
SUNPOU
100
AcDbBlockReference
  2
ARROWANG
 10
1853.450526
 20
2119.137418
 30
0.0
 41
30.0
 42
30.0
 43
30.0
 50
90.0
  0
TEXT
  5
745
100
AcDbEntity
  8
SUNPOUT
100
AcDbText
 10
1823.450526
 20
2043.54218
 30
0.0
 40
40.0
  1
75
 50
90.0
  7
K
 72
     1
 11
1823.450526
 21
2081.637418
 31
0.0
100
AcDbText
  0
LINE
  5
746
100
AcDbEntity
  8
SUNPOU
100
AcDbLine
 10
1568.791792
 20
1764.795056
 30
0.0
 11
1568.791792
 21
1764.795056
 31
0.0
  0
LINE
  5
747
100
AcDbEntity
  8
SUNPOU
100
AcDbLine
 10
1643.791792
 20
2399.137418
 30
0.0
 11
1643.791792
 21
1764.795056
 31
0.0
  0
LINE
  5
748
100
AcDbEntity
  8
SUNPOU
100
AcDbLine
 10
1568.791792
 20
1784.795056
 30
0.0
 11
1643.791792
 21
1784.795056
 31
0.0
  0
INSERT
  5
749
100
AcDbEntity
  8
SUNPOU
100
AcDbBlockReference
  2
ARROWANG
 10
1568.791792
 20
1784.795056
 30
0.0
 41
30.0
 42
30.0
 43
30.0
 50
180.0
  0
INSERT
  5
74A
100
AcDbEntity
  8
SUNPOU
100
AcDbBlockReference
  2
ARROWANG
 10
1643.791792
 20
1784.795056
 30
0.0
 41
30.0
 42
30.0
 43
30.0
  0
TEXT
  5
74B
100
AcDbEntity
  8
SUNPOUT
100
AcDbText
 10
1568.196554
 20
1814.795056
 30
0.0
 40
40.0
  1
75
  7
K
 72
     1
 11
1606.291792
 21
1814.795056
 31
0.0
100
AcDbText
  0
LINE
  5
74C
100
AcDbEntity
  8
SUNPOU
100
AcDbLine
 10
593.791792
 20
2399.137418
 30
0.0
 11
593.791792
 21
1764.795056
 31
0.0
  0
LINE
  5
74D
100
AcDbEntity
  8
SUNPOU
100
AcDbLine
 10
668.791792
 20
1764.795056
 30
0.0
 11
668.791792
 21
1764.795056
 31
0.0
  0
LINE
  5
74E
100
AcDbEntity
  8
SUNPOU
100
AcDbLine
 10
593.791792
 20
1784.795056
 30
0.0
 11
668.791792
 21
1784.795056
 31
0.0
  0
INSERT
  5
74F
100
AcDbEntity
  8
SUNPOU
100
AcDbBlockReference
  2
ARROWANG
 10
593.791792
 20
1784.795056
 30
0.0
 41
30.0
 42
30.0
 43
30.0
 50
180.0
  0
INSERT
  5
750
100
AcDbEntity
  8
SUNPOU
100
AcDbBlockReference
  2
ARROWANG
 10
668.791792
 20
1784.795056
 30
0.0
 41
30.0
 42
30.0
 43
30.0
  0
TEXT
  5
751
100
AcDbEntity
  8
SUNPOUT
100
AcDbText
 10
593.196554
 20
1814.795056
 30
0.0
 40
40.0
  1
75
  7
K
 72
     1
 11
631.291792
 21
1814.795056
 31
0.0
100
AcDbText
  0
LINE
  5
752
100
AcDbEntity
  8
JISSEN
100
AcDbLine
 10
4483.336022
 20
4127.394733
 30
0.0
 11
4783.336022
 21
4127.394733
 31
0.0
  0
LINE
  5
753
100
AcDbEntity
  8
JISSEN
100
AcDbLine
 10
4783.336022
 20
4127.394733
 30
0.0
 11
4933.336022
 21
4127.394733
 31
0.0
  0
LINE
  5
754
100
AcDbEntity
  8
TENSEN
100
AcDbLine
 10
4933.336022
 20
4127.394733
 30
0.0
 11
5383.336022
 21
4127.394733
 31
0.0
  0
LINE
  5
755
100
AcDbEntity
  8
SUNPOU
100
AcDbLine
 10
4408.336022
 20
4180.394733
 30
0.0
 11
4408.336022
 21
4480.394733
 31
0.0
  0
LINE
  5
756
100
AcDbEntity
  8
SUNPOU
100
AcDbLine
 10
5458.336022
 20
4180.394733
 30
0.0
 11
5458.336022
 21
4480.394733
 31
0.0
  0
LINE
  5
757
100
AcDbEntity
  8
SUNPOU
100
AcDbLine
 10
4408.336022
 20
4450.394733
 30
0.0
 11
5458.336022
 21
4450.394733
 31
0.0
  0
INSERT
  5
758
100
AcDbEntity
  8
SUNPOU
100
AcDbBlockReference
  2
ARROWANG
 10
5458.336022
 20
4450.394733
 30
0.0
 41
30.0
 42
30.0
 43
30.0
  0
INSERT
  5
759
100
AcDbEntity
  8
SUNPOU
100
AcDbBlockReference
  2
ARROWANG
 10
4408.336022
 20
4450.394733
 30
0.0
 41
30.0
 42
30.0
 43
30.0
 50
180.0
  0
TEXT
  5
75A
100
AcDbEntity
  8
SUNPOU
100
AcDbText
 10
4844.407451
 20
4495.394733
 30
0.0
 40
45.0
  1
1050
  7
K
 72
     1
 11
4933.336022
 21
4495.394733
 31
0.0
100
AcDbText
  0
LINE
  5
75B
100
AcDbEntity
  8
SUNPOU
100
AcDbLine
 10
4408.336022
 20
4330.394733
 30
0.0
 11
4408.336022
 21
4330.394733
 31
0.0
  0
LINE
  5
75C
100
AcDbEntity
  8
SUNPOU
100
AcDbLine
 10
4408.336022
 20
4300.394733
 30
0.0
 11
4483.336022
 21
4300.394733
 31
0.0
  0
INSERT
  5
75D
100
AcDbEntity
  8
SUNPOU
100
AcDbBlockReference
  2
ARROWANG
 10
4483.336022
 20
4300.394733
 30
0.0
 41
30.0
 42
30.0
 43
30.0
 50
180.0
  0
INSERT
  5
75E
100
AcDbEntity
  8
SUNPOU
100
AcDbBlockReference
  2
ARROWANG
 10
4408.336022
 20
4300.394733
 30
0.0
 41
30.0
 42
30.0
 43
30.0
  0
TEXT
  5
75F
100
AcDbEntity
  8
SUNPOU
100
AcDbText
 10
4402.978894
 20
4345.394733
 30
0.0
 40
45.0
  1
75
  7
K
 72
     1
 11
4445.836037
 21
4345.394733
 31
0.0
100
AcDbText
  0
LINE
  5
760
100
AcDbEntity
  8
SUNPOU
100
AcDbLine
 10
4483.336022
 20
4300.394733
 30
0.0
 11
4543.336022
 21
4300.394733
 31
0.0
  0
LINE
  5
761
100
AcDbEntity
  8
SUNPOU
100
AcDbLine
 10
4408.336022
 20
4300.394733
 30
0.0
 11
4348.336022
 21
4300.394733
 31
0.0
  0
LINE
  5
762
100
AcDbEntity
  8
SUNPOU
100
AcDbLine
 10
5458.336022
 20
4330.394733
 30
0.0
 11
5458.336022
 21
4330.394733
 31
0.0
  0
LINE
  5
763
100
AcDbEntity
  8
SUNPOU
100
AcDbLine
 10
5383.336022
 20
4300.394733
 30
0.0
 11
5458.336022
 21
4300.394733
 31
0.0
  0
INSERT
  5
764
100
AcDbEntity
  8
SUNPOU
100
AcDbBlockReference
  2
ARROWANG
 10
5458.336022
 20
4300.394733
 30
0.0
 41
30.0
 42
30.0
 43
30.0
 50
180.0
  0
INSERT
  5
765
100
AcDbEntity
  8
SUNPOU
100
AcDbBlockReference
  2
ARROWANG
 10
5383.336022
 20
4300.394733
 30
0.0
 41
30.0
 42
30.0
 43
30.0
  0
TEXT
  5
766
100
AcDbEntity
  8
SUNPOU
100
AcDbText
 10
5377.978879
 20
4345.394733
 30
0.0
 40
45.0
  1
75
  7
K
 72
     1
 11
5420.836022
 21
4345.394733
 31
0.0
100
AcDbText
  0
LINE
  5
767
100
AcDbEntity
  8
SUNPOU
100
AcDbLine
 10
5458.336022
 20
4300.394733
 30
0.0
 11
5518.336022
 21
4300.394733
 31
0.0
  0
LINE
  5
768
100
AcDbEntity
  8
SUNPOU
100
AcDbLine
 10
5383.336022
 20
4300.394733
 30
0.0
 11
5323.336022
 21
4300.394733
 31
0.0
  0
LINE
  5
769
100
AcDbEntity
  8
SUNPOU
100
AcDbLine
 10
4483.336022
 20
4270.394733
 30
0.0
 11
4483.336022
 21
4270.394733
 31
0.0
  0
LINE
  5
76A
100
AcDbEntity
  8
SUNPOU
100
AcDbLine
 10
5383.336022
 20
4270.394733
 30
0.0
 11
5383.336022
 21
4270.394733
 31
0.0
  0
LINE
  5
76B
100
AcDbEntity
  8
SUNPOU
100
AcDbLine
 10
4483.336022
 20
4300.394733
 30
0.0
 11
5383.336022
 21
4300.394733
 31
0.0
  0
INSERT
  5
76C
100
AcDbEntity
  8
SUNPOU
100
AcDbBlockReference
  2
ARROWANG
 10
4483.336022
 20
4300.394733
 30
0.0
 41
30.0
 42
30.0
 43
30.0
 50
180.0
  0
INSERT
  5
76D
100
AcDbEntity
  8
SUNPOU
100
AcDbBlockReference
  2
ARROWANG
 10
5383.336022
 20
4300.394733
 30
0.0
 41
30.0
 42
30.0
 43
30.0
  0
TEXT
  5
76E
100
AcDbEntity
  8
SUNPOU
100
AcDbText
 10
4869.050322
 20
4345.394733
 30
0.0
 40
45.0
  1
900
  7
K
 72
     1
 11
4933.336037
 21
4345.394733
 31
0.0
100
AcDbText
  0
LINE
  5
76F
100
AcDbEntity
  8
SUNPOU
100
AcDbLine
 10
5383.336022
 20
4270.394733
 30
0.0
 11
5383.336022
 21
4270.394733
 31
0.0
  0
LINE
  5
770
100
AcDbEntity
  8
SUNPOU
100
AcDbLine
 10
5383.336022
 20
4157.394733
 30
0.0
 11
5383.336022
 21
4330.394733
 31
0.0
  0
LINE
  5
771
100
AcDbEntity
  8
SUNPOU
100
AcDbLine
 10
4483.336022
 20
4157.394733
 30
0.0
 11
4483.336022
 21
4330.394733
 31
0.0
  0
LINE
  5
772
100
AcDbEntity
  8
HASEN
100
AcDbLine
 10
4783.336022
 20
3550.394733
 30
0.0
 11
4933.336022
 21
3550.394733
 31
0.0
  0
LINE
  5
773
100
AcDbEntity
  8
JISSEN
100
AcDbLine
 10
4933.336022
 20
3550.394733
 30
0.0
 11
5417.336022
 21
3550.394733
 31
0.0
  0
LINE
  5
774
100
AcDbEntity
  8
TENSEN
100
AcDbLine
 10
4449.336022
 20
3550.394733
 30
0.0
 11
4783.336022
 21
3550.394733
 31
0.0
  0
LINE
  5
779
100
AcDbEntity
  8
ITTEN
100
AcDbLine
 10
4933.336022
 20
4216.646931
 30
0.0
 11
4933.336022
 21
3460.173132
 31
0.0
  0
LINE
  5
77B
100
AcDbEntity
  8
JISSEN
100
AcDbLine
 10
4357.489011
 20
1635.026283
 30
0.0
 11
4657.489011
 21
1635.026283
 31
0.0
  0
LINE
  5
77C
100
AcDbEntity
  8
JISSEN
100
AcDbLine
 10
4657.489011
 20
1635.026283
 30
0.0
 11
4807.489011
 21
1635.026283
 31
0.0
  0
LINE
  5
77D
100
AcDbEntity
  8
TENSEN
100
AcDbLine
 10
4807.489011
 20
1635.026283
 30
0.0
 11
5257.489011
 21
1635.026283
 31
0.0
  0
LINE
  5
77E
100
AcDbEntity
  8
TENSEN
100
AcDbLine
 10
4323.489011
 20
1358.026283
 30
0.0
 11
4657.489011
 21
1358.026283
 31
0.0
  0
LINE
  5
77F
100
AcDbEntity
  8
HASEN
100
AcDbLine
 10
4657.489011
 20
1358.026283
 30
0.0
 11
4807.489011
 21
1358.026283
 31
0.0
  0
LINE
  5
780
100
AcDbEntity
  8
JISSEN
100
AcDbLine
 10
4807.489011
 20
1358.026283
 30
0.0
 11
5291.489011
 21
1358.026283
 31
0.0
  0
VIEWPORT
  5
22
100
AcDbEntity
 67
     1
  8
0
100
AcDbViewport
 10
261.517699
 20
148.5
 30
0.0
 40
523.035398
 41
297.0
 68
    -1
 69
     1
1001
ACAD
1000
MVIEW
1002
{
1070
    16
1010
0.0
1020
0.0
1030
0.0
1010
0.0
1020
0.0
1030
1.0
1040
0.0
1040
297.0
1040
261.517699
1040
148.5
1040
50.0
1040
0.0
1040
0.0
1070
     0
1070
   100
1070
     1
1070
     1
1070
     0
1070
     0
1070
     0
1070
     0
1040
0.0
1040
0.0
1040
0.0
1040
1.0
1040
1.0
1040
10.0
1040
10.0
1070
     0
1002
{
1002
}
1002
}
  0
ENDSEC
  0
SECTION
  2
OBJECTS
  0
DICTIONARY
  5
C
100
AcDbDictionary
  3
ACAD_GROUP
350
D
  3
ACAD_MLINESTYLE
350
E
  0
DICTIONARY
  5
D
102
{ACAD_REACTORS
330
C
102
}
100
AcDbDictionary
  0
DICTIONARY
  5
E
102
{ACAD_REACTORS
330
C
102
}
100
AcDbDictionary
  3
STANDARD
350
13
  0
MLINESTYLE
  5
13
102
{ACAD_REACTORS
330
E
102
}
100
AcDbMlineStyle
  2
STANDARD
 70
     0
  3

 62
     0
 51
90.0
 52
90.0
 71
     2
 49
0.5
 62
   256
  6
BYLAYER
 49
-0.5
 62
   256
  6
BYLAYER
  0
ENDSEC
  0
EOF
