  0
SECTION
  2
HEADER
  9
$ACADVER
  1
AC1009
  9
$INSBASE
 10
0.0
 20
0.0
 30
0.0
  9
$EXTMIN
 10
0.0
 20
0.0
 30
0.0
  9
$EXTMAX
 10
7900.0
 20
5460.0
 30
0.0
  9
$LIMMIN
 10
0.0
 20
0.0
  9
$LIMMAX
 10
7900.0
 20
5460.0
  9
$ORTHOMODE
 70
     0
  9
$REGENMODE
 70
     1
  9
$FILLMODE
 70
     1
  9
$QTEXTMODE
 70
     0
  9
$MIRRTEXT
 70
     0
  9
$DRAGMODE
 70
     2
  9
$LTSCALE
 40
100.0
  9
$OSMODE
 70
    33
  9
$ATTMODE
 70
     1
  9
$TEXTSIZE
 40
45.0
  9
$TRACEWID
 40
0.05
  9
$TEXTSTYLE
  7
K
  9
$CLAYER
  8
SUNPOU
  9
$CELTYPE
  6
BYLAYER
  9
$CECOLOR
 62
   256
  9
$DIMSCALE
 40
20.0
  9
$DIMASZ
 40
1.5
  9
$DIMEXO
 40
1.0
  9
$DIMDLI
 40
6.0
  9
$DIMRND
 40
0.0
  9
$DIMDLE
 40
0.0
  9
$DIMEXE
 40
1.0
  9
$DIMTP
 40
495.0
  9
$DIMTM
 40
0.0
  9
$DIMTXT
 40
3.0
  9
$DIMCEN
 40
0.0
  9
$DIMTSZ
 40
0.0
  9
$DIMTOL
 70
     0
  9
$DIMLIM
 70
     0
  9
$DIMTIH
 70
     0
  9
$DIMTOH
 70
     0
  9
$DIMSE1
 70
     0
  9
$DIMSE2
 70
     0
  9
$DIMTAD
 70
     1
  9
$DIMZIN
 70
     8
  9
$DIMBLK
  1
ARROW
  9
$DIMASO
 70
     0
  9
$DIMSHO
 70
     0
  9
$DIMPOST
  1

  9
$DIMAPOST
  1

  9
$DIMALT
 70
     0
  9
$DIMALTD
 70
     2
  9
$DIMALTF
 40
25.4
  9
$DIMLFAC
 40
1.0
  9
$DIMTOFL
 70
     1
  9
$DIMTVP
 40
0.0
  9
$DIMTIX
 70
     1
  9
$DIMSOXD
 70
     0
  9
$DIMSAH
 70
     0
  9
$DIMBLK1
  1

  9
$DIMBLK2
  1

  9
$DIMSTYLE
  2
*UNNAMED
  9
$DIMCLRD
 70
     0
  9
$DIMCLRE
 70
     0
  9
$DIMCLRT
 70
     0
  9
$DIMTFAC
 40
1.0
  9
$DIMGAP
 40
0.09
  9
$LUNITS
 70
     2
  9
$LUPREC
 70
     2
  9
$AXISMODE
 70
     0
  9
$AXISUNIT
 10
100.0
 20
100.0
  9
$SKETCHINC
 40
0.1
  9
$FILLETRAD
 40
300.0
  9
$AUNITS
 70
     0
  9
$AUPREC
 70
     2
  9
$MENU
  1
G:STDGX5
  9
$ELEVATION
 40
0.0
  9
$PELEVATION
 40
0.0
  9
$THICKNESS
 40
0.0
  9
$LIMCHECK
 70
     0
  9
$BLIPMODE
 70
     1
  9
$CHAMFERA
 40
0.0
  9
$CHAMFERB
 40
0.0
  9
$SKPOLY
 70
     0
  9
$TDCREATE
 40
2450249.489537037
  9
$TDUPDATE
 40
2450249.498229166
  9
$TDINDWG
 40
0.0051967593
  9
$TDUSRTIMER
 40
0.0051967593
  9
$USRTIMER
 70
     1
  9
$ANGBASE
 50
0.0
  9
$ANGDIR
 70
     0
  9
$PDMODE
 70
     0
  9
$PDSIZE
 40
0.0
  9
$PLINEWID
 40
0.0
  9
$COORDS
 70
     2
  9
$SPLFRAME
 70
     0
  9
$SPLINETYPE
 70
     6
  9
$SPLINESEGS
 70
     8
  9
$ATTDIA
 70
     0
  9
$ATTREQ
 70
     1
  9
$HANDLING
 70
     0
  9
$HANDSEED
  5
0
  9
$SURFTAB1
 70
     6
  9
$SURFTAB2
 70
     6
  9
$SURFTYPE
 70
     6
  9
$SURFU
 70
     6
  9
$SURFV
 70
     6
  9
$UCSNAME
  2

  9
$UCSORG
 10
0.0
 20
0.0
 30
0.0
  9
$UCSXDIR
 10
1.0
 20
0.0
 30
0.0
  9
$UCSYDIR
 10
0.0
 20
1.0
 30
0.0
  9
$PUCSNAME
  2

  9
$PUCSORG
 10
0.0
 20
0.0
 30
0.0
  9
$PUCSXDIR
 10
1.0
 20
0.0
 30
0.0
  9
$PUCSYDIR
 10
0.0
 20
1.0
 30
0.0
  9
$USERI1
 70
     3
  9
$USERI2
 70
    33
  9
$USERI3
 70
     0
  9
$USERI4
 70
     1
  9
$USERI5
 70
     0
  9
$USERR1
 40
20.0
  9
$USERR2
 40
3.0
  9
$USERR3
 40
3.0
  9
$USERR4
 40
1.5
  9
$USERR5
 40
10.0
  9
$WORLDVIEW
 70
     1
  9
$SHADEDGE
 70
     3
  9
$SHADEDIF
 70
    70
  9
$TILEMODE
 70
     1
  9
$MAXACTVP
 70
    16
  9
$PINSBASE
 10
0.0
 20
0.0
 30
0.0
  9
$PLIMCHECK
 70
     0
  9
$PEXTMIN
 10
1.000000E+20
 20
1.000000E+20
 30
1.000000E+20
  9
$PEXTMAX
 10
-1.000000E+20
 20
-1.000000E+20
 30
-1.000000E+20
  9
$PLIMMIN
 10
0.0
 20
0.0
  9
$PLIMMAX
 10
12.0
 20
9.0
  9
$UNITMODE
 70
     0
  9
$VISRETAIN
 70
     0
  0
ENDSEC
  0
SECTION
  2
TABLES
  0
TABLE
  2
VPORT
 70
    10
  0
VPORT
  2
*ACTIVE
 70
     0
 10
0.0
 20
0.0
 11
1.0
 21
1.0
 12
4461.010491
 22
2730.0
 13
0.0
 23
0.0
 14
1.0
 24
1.0
 15
10.0
 25
10.0
 16
0.0
 26
0.0
 36
1.0
 17
0.0
 27
0.0
 37
0.0
 40
5460.0
 41
1.63407
 42
50.0
 43
0.0
 44
0.0
 50
0.0
 51
0.0
 71
     0
 72
   500
 73
     1
 74
     0
 75
     0
 76
     0
 77
     0
 78
     0
  0
VPORT
  2
2
 70
     0
 10
0.5
 20
0.0
 11
1.0
 21
1.0
 12
0.924031
 22
1.052651
 13
0.0
 23
0.0
 14
1.0
 24
1.0
 15
10.0
 25
10.0
 16
0.0
 26
0.0
 36
1.0
 17
0.0
 27
0.0
 37
0.0
 40
2.105302
 41
0.877814
 42
50.0
 43
0.0
 44
0.0
 50
0.0
 51
0.0
 71
     0
 72
   500
 73
     1
 74
     1
 75
     0
 76
     0
 77
     0
 78
     0
  0
VPORT
  2
2
 70
     0
 10
0.0
 20
0.0
 11
0.5
 21
1.0
 12
0.924031
 22
1.052651
 13
0.0
 23
0.0
 14
1.0
 24
1.0
 15
10.0
 25
10.0
 16
0.0
 26
0.0
 36
1.0
 17
0.0
 27
0.0
 37
0.0
 40
2.105302
 41
0.877814
 42
50.0
 43
0.0
 44
0.0
 50
0.0
 51
0.0
 71
     0
 72
   500
 73
     1
 74
     1
 75
     0
 76
     0
 77
     0
 78
     0
  0
VPORT
  2
3
 70
     0
 10
0.0
 20
0.5
 11
1.0
 21
1.0
 12
2.83217
 22
1.052651
 13
0.0
 23
0.0
 14
1.0
 24
1.0
 15
10.0
 25
10.0
 16
0.0
 26
0.0
 36
1.0
 17
0.0
 27
0.0
 37
0.0
 40
2.105302
 41
3.571429
 42
50.0
 43
0.0
 44
0.0
 50
0.0
 51
0.0
 71
     0
 72
   500
 73
     1
 74
     1
 75
     0
 76
     0
 77
     0
 78
     0
  0
VPORT
  2
3
 70
     0
 10
0.0
 20
0.0
 11
1.0
 21
0.5
 12
2.856742
 22
1.052651
 13
0.0
 23
0.0
 14
1.0
 24
1.0
 15
10.0
 25
10.0
 16
0.0
 26
0.0
 36
1.0
 17
0.0
 27
0.0
 37
0.0
 40
2.105302
 41
3.594771
 42
50.0
 43
0.0
 44
0.0
 50
0.0
 51
0.0
 71
     0
 72
   500
 73
     1
 74
     1
 75
     0
 76
     0
 77
     0
 78
     0
  0
VPORT
  2
4
 70
     0
 10
0.5
 20
0.0
 11
1.0
 21
0.5
 12
2.886858
 22
1.052651
 13
0.0
 23
0.0
 14
1.0
 24
1.0
 15
10.0
 25
10.0
 16
0.0
 26
0.0
 36
1.0
 17
0.0
 27
0.0
 37
0.0
 40
4.275207
 41
1.784314
 42
50.0
 43
0.0
 44
0.0
 50
0.0
 51
0.0
 71
     0
 72
   500
 73
     1
 74
     1
 75
     0
 76
     0
 77
     0
 78
     0
  0
VPORT
  2
4
 70
     0
 10
0.5
 20
0.5
 11
1.0
 21
1.0
 12
2.86209
 22
1.052651
 13
0.0
 23
0.0
 14
1.0
 24
1.0
 15
10.0
 25
10.0
 16
0.0
 26
0.0
 36
1.0
 17
0.0
 27
0.0
 37
0.0
 40
4.275207
 41
1.772727
 42
50.0
 43
0.0
 44
0.0
 50
0.0
 51
0.0
 71
     0
 72
   500
 73
     1
 74
     1
 75
     0
 76
     0
 77
     0
 78
     0
  0
VPORT
  2
4
 70
     0
 10
0.0
 20
0.5
 11
0.5
 21
1.0
 12
2.86209
 22
1.052651
 13
0.0
 23
0.0
 14
1.0
 24
1.0
 15
10.0
 25
10.0
 16
0.0
 26
0.0
 36
1.0
 17
0.0
 27
0.0
 37
0.0
 40
4.275207
 41
1.772727
 42
50.0
 43
0.0
 44
0.0
 50
0.0
 51
0.0
 71
     0
 72
   500
 73
     1
 74
     1
 75
     0
 76
     0
 77
     0
 78
     0
  0
VPORT
  2
4
 70
     0
 10
0.0
 20
0.0
 11
0.5
 21
0.5
 12
2.886858
 22
1.052651
 13
0.0
 23
0.0
 14
1.0
 24
1.0
 15
10.0
 25
10.0
 16
0.0
 26
0.0
 36
1.0
 17
0.0
 27
0.0
 37
0.0
 40
4.275207
 41
1.784314
 42
50.0
 43
0.0
 44
0.0
 50
0.0
 51
0.0
 71
     0
 72
   500
 73
     1
 74
     1
 75
     0
 76
     0
 77
     0
 78
     0
  0
ENDTAB
  0
TABLE
  2
LTYPE
 70
     5
  0
LTYPE
  2
CONTINUOUS
 70
    64
  3
実線
 72
    65
 73
     0
 40
0.0
  0
LTYPE
  2
DASHED
 70
    64
  3
__ __ __ __ __ __ __ __ __ __ __ __ __ __ __
 72
    65
 73
     2
 40
0.75
 49
0.5
 49
-0.25
  0
LTYPE
  2
CENTER
 70
    64
  3
____ _ ____ _ ____ _ ____ _ ____ _ ____ _ ____
 72
    65
 73
     4
 40
2.0
 49
1.25
 49
-0.25
 49
0.25
 49
-0.25
  0
LTYPE
  2
PHANTOM
 70
    64
  3
_____ _ _ _____ _ _ _____ _ _ _____ _ _ ____
 72
    65
 73
     6
 40
2.5
 49
1.25
 49
-0.25
 49
0.25
 49
-0.25
 49
0.25
 49
-0.25
  0
LTYPE
  2
HIDDEN
 70
    64
  3
_ _ _ _ _ _ _ _ _ _ _ _ _ _ _ _ _ _ _ _ _ _ _
 72
    65
 73
     2
 40
0.375
 49
0.25
 49
-0.125
  0
ENDTAB
  0
TABLE
  2
LAYER
 70
    14
  0
LAYER
  2
0
 70
     0
 62
     7
  6
CONTINUOUS
  0
LAYER
  2
ITTEN
 70
    64
 62
     1
  6
CENTER
  0
LAYER
  2
SUNPOU
 70
    64
 62
     3
  6
CONTINUOUS
  0
LAYER
  2
TEXT
 70
    64
 62
     3
  6
CONTINUOUS
  0
LAYER
  2
JISSEN
 70
    64
 62
     7
  6
CONTINUOUS
  0
LAYER
  2
TENSEN
 70
    64
 62
     2
  6
HIDDEN
  0
LAYER
  2
WAKU
 70
    64
 62
    -5
  6
CONTINUOUS
  0
ENDTAB
  0
TABLE
  2
STYLE
 70
     2
  0
STYLE
  2
STANDARD
 70
     0
 40
0.0
 41
1.0
 50
0.0
 71
     0
 42
0.2
  3
ROMANS
  4
EXTFONT
  0
STYLE
  2
K
 70
    64
 40
0.0
 41
1.0
 50
0.0
 71
     0
 42
45.0
  3
ROMANS
  4
EXTFONT
  0
ENDTAB
  0
TABLE
  2
VIEW
 70
     0
  0
ENDTAB
  0
TABLE
  2
UCS
 70
     0
  0
ENDTAB
  0
TABLE
  2
APPID
 70
     1
  0
APPID
  2
ACAD
 70
    64
  0
ENDTAB
  0
TABLE
  2
DIMSTYLE
 70
     0
  0
ENDTAB
  0
ENDSEC
  0
SECTION
  2
BLOCKS
  0
BLOCK
  8
SUNPOU
  2
ARROWANG
 70
    64
 10
0.0
 20
0.0
 30
0.0
  3
ARROWANG
  0
LINE
  8
SUNPOU
 10
0.0
 20
0.0
 30
0.0
 11
-1.5
 21
0.401924
 31
0.0
  0
LINE
  8
SUNPOU
 10
0.0
 20
0.0
 30
0.0
 11
-1.5
 21
-0.401924
 31
0.0
  0
ENDBLK
  8
SUNPOU
  0
ENDSEC
  0
SECTION
  2
ENTITIES
  0
LINE
  8
JISSEN
 10
2976.277214
 20
2637.085393
 30
0.0
 11
2951.277214
 21
2637.085393
 31
0.0
  0
LINE
  8
JISSEN
 10
2951.277214
 20
2637.085393
 30
0.0
 11
2942.277214
 21
2652.085393
 31
0.0
  0
LINE
  8
JISSEN
 10
2942.277214
 20
2652.085393
 30
0.0
 11
2901.277214
 21
2652.085393
 31
0.0
  0
LINE
  8
JISSEN
 10
2866.277214
 20
2947.085393
 30
0.0
 11
2944.277214
 21
2947.085393
 31
0.0
  0
LINE
  8
JISSEN
 10
2944.277214
 20
2947.085393
 30
0.0
 11
2950.277214
 21
2932.085393
 31
0.0
  0
LINE
  8
JISSEN
 10
2950.277214
 20
2932.085393
 30
0.0
 11
2976.277214
 21
2932.085393
 31
0.0
  0
LINE
  8
JISSEN
 10
2976.277214
 20
2932.085393
 30
0.0
 11
2976.277214
 21
2637.085393
 31
0.0
  0
LINE
  8
JISSEN
 10
2866.277214
 20
2947.085393
 30
0.0
 11
2866.277214
 21
2887.085393
 31
0.0
  0
LINE
  8
JISSEN
 10
2866.277214
 20
2887.085393
 30
0.0
 11
2901.277214
 21
2722.085393
 31
0.0
  0
LINE
  8
JISSEN
 10
2901.277214
 20
2722.085393
 30
0.0
 11
2901.277214
 21
2652.085393
 31
0.0
  0
LINE
  8
JISSEN
 10
2944.277214
 20
2947.085393
 30
0.0
 11
3276.277214
 21
2947.085393
 31
0.0
  0
LINE
  8
JISSEN
 10
3276.277214
 20
2932.085393
 30
0.0
 11
2976.277214
 21
2932.085393
 31
0.0
  0
LINE
  8
JISSEN
 10
2976.277214
 20
2637.085393
 30
0.0
 11
3276.277214
 21
2637.085393
 31
0.0
  0
LINE
  8
TENSEN
 10
2942.277214
 20
2652.085393
 30
0.0
 11
3276.277214
 21
2652.085393
 31
0.0
  0
LINE
  8
ITTEN
 10
3276.277214
 20
3047.085393
 30
0.0
 11
3276.277214
 21
2582.668397
 31
0.0
  0
LINE
  8
JISSEN
 10
3610.277214
 20
2652.085393
 30
0.0
 11
3276.277214
 21
2652.085393
 31
0.0
  0
LINE
  8
JISSEN
 10
3576.277214
 20
2637.085393
 30
0.0
 11
3276.277214
 21
2637.085393
 31
0.0
  0
LINE
  8
TENSEN
 10
3276.277214
 20
2932.085393
 30
0.0
 11
3576.277214
 21
2932.085393
 31
0.0
  0
LINE
  8
JISSEN
 10
3608.277214
 20
2947.085393
 30
0.0
 11
3276.277214
 21
2947.085393
 31
0.0
  0
LINE
  8
JISSEN
 10
3651.277214
 20
2722.085393
 30
0.0
 11
3651.277214
 21
2652.085393
 31
0.0
  0
LINE
  8
JISSEN
 10
3686.277214
 20
2887.085393
 30
0.0
 11
3651.277214
 21
2722.085393
 31
0.0
  0
LINE
  8
JISSEN
 10
3686.277214
 20
2947.085393
 30
0.0
 11
3686.277214
 21
2887.085393
 31
0.0
  0
LINE
  8
TENSEN
 10
3576.277214
 20
2932.085393
 30
0.0
 11
3576.277214
 21
2637.085393
 31
0.0
  0
LINE
  8
TENSEN
 10
3602.277214
 20
2932.085393
 30
0.0
 11
3576.277214
 21
2932.085393
 31
0.0
  0
LINE
  8
TENSEN
 10
3608.277214
 20
2947.085393
 30
0.0
 11
3602.277214
 21
2932.085393
 31
0.0
  0
LINE
  8
JISSEN
 10
3686.277214
 20
2947.085393
 30
0.0
 11
3608.277214
 21
2947.085393
 31
0.0
  0
LINE
  8
JISSEN
 10
3610.277214
 20
2652.085393
 30
0.0
 11
3651.277214
 21
2652.085393
 31
0.0
  0
LINE
  8
JISSEN
 10
3601.277214
 20
2637.085393
 30
0.0
 11
3610.277214
 21
2652.085393
 31
0.0
  0
LINE
  8
JISSEN
 10
3576.277214
 20
2637.085393
 30
0.0
 11
3601.277214
 21
2637.085393
 31
0.0
  0
LINE
  8
JISSEN
 10
3276.277214
 20
2722.085393
 30
0.0
 11
3651.277214
 21
2722.085393
 31
0.0
  0
LINE
  8
JISSEN
 10
3276.277214
 20
2887.085393
 30
0.0
 11
3686.277214
 21
2887.085393
 31
0.0
  0
LINE
  8
SUNPOU
 10
2866.277214
 20
2977.085393
 30
0.0
 11
2866.277214
 21
3427.085393
 31
0.0
  0
LINE
  8
SUNPOU
 10
3686.277214
 20
2977.085393
 30
0.0
 11
3686.277214
 21
3427.085393
 31
0.0
  0
LINE
  8
SUNPOU
 10
2866.277214
 20
3397.085393
 30
0.0
 11
3686.277214
 21
3397.085393
 31
0.0
  0
INSERT
  8
SUNPOU
  2
ARROWANG
 10
2866.277214
 20
3397.085393
 30
0.0
 41
30.0
 42
30.0
 50
180.0
 43
30.0
  0
INSERT
  8
SUNPOU
  2
ARROWANG
 10
3686.277214
 20
3397.085393
 30
0.0
 41
30.0
 42
30.0
 43
30.0
  0
TEXT
  8
SUNPOU
 10
3211.991514
 20
3442.085393
 30
0.0
 40
45.0
  1
820
  7
K
 72
     1
 11
3276.277229
 21
3442.085393
 31
0.0
  0
LINE
  8
SUNPOU
 10
2866.277214
 20
3217.085393
 30
0.0
 11
2866.277214
 21
3217.085393
 31
0.0
  0
LINE
  8
SUNPOU
 10
2976.277214
 20
2962.085393
 30
0.0
 11
2976.277214
 21
3277.085393
 31
0.0
  0
LINE
  8
SUNPOU
 10
2866.277214
 20
3247.085393
 30
0.0
 11
2976.277214
 21
3247.085393
 31
0.0
  0
INSERT
  8
SUNPOU
  2
ARROWANG
 10
2866.277214
 20
3247.085393
 30
0.0
 41
30.0
 42
30.0
 50
180.0
 43
30.0
  0
INSERT
  8
SUNPOU
  2
ARROWANG
 10
2976.277214
 20
3247.085393
 30
0.0
 41
30.0
 42
30.0
 43
30.0
  0
TEXT
  8
SUNPOU
 10
2853.777229
 20
3292.085393
 30
0.0
 40
45.0
  1
110
  7
K
 72
     1
 11
2921.277229
 21
3292.085393
 31
0.0
  0
LINE
  8
SUNPOU
 10
2976.277214
 20
3217.085393
 30
0.0
 11
2976.277214
 21
3217.085393
 31
0.0
  0
LINE
  8
SUNPOU
 10
3576.277214
 20
2962.085393
 30
0.0
 11
3576.277214
 21
3277.085393
 31
0.0
  0
LINE
  8
SUNPOU
 10
2976.277214
 20
3247.085393
 30
0.0
 11
3576.277214
 21
3247.085393
 31
0.0
  0
INSERT
  8
SUNPOU
  2
ARROWANG
 10
2976.277214
 20
3247.085393
 30
0.0
 41
30.0
 42
30.0
 50
180.0
 43
30.0
  0
INSERT
  8
SUNPOU
  2
ARROWANG
 10
3576.277214
 20
3247.085393
 30
0.0
 41
30.0
 42
30.0
 43
30.0
  0
TEXT
  8
SUNPOU
 10
3194.848657
 20
3292.085393
 30
0.0
 40
45.0
  1
%%C600
  7
K
 72
     1
 11
3276.277229
 21
3292.085393
 31
0.0
  0
LINE
  8
SUNPOU
 10
3576.277214
 20
3217.085393
 30
0.0
 11
3576.277214
 21
3217.085393
 31
0.0
  0
LINE
  8
SUNPOU
 10
3686.277214
 20
3217.085393
 30
0.0
 11
3686.277214
 21
3217.085393
 31
0.0
  0
LINE
  8
SUNPOU
 10
3576.277214
 20
3247.085393
 30
0.0
 11
3686.277214
 21
3247.085393
 31
0.0
  0
INSERT
  8
SUNPOU
  2
ARROWANG
 10
3576.277214
 20
3247.085393
 30
0.0
 41
30.0
 42
30.0
 50
180.0
 43
30.0
  0
INSERT
  8
SUNPOU
  2
ARROWANG
 10
3686.277214
 20
3247.085393
 30
0.0
 41
30.0
 42
30.0
 43
30.0
  0
TEXT
  8
SUNPOU
 10
3563.777229
 20
3292.085393
 30
0.0
 40
45.0
  1
110
  7
K
 72
     1
 11
3631.277229
 21
3292.085393
 31
0.0
  0
LINE
  8
SUNPOU
 10
2944.277214
 20
2977.085393
 30
0.0
 11
2944.277214
 21
3127.085393
 31
0.0
  0
LINE
  8
SUNPOU
 10
3608.277214
 20
2977.085393
 30
0.0
 11
3608.277214
 21
3127.085393
 31
0.0
  0
LINE
  8
SUNPOU
 10
2944.277214
 20
3097.085393
 30
0.0
 11
3608.277214
 21
3097.085393
 31
0.0
  0
INSERT
  8
SUNPOU
  2
ARROWANG
 10
2944.277214
 20
3097.085393
 30
0.0
 41
30.0
 42
30.0
 50
180.0
 43
30.0
  0
INSERT
  8
SUNPOU
  2
ARROWANG
 10
3608.277214
 20
3097.085393
 30
0.0
 41
30.0
 42
30.0
 43
30.0
  0
TEXT
  8
SUNPOU
 10
3209.848657
 20
3142.085393
 30
0.0
 40
45.0
  1
664
  7
K
 72
     1
 11
3276.277229
 21
3142.085393
 31
0.0
  0
LINE
  8
SUNPOU
 10
2901.277214
 20
2622.085393
 30
0.0
 11
2901.277214
 21
2157.085393
 31
0.0
  0
LINE
  8
SUNPOU
 10
3651.277214
 20
2622.085393
 30
0.0
 11
3651.277214
 21
2157.085393
 31
0.0
  0
LINE
  8
SUNPOU
 10
2901.277214
 20
2187.085393
 30
0.0
 11
3651.277214
 21
2187.085393
 31
0.0
  0
INSERT
  8
SUNPOU
  2
ARROWANG
 10
2901.277214
 20
2187.085393
 30
0.0
 41
30.0
 42
30.0
 50
180.0
 43
30.0
  0
INSERT
  8
SUNPOU
  2
ARROWANG
 10
3651.277214
 20
2187.085393
 30
0.0
 41
30.0
 42
30.0
 43
30.0
  0
TEXT
  8
SUNPOU
 10
3211.991514
 20
2232.085393
 30
0.0
 40
45.0
  1
750
  7
K
 72
     1
 11
3276.277229
 21
2232.085393
 31
0.0
  0
LINE
  8
SUNPOU
 10
2901.277214
 20
2367.085393
 30
0.0
 11
2901.277214
 21
2367.085393
 31
0.0
  0
LINE
  8
SUNPOU
 10
2976.277214
 20
2607.085393
 30
0.0
 11
2976.277214
 21
2307.085393
 31
0.0
  0
LINE
  8
SUNPOU
 10
2901.277214
 20
2337.085393
 30
0.0
 11
2976.277214
 21
2337.085393
 31
0.0
  0
INSERT
  8
SUNPOU
  2
ARROWANG
 10
2976.277214
 20
2337.085393
 30
0.0
 41
30.0
 42
30.0
 50
180.0
 43
30.0
  0
INSERT
  8
SUNPOU
  2
ARROWANG
 10
2901.277214
 20
2337.085393
 30
0.0
 41
30.0
 42
30.0
 43
30.0
  0
TEXT
  8
SUNPOU
 10
2895.920086
 20
2382.085393
 30
0.0
 40
45.0
  1
75
  7
K
 72
     1
 11
2938.777229
 21
2382.085393
 31
0.0
  0
LINE
  8
SUNPOU
 10
2976.277214
 20
2337.085393
 30
0.0
 11
3036.277214
 21
2337.085393
 31
0.0
  0
LINE
  8
SUNPOU
 10
2901.277214
 20
2337.085393
 30
0.0
 11
2841.277214
 21
2337.085393
 31
0.0
  0
LINE
  8
SUNPOU
 10
3576.277214
 20
2607.085393
 30
0.0
 11
3576.277214
 21
2307.085393
 31
0.0
  0
LINE
  8
SUNPOU
 10
3651.277214
 20
2367.085393
 30
0.0
 11
3651.277214
 21
2367.085393
 31
0.0
  0
LINE
  8
SUNPOU
 10
3576.277214
 20
2337.085393
 30
0.0
 11
3651.277214
 21
2337.085393
 31
0.0
  0
INSERT
  8
SUNPOU
  2
ARROWANG
 10
3651.277214
 20
2337.085393
 30
0.0
 41
30.0
 42
30.0
 50
180.0
 43
30.0
  0
INSERT
  8
SUNPOU
  2
ARROWANG
 10
3576.277214
 20
2337.085393
 30
0.0
 41
30.0
 42
30.0
 43
30.0
  0
TEXT
  8
SUNPOU
 10
3570.920086
 20
2382.085393
 30
0.0
 40
45.0
  1
75
  7
K
 72
     1
 11
3613.777229
 21
2382.085393
 31
0.0
  0
LINE
  8
SUNPOU
 10
3651.277214
 20
2337.085393
 30
0.0
 11
3711.277214
 21
2337.085393
 31
0.0
  0
LINE
  8
SUNPOU
 10
3576.277214
 20
2337.085393
 30
0.0
 11
3516.277214
 21
2337.085393
 31
0.0
  0
LINE
  8
SUNPOU
 10
2976.277214
 20
2307.085393
 30
0.0
 11
2976.277214
 21
2307.085393
 31
0.0
  0
LINE
  8
SUNPOU
 10
3576.277214
 20
2307.085393
 30
0.0
 11
3576.277214
 21
2307.085393
 31
0.0
  0
LINE
  8
SUNPOU
 10
2951.277214
 20
2607.085393
 30
0.0
 11
2951.277214
 21
2457.085393
 31
0.0
  0
LINE
  8
SUNPOU
 10
3601.277214
 20
2607.085393
 30
0.0
 11
3601.277214
 21
2457.085393
 31
0.0
  0
LINE
  8
SUNPOU
 10
2951.277214
 20
2487.085393
 30
0.0
 11
3601.277214
 21
2487.085393
 31
0.0
  0
INSERT
  8
SUNPOU
  2
ARROWANG
 10
2951.277214
 20
2487.085393
 30
0.0
 41
30.0
 42
30.0
 50
180.0
 43
30.0
  0
INSERT
  8
SUNPOU
  2
ARROWANG
 10
3601.277214
 20
2487.085393
 30
0.0
 41
30.0
 42
30.0
 43
30.0
  0
TEXT
  8
SUNPOU
 10
3210.920086
 20
2532.085393
 30
0.0
 40
45.0
  1
650
  7
K
 72
     1
 11
3276.277229
 21
2532.085393
 31
0.0
  0
LINE
  8
SUNPOU
 10
2871.277214
 20
2652.085393
 30
0.0
 11
2536.277214
 21
2652.085393
 31
0.0
  0
LINE
  8
SUNPOU
 10
2836.277214
 20
2947.085393
 30
0.0
 11
2536.277214
 21
2947.085393
 31
0.0
  0
LINE
  8
SUNPOU
 10
2566.277214
 20
2652.085393
 30
0.0
 11
2566.277214
 21
2947.085393
 31
0.0
  0
INSERT
  8
SUNPOU
  2
ARROWANG
 10
2566.277214
 20
2652.085393
 30
0.0
 41
30.0
 42
30.0
 50
270.0
 43
30.0
  0
INSERT
  8
SUNPOU
  2
ARROWANG
 10
2566.277214
 20
2947.085393
 30
0.0
 41
30.0
 42
30.0
 50
90.0
 43
30.0
  0
TEXT
  8
SUNPOU
 10
2521.277214
 20
2735.299679
 30
0.0
 40
45.0
  1
295
 50
90.0
  7
K
 72
     1
 11
2521.277214
 21
2799.585393
 31
0.0
  0
LINE
  8
SUNPOU
 10
2920.277214
 20
2932.085393
 30
0.0
 11
2686.277214
 21
2932.085393
 31
0.0
  0
LINE
  8
SUNPOU
 10
2746.277214
 20
2947.085393
 30
0.0
 11
2746.277214
 21
2947.085393
 31
0.0
  0
LINE
  8
SUNPOU
 10
2716.277214
 20
2932.085393
 30
0.0
 11
2716.277214
 21
2947.085393
 31
0.0
  0
INSERT
  8
SUNPOU
  2
ARROWANG
 10
2716.277214
 20
2932.085393
 30
0.0
 41
30.0
 42
30.0
 50
90.0
 43
30.0
  0
INSERT
  8
SUNPOU
  2
ARROWANG
 10
2716.277214
 20
2947.085393
 30
0.0
 41
30.0
 42
30.0
 50
270.0
 43
30.0
  0
LINE
  8
SUNPOU
 10
2716.277214
 20
2932.085393
 30
0.0
 11
2716.277214
 21
2833.085393
 31
0.0
  0
LINE
  8
SUNPOU
 10
2716.277214
 20
2947.085393
 30
0.0
 11
2716.277214
 21
3007.085393
 31
0.0
  0
TEXT
  8
SUNPOU
 10
2671.277214
 20
2836.513965
 30
0.0
 40
45.0
  1
15
 50
90.0
  7
K
 72
     1
 11
2671.277214
 21
2882.585393
 31
0.0
  0
LINE
  8
SUNPOU
 10
2921.277214
 20
2637.085393
 30
0.0
 11
2686.277214
 21
2637.085393
 31
0.0
  0
LINE
  8
SUNPOU
 10
2746.277214
 20
2652.085393
 30
0.0
 11
2746.277214
 21
2652.085393
 31
0.0
  0
LINE
  8
SUNPOU
 10
2716.277214
 20
2637.085393
 30
0.0
 11
2716.277214
 21
2652.085393
 31
0.0
  0
INSERT
  8
SUNPOU
  2
ARROWANG
 10
2716.277214
 20
2637.085393
 30
0.0
 41
30.0
 42
30.0
 50
90.0
 43
30.0
  0
INSERT
  8
SUNPOU
  2
ARROWANG
 10
2716.277214
 20
2652.085393
 30
0.0
 41
30.0
 42
30.0
 50
270.0
 43
30.0
  0
LINE
  8
SUNPOU
 10
2716.277214
 20
2652.085393
 30
0.0
 11
2716.277214
 21
2751.085393
 31
0.0
  0
LINE
  8
SUNPOU
 10
2716.277214
 20
2637.085393
 30
0.0
 11
2716.277215
 21
2577.085393
 31
0.0
  0
TEXT
  8
SUNPOU
 10
2671.277214
 20
2655.513965
 30
0.0
 40
45.0
  1
15
 50
90.0
  7
K
 72
     1
 11
2671.277214
 21
2701.585393
 31
0.0
  0
LINE
  8
SUNPOU
 10
3716.277214
 20
2887.085393
 30
0.0
 11
4016.277214
 21
2887.085393
 31
0.0
  0
LINE
  8
SUNPOU
 10
3716.277214
 20
2947.085393
 30
0.0
 11
4016.277214
 21
2947.085393
 31
0.0
  0
LINE
  8
SUNPOU
 10
3681.277214
 20
2652.085393
 30
0.0
 11
4016.277214
 21
2652.085393
 31
0.0
  0
LINE
  8
SUNPOU
 10
3681.277214
 20
2722.085393
 30
0.0
 11
4016.277214
 21
2722.085393
 31
0.0
  0
LINE
  8
SUNPOU
 10
3986.277214
 20
2652.085393
 30
0.0
 11
3986.277214
 21
2722.085393
 31
0.0
  0
INSERT
  8
SUNPOU
  2
ARROWANG
 10
3986.277214
 20
2652.085393
 30
0.0
 41
30.0
 42
30.0
 50
90.0
 43
30.0
  0
INSERT
  8
SUNPOU
  2
ARROWANG
 10
3986.277214
 20
2722.085393
 30
0.0
 41
30.0
 42
30.0
 50
270.0
 43
30.0
  0
LINE
  8
SUNPOU
 10
3986.277214
 20
2652.085393
 30
0.0
 11
3986.277214
 21
2553.085393
 31
0.0
  0
LINE
  8
SUNPOU
 10
3986.277214
 20
2722.085393
 30
0.0
 11
3986.277214
 21
2782.085393
 31
0.0
  0
TEXT
  8
SUNPOU
 10
3941.277214
 20
2559.728251
 30
0.0
 40
45.0
  1
70
 50
90.0
  7
K
 72
     1
 11
3941.277214
 21
2602.585393
 31
0.0
  0
CIRCLE
  8
JISSEN
 10
3276.277214
 20
1447.085393
 30
0.0
 40
300.0
  0
CIRCLE
  8
JISSEN
 10
3276.277214
 20
1447.085393
 30
0.0
 40
326.0
  0
CIRCLE
  8
JISSEN
 10
3276.277214
 20
1447.085393
 30
0.0
 40
332.0
  0
CIRCLE
  8
JISSEN
 10
3276.277214
 20
1447.085393
 30
0.0
 40
410.0
  0
CIRCLE
  8
JISSEN
 10
3276.277214
 20
1827.085393
 30
0.0
 40
10.0
  0
ARC
  8
ITTEN
 10
3276.277214
 20
1447.085393
 30
0.0
 40
380.0
 50
86.227816
 51
93.772184
  0
ARC
  8
ITTEN
 10
3276.277214
 20
1447.085393
 30
0.0
 40
380.0
 50
206.227816
 51
213.772184
  0
LINE
  8
ITTEN
 10
2912.546544
 20
1237.085393
 30
0.0
 11
2981.828577
 21
1277.085393
 31
0.0
  0
CIRCLE
  8
JISSEN
 10
2947.187561
 20
1257.085393
 30
0.0
 40
10.0
  0
ARC
  8
ITTEN
 10
3276.277214
 20
1447.085393
 30
0.0
 40
380.0
 50
326.227816
 51
333.772184
  0
LINE
  8
ITTEN
 10
3640.007884
 20
1237.085393
 30
0.0
 11
3570.725851
 21
1277.085393
 31
0.0
  0
CIRCLE
  8
JISSEN
 10
3605.366867
 20
1257.085393
 30
0.0
 40
10.0
  0
LINE
  8
TENSEN
 10
3539.67449
 20
1173.081516
 30
0.0
 11
3560.887693
 21
1151.868312
 31
0.0
  0
LINE
  8
TENSEN
 10
3550.281092
 20
1183.688117
 30
0.0
 11
3539.67449
 21
1173.081516
 31
0.0
  0
LINE
  8
TENSEN
 10
3571.494295
 20
1162.474914
 30
0.0
 11
3550.281092
 21
1183.688117
 31
0.0
  0
LINE
  8
ITTEN
 10
3530.835655
 20
1192.526952
 30
0.0
 11
3580.33313
 21
1143.029477
 31
0.0
  0
LINE
  8
ITTEN
 10
3021.718773
 20
1701.643835
 30
0.0
 11
2972.221298
 21
1751.141309
 31
0.0
  0
LINE
  8
TENSEN
 10
2981.060133
 20
1731.695873
 30
0.0
 11
3002.273336
 21
1710.482669
 31
0.0
  0
LINE
  8
TENSEN
 10
3002.273336
 20
1710.482669
 30
0.0
 11
3012.879938
 21
1721.089271
 31
0.0
  0
LINE
  8
TENSEN
 10
3012.879938
 20
1721.089271
 30
0.0
 11
2991.666735
 21
1742.302475
 31
0.0
  0
LINE
  8
ITTEN
 10
3276.277214
 20
1957.085393
 30
0.0
 11
3276.277214
 21
937.085393
 31
0.0
  0
LINE
  8
ITTEN
 10
3786.277214
 20
1447.085393
 30
0.0
 11
2766.277214
 21
1447.085393
 31
0.0
  0
CIRCLE
  8
JISSEN
 10
3566.190994
 20
2692.085393
 30
0.0
 40
7.5
  0
LINE
  8
ITTEN
 10
3566.190994
 20
2714.585393
 30
0.0
 11
3566.190994
 21
2669.585393
 31
0.0
  0
LINE
  8
ITTEN
 10
3588.690994
 20
2692.085393
 30
0.0
 11
3543.690994
 21
2692.085393
 31
0.0
  0
LINE
  8
SUNPOU
 10
3866.277214
 20
2652.085393
 30
0.0
 11
3866.277214
 21
2652.085393
 31
0.0
  0
LINE
  8
SUNPOU
 10
3596.190994
 20
2692.085393
 30
0.0
 11
3866.277214
 21
2692.085393
 31
0.0
  0
LINE
  8
SUNPOU
 10
3836.277214
 20
2652.085393
 30
0.0
 11
3836.277214
 21
2692.085393
 31
0.0
  0
INSERT
  8
SUNPOU
  2
ARROWANG
 10
3836.277214
 20
2652.085393
 30
0.0
 41
30.0
 42
30.0
 50
90.0
 43
30.0
  0
INSERT
  8
SUNPOU
  2
ARROWANG
 10
3836.277214
 20
2692.085393
 30
0.0
 41
30.0
 42
30.0
 50
270.0
 43
30.0
  0
LINE
  8
SUNPOU
 10
3836.277214
 20
2652.085393
 30
0.0
 11
3836.277214
 21
2553.085393
 31
0.0
  0
LINE
  8
SUNPOU
 10
3836.277214
 20
2692.085393
 30
0.0
 11
3836.277214
 21
2752.085393
 31
0.0
  0
TEXT
  8
SUNPOU
 10
3791.277214
 20
2559.728251
 30
0.0
 40
45.0
  1
40
 50
90.0
  7
K
 72
     1
 11
3791.277214
 21
2602.585393
 31
0.0
  0
TEXT
  8
SUNPOU
 10
5591.277214
 20
2709.728251
 30
0.0
 40
45.0
  1
40
 50
90.0
  7
K
 72
     1
 11
5591.277214
 21
2752.585393
 31
0.0
  0
LINE
  8
SUNPOU
 10
5636.277214
 20
2842.085393
 30
0.0
 11
5636.277214
 21
2832.085393
 31
0.0
  0
LINE
  8
SUNPOU
 10
5636.277214
 20
2802.085393
 30
0.0
 11
5636.277214
 21
2703.085393
 31
0.0
  0
INSERT
  8
SUNPOU
  2
ARROWANG
 10
5636.277214
 20
2842.085393
 30
0.0
 41
30.0
 42
30.0
 50
270.0
 43
30.0
  0
INSERT
  8
SUNPOU
  2
ARROWANG
 10
5636.277214
 20
2802.085393
 30
0.0
 41
30.0
 42
30.0
 50
90.0
 43
30.0
  0
LINE
  8
SUNPOU
 10
5636.277214
 20
2802.085393
 30
0.0
 11
5636.277214
 21
2842.085393
 31
0.0
  0
LINE
  8
SUNPOU
 10
5396.190994
 20
2842.085393
 30
0.0
 11
5666.277214
 21
2842.085393
 31
0.0
  0
LINE
  8
SUNPOU
 10
5666.277214
 20
2802.085393
 30
0.0
 11
5666.277214
 21
2802.085393
 31
0.0
  0
LINE
  8
ITTEN
 10
5388.690994
 20
2842.085393
 30
0.0
 11
5343.690994
 21
2842.085393
 31
0.0
  0
LINE
  8
ITTEN
 10
5366.190994
 20
2864.585393
 30
0.0
 11
5366.190994
 21
2819.585393
 31
0.0
  0
CIRCLE
  8
JISSEN
 10
5366.190994
 20
2842.085393
 30
0.0
 40
7.5
  0
LINE
  8
SUNPOU
 10
5481.277214
 20
2802.085393
 30
0.0
 11
5816.277214
 21
2802.085393
 31
0.0
  0
LINE
  8
SUNPOU
 10
5481.277214
 20
2802.085393
 30
0.0
 11
5666.277214
 21
2802.085393
 31
0.0
  0
LINE
  8
SUNPOU
 10
5516.277214
 20
2947.085393
 30
0.0
 11
5816.277214
 21
2947.085393
 31
0.0
  0
LINE
  8
SUNPOU
 10
5516.277214
 20
2887.085393
 30
0.0
 11
5816.277214
 21
2887.085393
 31
0.0
  0
LINE
  8
SUNPOU
 10
4721.277214
 20
2787.085393
 30
0.0
 11
4486.277214
 21
2787.085393
 31
0.0
  0
LINE
  8
SUNPOU
 10
4720.277214
 20
2932.085393
 30
0.0
 11
4486.277214
 21
2932.085393
 31
0.0
  0
LINE
  8
SUNPOU
 10
4636.277214
 20
2947.085393
 30
0.0
 11
4336.277214
 21
2947.085393
 31
0.0
  0
LINE
  8
SUNPOU
 10
4671.277214
 20
2802.085393
 30
0.0
 11
4336.277214
 21
2802.085393
 31
0.0
  0
TEXT
  8
SUNPOU
 10
5010.920086
 20
2682.085393
 30
0.0
 40
45.0
  1
650
  7
K
 72
     1
 11
5076.277229
 21
2682.085393
 31
0.0
  0
INSERT
  8
SUNPOU
  2
ARROWANG
 10
5401.277214
 20
2637.085393
 30
0.0
 41
30.0
 42
30.0
 43
30.0
  0
INSERT
  8
SUNPOU
  2
ARROWANG
 10
4751.277214
 20
2637.085393
 30
0.0
 41
30.0
 42
30.0
 50
180.0
 43
30.0
  0
LINE
  8
SUNPOU
 10
4751.277214
 20
2637.085393
 30
0.0
 11
5401.277214
 21
2637.085393
 31
0.0
  0
LINE
  8
SUNPOU
 10
5401.277214
 20
2757.085393
 30
0.0
 11
5401.277214
 21
2607.085393
 31
0.0
  0
LINE
  8
SUNPOU
 10
4751.277214
 20
2757.085393
 30
0.0
 11
4751.277214
 21
2607.085393
 31
0.0
  0
INSERT
  8
SUNPOU
  2
ARROWANG
 10
5376.277214
 20
2487.085393
 30
0.0
 41
30.0
 42
30.0
 43
30.0
  0
INSERT
  8
SUNPOU
  2
ARROWANG
 10
4776.277214
 20
2487.085393
 30
0.0
 41
30.0
 42
30.0
 50
180.0
 43
30.0
  0
LINE
  8
SUNPOU
 10
5376.277214
 20
2457.085393
 30
0.0
 11
5376.277214
 21
2457.085393
 31
0.0
  0
LINE
  8
SUNPOU
 10
4776.277214
 20
2457.085393
 30
0.0
 11
4776.277214
 21
2457.085393
 31
0.0
  0
LINE
  8
SUNPOU
 10
5376.277214
 20
2487.085393
 30
0.0
 11
5316.277214
 21
2487.085393
 31
0.0
  0
LINE
  8
SUNPOU
 10
5451.277214
 20
2487.085393
 30
0.0
 11
5511.277214
 21
2487.085393
 31
0.0
  0
TEXT
  8
SUNPOU
 10
5370.920086
 20
2532.085393
 30
0.0
 40
45.0
  1
75
  7
K
 72
     1
 11
5413.777229
 21
2532.085393
 31
0.0
  0
INSERT
  8
SUNPOU
  2
ARROWANG
 10
5451.277214
 20
2487.085393
 30
0.0
 41
30.0
 42
30.0
 50
180.0
 43
30.0
  0
LINE
  8
SUNPOU
 10
5376.277214
 20
2487.085393
 30
0.0
 11
5451.277214
 21
2487.085393
 31
0.0
  0
LINE
  8
SUNPOU
 10
5451.277214
 20
2517.085393
 30
0.0
 11
5451.277214
 21
2517.085393
 31
0.0
  0
LINE
  8
SUNPOU
 10
5376.277214
 20
2757.085393
 30
0.0
 11
5376.277214
 21
2457.085393
 31
0.0
  0
LINE
  8
SUNPOU
 10
4701.277214
 20
2487.085393
 30
0.0
 11
4641.277214
 21
2487.085393
 31
0.0
  0
LINE
  8
SUNPOU
 10
4776.277214
 20
2487.085393
 30
0.0
 11
4836.277214
 21
2487.085393
 31
0.0
  0
TEXT
  8
SUNPOU
 10
4695.920086
 20
2532.085393
 30
0.0
 40
45.0
  1
75
  7
K
 72
     1
 11
4738.777229
 21
2532.085393
 31
0.0
  0
INSERT
  8
SUNPOU
  2
ARROWANG
 10
4701.277214
 20
2487.085393
 30
0.0
 41
30.0
 42
30.0
 43
30.0
  0
LINE
  8
SUNPOU
 10
4701.277214
 20
2487.085393
 30
0.0
 11
4776.277214
 21
2487.085393
 31
0.0
  0
LINE
  8
SUNPOU
 10
4776.277214
 20
2757.085393
 30
0.0
 11
4776.277214
 21
2457.085393
 31
0.0
  0
LINE
  8
SUNPOU
 10
4701.277214
 20
2517.085393
 30
0.0
 11
4701.277214
 21
2517.085393
 31
0.0
  0
TEXT
  8
SUNPOU
 10
5011.991514
 20
2382.085393
 30
0.0
 40
45.0
  1
750
  7
K
 72
     1
 11
5076.277229
 21
2382.085393
 31
0.0
  0
INSERT
  8
SUNPOU
  2
ARROWANG
 10
5451.277214
 20
2337.085393
 30
0.0
 41
30.0
 42
30.0
 43
30.0
  0
INSERT
  8
SUNPOU
  2
ARROWANG
 10
4701.277214
 20
2337.085393
 30
0.0
 41
30.0
 42
30.0
 50
180.0
 43
30.0
  0
LINE
  8
SUNPOU
 10
4701.277214
 20
2337.085393
 30
0.0
 11
5451.277214
 21
2337.085393
 31
0.0
  0
LINE
  8
SUNPOU
 10
5451.277214
 20
2772.085393
 30
0.0
 11
5451.277214
 21
2307.085393
 31
0.0
  0
LINE
  8
SUNPOU
 10
4701.277214
 20
2772.085393
 30
0.0
 11
4701.277214
 21
2307.085393
 31
0.0
  0
TEXT
  8
SUNPOU
 10
5009.848657
 20
3142.085393
 30
0.0
 40
45.0
  1
664
  7
K
 72
     1
 11
5076.277229
 21
3142.085393
 31
0.0
  0
INSERT
  8
SUNPOU
  2
ARROWANG
 10
5408.277214
 20
3097.085393
 30
0.0
 41
30.0
 42
30.0
 43
30.0
  0
INSERT
  8
SUNPOU
  2
ARROWANG
 10
4744.277214
 20
3097.085393
 30
0.0
 41
30.0
 42
30.0
 50
180.0
 43
30.0
  0
LINE
  8
SUNPOU
 10
4744.277214
 20
3097.085393
 30
0.0
 11
5408.277214
 21
3097.085393
 31
0.0
  0
LINE
  8
SUNPOU
 10
5408.277214
 20
2977.085393
 30
0.0
 11
5408.277214
 21
3127.085393
 31
0.0
  0
LINE
  8
SUNPOU
 10
4744.277214
 20
2977.085393
 30
0.0
 11
4744.277214
 21
3127.085393
 31
0.0
  0
TEXT
  8
SUNPOU
 10
5363.777229
 20
3292.085393
 30
0.0
 40
45.0
  1
110
  7
K
 72
     1
 11
5431.277229
 21
3292.085393
 31
0.0
  0
INSERT
  8
SUNPOU
  2
ARROWANG
 10
5486.277214
 20
3247.085393
 30
0.0
 41
30.0
 42
30.0
 43
30.0
  0
INSERT
  8
SUNPOU
  2
ARROWANG
 10
5376.277214
 20
3247.085393
 30
0.0
 41
30.0
 42
30.0
 50
180.0
 43
30.0
  0
LINE
  8
SUNPOU
 10
5376.277214
 20
3247.085393
 30
0.0
 11
5486.277214
 21
3247.085393
 31
0.0
  0
LINE
  8
SUNPOU
 10
5486.277214
 20
3217.085393
 30
0.0
 11
5486.277214
 21
3217.085393
 31
0.0
  0
LINE
  8
SUNPOU
 10
5376.277214
 20
3217.085393
 30
0.0
 11
5376.277214
 21
3217.085393
 31
0.0
  0
TEXT
  8
SUNPOU
 10
4994.848657
 20
3292.085393
 30
0.0
 40
45.0
  1
%%C600
  7
K
 72
     1
 11
5076.277229
 21
3292.085393
 31
0.0
  0
INSERT
  8
SUNPOU
  2
ARROWANG
 10
5376.277214
 20
3247.085393
 30
0.0
 41
30.0
 42
30.0
 43
30.0
  0
INSERT
  8
SUNPOU
  2
ARROWANG
 10
4776.277214
 20
3247.085393
 30
0.0
 41
30.0
 42
30.0
 50
180.0
 43
30.0
  0
LINE
  8
SUNPOU
 10
4776.277214
 20
3247.085393
 30
0.0
 11
5376.277214
 21
3247.085393
 31
0.0
  0
LINE
  8
SUNPOU
 10
5376.277214
 20
2962.085393
 30
0.0
 11
5376.277214
 21
3277.085393
 31
0.0
  0
LINE
  8
SUNPOU
 10
4776.277214
 20
3217.085393
 30
0.0
 11
4776.277214
 21
3217.085393
 31
0.0
  0
TEXT
  8
SUNPOU
 10
4653.777229
 20
3292.085393
 30
0.0
 40
45.0
  1
110
  7
K
 72
     1
 11
4721.277229
 21
3292.085393
 31
0.0
  0
INSERT
  8
SUNPOU
  2
ARROWANG
 10
4776.277214
 20
3247.085393
 30
0.0
 41
30.0
 42
30.0
 43
30.0
  0
INSERT
  8
SUNPOU
  2
ARROWANG
 10
4666.277214
 20
3247.085393
 30
0.0
 41
30.0
 42
30.0
 50
180.0
 43
30.0
  0
LINE
  8
SUNPOU
 10
4666.277214
 20
3247.085393
 30
0.0
 11
4776.277214
 21
3247.085393
 31
0.0
  0
LINE
  8
SUNPOU
 10
4776.277214
 20
2962.085393
 30
0.0
 11
4776.277214
 21
3277.085393
 31
0.0
  0
LINE
  8
SUNPOU
 10
4666.277214
 20
3217.085393
 30
0.0
 11
4666.277214
 21
3217.085393
 31
0.0
  0
TEXT
  8
SUNPOU
 10
5011.991514
 20
3442.085393
 30
0.0
 40
45.0
  1
820
  7
K
 72
     1
 11
5076.277229
 21
3442.085393
 31
0.0
  0
INSERT
  8
SUNPOU
  2
ARROWANG
 10
5486.277214
 20
3397.085393
 30
0.0
 41
30.0
 42
30.0
 43
30.0
  0
INSERT
  8
SUNPOU
  2
ARROWANG
 10
4666.277214
 20
3397.085393
 30
0.0
 41
30.0
 42
30.0
 50
180.0
 43
30.0
  0
LINE
  8
SUNPOU
 10
4666.277214
 20
3397.085393
 30
0.0
 11
5486.277214
 21
3397.085393
 31
0.0
  0
LINE
  8
SUNPOU
 10
5486.277214
 20
2977.085393
 30
0.0
 11
5486.277214
 21
3427.085393
 31
0.0
  0
LINE
  8
SUNPOU
 10
4666.277214
 20
2977.085393
 30
0.0
 11
4666.277214
 21
3427.085393
 31
0.0
  0
LINE
  8
JISSEN
 10
5076.277214
 20
2887.085393
 30
0.0
 11
5486.277214
 21
2887.085393
 31
0.0
  0
LINE
  8
JISSEN
 10
5076.277214
 20
2802.085393
 30
0.0
 11
5451.277214
 21
2802.085393
 31
0.0
  0
LINE
  8
JISSEN
 10
5376.277214
 20
2787.085393
 30
0.0
 11
5401.277214
 21
2787.085393
 31
0.0
  0
LINE
  8
JISSEN
 10
5401.277214
 20
2787.085393
 30
0.0
 11
5410.277214
 21
2802.085393
 31
0.0
  0
LINE
  8
JISSEN
 10
5410.277214
 20
2802.085393
 30
0.0
 11
5451.277214
 21
2802.085393
 31
0.0
  0
LINE
  8
JISSEN
 10
5486.277214
 20
2947.085393
 30
0.0
 11
5408.277214
 21
2947.085393
 31
0.0
  0
LINE
  8
TENSEN
 10
5408.277214
 20
2947.085393
 30
0.0
 11
5402.277214
 21
2932.085393
 31
0.0
  0
LINE
  8
TENSEN
 10
5402.277214
 20
2932.085393
 30
0.0
 11
5376.277214
 21
2932.085393
 31
0.0
  0
LINE
  8
TENSEN
 10
5376.277214
 20
2932.085393
 30
0.0
 11
5376.277214
 21
2787.085393
 31
0.0
  0
LINE
  8
JISSEN
 10
5486.277214
 20
2947.085393
 30
0.0
 11
5486.277214
 21
2887.085393
 31
0.0
  0
LINE
  8
JISSEN
 10
5486.277214
 20
2887.085393
 30
0.0
 11
5451.277214
 21
2802.085393
 31
0.0
  0
LINE
  8
JISSEN
 10
5451.277214
 20
2802.085393
 30
0.0
 11
5451.277214
 21
2802.085393
 31
0.0
  0
LINE
  8
JISSEN
 10
5408.277214
 20
2947.085393
 30
0.0
 11
5076.277214
 21
2947.085393
 31
0.0
  0
LINE
  8
TENSEN
 10
5076.277214
 20
2932.085393
 30
0.0
 11
5376.277214
 21
2932.085393
 31
0.0
  0
LINE
  8
JISSEN
 10
5376.277214
 20
2787.085393
 30
0.0
 11
5076.277214
 21
2787.085393
 31
0.0
  0
LINE
  8
JISSEN
 10
5410.277214
 20
2802.085393
 30
0.0
 11
5076.277214
 21
2802.085393
 31
0.0
  0
LINE
  8
ITTEN
 10
5076.277214
 20
3047.085393
 30
0.0
 11
5076.277214
 21
2732.668397
 31
0.0
  0
LINE
  8
TENSEN
 10
4742.277214
 20
2802.085393
 30
0.0
 11
5076.277214
 21
2802.085393
 31
0.0
  0
LINE
  8
JISSEN
 10
4776.277214
 20
2787.085393
 30
0.0
 11
5076.277214
 21
2787.085393
 31
0.0
  0
LINE
  8
JISSEN
 10
5076.277214
 20
2932.085393
 30
0.0
 11
4776.277214
 21
2932.085393
 31
0.0
  0
LINE
  8
JISSEN
 10
4744.277214
 20
2947.085393
 30
0.0
 11
5076.277214
 21
2947.085393
 31
0.0
  0
LINE
  8
JISSEN
 10
4701.277214
 20
2802.085393
 30
0.0
 11
4701.277214
 21
2802.085393
 31
0.0
  0
LINE
  8
JISSEN
 10
4666.277214
 20
2887.085393
 30
0.0
 11
4701.277214
 21
2802.085393
 31
0.0
  0
LINE
  8
JISSEN
 10
4666.277214
 20
2947.085393
 30
0.0
 11
4666.277214
 21
2887.085393
 31
0.0
  0
LINE
  8
JISSEN
 10
4776.277214
 20
2932.085393
 30
0.0
 11
4776.277214
 21
2787.085393
 31
0.0
  0
LINE
  8
JISSEN
 10
4750.277214
 20
2932.085393
 30
0.0
 11
4776.277214
 21
2932.085393
 31
0.0
  0
LINE
  8
JISSEN
 10
4744.277214
 20
2947.085393
 30
0.0
 11
4750.277214
 21
2932.085393
 31
0.0
  0
LINE
  8
JISSEN
 10
4666.277214
 20
2947.085393
 30
0.0
 11
4744.277214
 21
2947.085393
 31
0.0
  0
LINE
  8
JISSEN
 10
4742.277214
 20
2802.085393
 30
0.0
 11
4701.277214
 21
2802.085393
 31
0.0
  0
LINE
  8
JISSEN
 10
4751.277214
 20
2787.085393
 30
0.0
 11
4742.277214
 21
2802.085393
 31
0.0
  0
LINE
  8
JISSEN
 10
4776.277214
 20
2787.085393
 30
0.0
 11
4751.277214
 21
2787.085393
 31
0.0
  0
LINE
  8
ITTEN
 10
3008.863434
 20
2692.085393
 30
0.0
 11
2963.863434
 21
2692.085393
 31
0.0
  0
LINE
  8
ITTEN
 10
2986.363434
 20
2714.585393
 30
0.0
 11
2986.363434
 21
2669.585393
 31
0.0
  0
CIRCLE
  8
TENSEN
 10
2986.363434
 20
2692.085393
 30
0.0
 40
7.5
  0
LINE
  8
SUNPOU
 10
4336.277214
 20
2802.085393
 30
0.0
 11
4336.277214
 21
2802.085393
 31
0.0
  0
LINE
  8
SUNPOU
 10
4336.277214
 20
2947.085393
 30
0.0
 11
4336.277214
 21
2947.085393
 31
0.0
  0
LINE
  8
SUNPOU
 10
4366.277214
 20
2802.085393
 30
0.0
 11
4366.277214
 21
2947.085393
 31
0.0
  0
INSERT
  8
SUNPOU
  2
ARROWANG
 10
4366.277214
 20
2802.085393
 30
0.0
 41
30.0
 42
30.0
 50
270.0
 43
30.0
  0
INSERT
  8
SUNPOU
  2
ARROWANG
 10
4366.277214
 20
2947.085393
 30
0.0
 41
30.0
 42
30.0
 50
90.0
 43
30.0
  0
TEXT
  8
SUNPOU
 10
4321.277214
 20
2807.085393
 30
0.0
 40
45.0
  1
145
 50
90.0
  7
K
 72
     1
 11
4321.277214
 21
2874.585393
 31
0.0
  0
LINE
  8
SUNPOU
 10
4546.277214
 20
2932.085393
 30
0.0
 11
4546.277214
 21
2932.085393
 31
0.0
  0
LINE
  8
SUNPOU
 10
4546.277214
 20
2947.085393
 30
0.0
 11
4546.277214
 21
2947.085393
 31
0.0
  0
LINE
  8
SUNPOU
 10
4516.277214
 20
2932.085393
 30
0.0
 11
4516.277214
 21
2947.085393
 31
0.0
  0
INSERT
  8
SUNPOU
  2
ARROWANG
 10
4516.277214
 20
2932.085393
 30
0.0
 41
30.0
 42
30.0
 50
90.0
 43
30.0
  0
INSERT
  8
SUNPOU
  2
ARROWANG
 10
4516.277214
 20
2947.085393
 30
0.0
 41
30.0
 42
30.0
 50
270.0
 43
30.0
  0
LINE
  8
SUNPOU
 10
4516.277214
 20
2947.085393
 30
0.0
 11
4516.277214
 21
3046.085393
 31
0.0
  0
LINE
  8
SUNPOU
 10
4516.277214
 20
2932.085393
 30
0.0
 11
4516.277215
 21
2872.085393
 31
0.0
  0
TEXT
  8
SUNPOU
 10
4471.277214
 20
2950.513965
 30
0.0
 40
45.0
  1
15
 50
90.0
  7
K
 72
     1
 11
4471.277214
 21
2996.585393
 31
0.0
  0
LINE
  8
SUNPOU
 10
4546.277214
 20
2787.085393
 30
0.0
 11
4546.277214
 21
2787.085393
 31
0.0
  0
LINE
  8
SUNPOU
 10
4546.277214
 20
2802.085393
 30
0.0
 11
4546.277214
 21
2802.085393
 31
0.0
  0
LINE
  8
SUNPOU
 10
4516.277214
 20
2787.085393
 30
0.0
 11
4516.277214
 21
2802.085393
 31
0.0
  0
INSERT
  8
SUNPOU
  2
ARROWANG
 10
4516.277214
 20
2787.085393
 30
0.0
 41
30.0
 42
30.0
 50
90.0
 43
30.0
  0
INSERT
  8
SUNPOU
  2
ARROWANG
 10
4516.277214
 20
2802.085393
 30
0.0
 41
30.0
 42
30.0
 50
270.0
 43
30.0
  0
LINE
  8
SUNPOU
 10
4516.277214
 20
2787.085393
 30
0.0
 11
4516.277214
 21
2688.085393
 31
0.0
  0
LINE
  8
SUNPOU
 10
4516.277214
 20
2802.085393
 30
0.0
 11
4516.277214
 21
2862.085393
 31
0.0
  0
TEXT
  8
SUNPOU
 10
4471.277214
 20
2691.513965
 30
0.0
 40
45.0
  1
15
 50
90.0
  7
K
 72
     1
 11
4471.277214
 21
2737.585393
 31
0.0
  0
LINE
  8
SUNPOU
 10
5816.277214
 20
2887.085393
 30
0.0
 11
5816.277214
 21
2887.085393
 31
0.0
  0
LINE
  8
SUNPOU
 10
5816.277214
 20
2947.085393
 30
0.0
 11
5816.277214
 21
2947.085393
 31
0.0
  0
LINE
  8
SUNPOU
 10
5786.277214
 20
2887.085393
 30
0.0
 11
5786.277214
 21
2947.085393
 31
0.0
  0
INSERT
  8
SUNPOU
  2
ARROWANG
 10
5786.277214
 20
2887.085393
 30
0.0
 41
30.0
 42
30.0
 50
90.0
 43
30.0
  0
INSERT
  8
SUNPOU
  2
ARROWANG
 10
5786.277214
 20
2947.085393
 30
0.0
 41
30.0
 42
30.0
 50
270.0
 43
30.0
  0
LINE
  8
SUNPOU
 10
5786.277214
 20
2947.085393
 30
0.0
 11
5786.277214
 21
3046.085393
 31
0.0
  0
LINE
  8
SUNPOU
 10
5786.277214
 20
2887.085393
 30
0.0
 11
5786.277215
 21
2827.085393
 31
0.0
  0
TEXT
  8
SUNPOU
 10
5741.277214
 20
2952.656822
 30
0.0
 40
45.0
  1
60
 50
90.0
  7
K
 72
     1
 11
5741.277214
 21
2996.585393
 31
0.0
  0
LINE
  8
ITTEN
 10
5584.184129
 20
1447.085393
 30
0.0
 11
4564.184129
 21
1447.085393
 31
0.0
  0
LINE
  8
ITTEN
 10
5074.184129
 20
1957.085393
 30
0.0
 11
5074.184129
 21
937.085393
 31
0.0
  0
LINE
  8
TENSEN
 10
4810.786853
 20
1721.089271
 30
0.0
 11
4789.573649
 21
1742.302475
 31
0.0
  0
LINE
  8
TENSEN
 10
4800.180251
 20
1710.482669
 30
0.0
 11
4810.786853
 21
1721.089271
 31
0.0
  0
LINE
  8
TENSEN
 10
4778.967047
 20
1731.695873
 30
0.0
 11
4800.180251
 21
1710.482669
 31
0.0
  0
LINE
  8
ITTEN
 10
4819.625687
 20
1701.643835
 30
0.0
 11
4770.128213
 21
1751.141309
 31
0.0
  0
LINE
  8
ITTEN
 10
5328.74257
 20
1192.526952
 30
0.0
 11
5378.240044
 21
1143.029477
 31
0.0
  0
LINE
  8
TENSEN
 10
5369.40121
 20
1162.474914
 30
0.0
 11
5348.188006
 21
1183.688117
 31
0.0
  0
LINE
  8
TENSEN
 10
5348.188006
 20
1183.688117
 30
0.0
 11
5337.581405
 21
1173.081516
 31
0.0
  0
LINE
  8
TENSEN
 10
5337.581405
 20
1173.081516
 30
0.0
 11
5358.794608
 21
1151.868312
 31
0.0
  0
CIRCLE
  8
JISSEN
 10
5403.273782
 20
1257.085393
 30
0.0
 40
10.0
  0
LINE
  8
ITTEN
 10
5437.914798
 20
1237.085393
 30
0.0
 11
5368.632766
 21
1277.085393
 31
0.0
  0
ARC
  8
ITTEN
 10
5074.184129
 20
1447.085393
 30
0.0
 40
380.0
 50
326.227816
 51
333.772184
  0
CIRCLE
  8
JISSEN
 10
4745.094475
 20
1257.085393
 30
0.0
 40
10.0
  0
LINE
  8
ITTEN
 10
4710.453459
 20
1237.085393
 30
0.0
 11
4779.735491
 21
1277.085393
 31
0.0
  0
ARC
  8
ITTEN
 10
5074.184129
 20
1447.085393
 30
0.0
 40
380.0
 50
206.227816
 51
213.772184
  0
ARC
  8
ITTEN
 10
5074.184129
 20
1447.085393
 30
0.0
 40
380.0
 50
86.227816
 51
93.772184
  0
CIRCLE
  8
JISSEN
 10
5074.184129
 20
1827.085393
 30
0.0
 40
10.0
  0
CIRCLE
  8
JISSEN
 10
5074.184129
 20
1447.085393
 30
0.0
 40
410.0
  0
CIRCLE
  8
JISSEN
 10
5074.184129
 20
1447.085393
 30
0.0
 40
332.0
  0
CIRCLE
  8
JISSEN
 10
5074.184129
 20
1447.085393
 30
0.0
 40
326.0
  0
CIRCLE
  8
JISSEN
 10
5074.184129
 20
1447.085393
 30
0.0
 40
300.0
  0
CIRCLE
  8
TENSEN
 10
4786.363434
 20
2842.085393
 30
0.0
 40
7.5
  0
LINE
  8
ITTEN
 10
4786.363434
 20
2864.585393
 30
0.0
 11
4786.363434
 21
2819.585393
 31
0.0
  0
LINE
  8
ITTEN
 10
4808.863434
 20
2842.085393
 30
0.0
 11
4763.863434
 21
2842.085393
 31
0.0
  0
LINE
  8
SUNPOU
 10
3096.277214
 20
2637.085393
 30
0.0
 11
3096.277214
 21
2637.085393
 31
0.0
  0
LINE
  8
SUNPOU
 10
3096.277214
 20
2932.085393
 30
0.0
 11
3096.277214
 21
2932.085393
 31
0.0
  0
LINE
  8
SUNPOU
 10
3126.277214
 20
2637.085393
 30
0.0
 11
3126.277214
 21
2932.085393
 31
0.0
  0
INSERT
  8
SUNPOU
  2
ARROWANG
 10
3126.277214
 20
2637.085393
 30
0.0
 41
30.0
 42
30.0
 50
270.0
 43
30.0
  0
INSERT
  8
SUNPOU
  2
ARROWANG
 10
3126.277214
 20
2932.085393
 30
0.0
 41
30.0
 42
30.0
 50
90.0
 43
30.0
  0
TEXT
  8
SUNPOU
 10
3081.277214
 20
2720.299679
 30
0.0
 40
45.0
  1
295
 50
90.0
  7
K
 72
     1
 11
3081.277214
 21
2784.585393
 31
0.0
  0
LINE
  8
SUNPOU
 10
4896.277214
 20
2787.085393
 30
0.0
 11
4896.277214
 21
2787.085393
 31
0.0
  0
LINE
  8
SUNPOU
 10
4896.277214
 20
2932.085393
 30
0.0
 11
4896.277214
 21
2932.085393
 31
0.0
  0
LINE
  8
SUNPOU
 10
4926.277214
 20
2787.085393
 30
0.0
 11
4926.277214
 21
2932.085393
 31
0.0
  0
INSERT
  8
SUNPOU
  2
ARROWANG
 10
4926.277214
 20
2787.085393
 30
0.0
 41
30.0
 42
30.0
 50
270.0
 43
30.0
  0
INSERT
  8
SUNPOU
  2
ARROWANG
 10
4926.277214
 20
2932.085393
 30
0.0
 41
30.0
 42
30.0
 50
90.0
 43
30.0
  0
TEXT
  8
SUNPOU
 10
4881.277214
 20
2792.085393
 30
0.0
 40
45.0
  1
145
 50
90.0
  7
K
 72
     1
 11
4881.277214
 21
2859.585393
 31
0.0
  0
TEXT
  8
TEXT
 10
2260.33867
 20
3775.331497
 30
0.0
 40
160.0
  1
斜壁
  7
K
  0
TEXT
  8
TEXT
 10
4157.574956
 20
3763.610367
 30
0.0
 40
160.0
  1
床版斜壁
  7
K
  0
TEXT
  8
TEXT
 10
3037.480069
 20
3554.691686
 30
0.0
 40
100.0
  1
MYT30
  7
K
  0
TEXT
  8
TEXT
 10
4886.351118
 20
3549.047686
 30
0.0
 40
100.0
  1
MYTP
  7
K
  0
TEXT
  8
JISSEN
 10
2084.522142
 20
5044.184302
 30
0.0
 40
200.0
  1
組立マンホール構造図
  7
K
  0
TEXT
  8
JISSEN
 10
4909.369447
 20
5096.50404
 30
0.0
 40
133.333333
  1
( 内径 600mm )
  7
K
  0
LINE
  8
SUNPOU
 10
3996.277214
 20
2887.085393
 30
0.0
 11
3966.277214
 21
2887.085393
 31
0.0
  0
LINE
  8
SUNPOU
 10
3996.277214
 20
2947.085393
 30
0.0
 11
3966.277214
 21
2947.085393
 31
0.0
  0
LINE
  8
SUNPOU
 10
3986.277214
 20
2887.085393
 30
0.0
 11
3986.277214
 21
2947.085393
 31
0.0
  0
INSERT
  8
SUNPOU
  2
ARROWANG
 10
3986.277214
 20
2887.085393
 30
0.0
 41
30.0
 42
30.0
 50
90.0
 43
30.0
  0
INSERT
  8
SUNPOU
  2
ARROWANG
 10
3986.277214
 20
2947.085393
 30
0.0
 41
30.0
 42
30.0
 50
270.0
 43
30.0
  0
LINE
  8
SUNPOU
 10
3986.277214
 20
2947.085393
 30
0.0
 11
3986.277214
 21
3046.085393
 31
0.0
  0
LINE
  8
SUNPOU
 10
3986.277214
 20
2887.085393
 30
0.0
 11
3986.277215
 21
2827.085393
 31
0.0
  0
TEXT
  8
SUNPOU
 10
3956.277214
 20
2952.656822
 30
0.0
 40
45.0
  1
60
 50
90.0
  7
K
 72
     1
 11
3956.277214
 21
2996.585393
 31
0.0
  0
LINE
  8
SUNPOU
 10
5636.277213
 20
2902.085393
 30
0.0
 11
5636.277214
 21
2842.085393
 31
0.0
  0
POLYLINE
  8
WAKU
 66
     1
 10
0.0
 20
0.0
 30
0.0
 70
     1
  0
VERTEX
  8
WAKU
 10
0.0
 20
0.0
 30
0.0
  0
VERTEX
  8
WAKU
 10
7900.0
 20
0.0
 30
0.0
  0
VERTEX
  8
WAKU
 10
7900.0
 20
5460.0
 30
0.0
  0
VERTEX
  8
WAKU
 10
0.0
 20
5460.0
 30
0.0
  0
SEQEND
  8
WAKU
  0
TEXT
  8
TEXT
 10
7421.133676
 20
495.023719
 30
0.0
 40
100.0
  1
1/20
  7
K
  0
ENDSEC
  0
EOF
