  0
SECTION
  2
HEADER
  9
$ACADVER
  1
AC1009
  9
$INSBASE
 10
0.0
 20
0.0
 30
0.0
  9
$EXTMIN
 10
0.0
 20
0.0
 30
0.0
  9
$EXTMAX
 10
11850.0
 20
8190.0
 30
0.0
  9
$LIMMIN
 10
0.0
 20
0.0
  9
$LIMMAX
 10
11850.0
 20
8190.0
  9
$ORTHOMODE
 70
     0
  9
$REGENMODE
 70
     1
  9
$FILLMODE
 70
     1
  9
$QTEXTMODE
 70
     0
  9
$MIRRTEXT
 70
     0
  9
$DRAGMODE
 70
     2
  9
$LTSCALE
 40
150.0
  9
$OSMODE
 70
   289
  9
$ATTMODE
 70
     1
  9
$TEXTSIZE
 40
60.0
  9
$TRACEWID
 40
0.05
  9
$TEXTSTYLE
  7
K
  9
$CLAYER
  8
JISSEN
  9
$CELTYPE
  6
BYLAYER
  9
$CECOLOR
 62
   256
  9
$DIMSCALE
 40
30.0
  9
$DIMASZ
 40
1.5
  9
$DIMEXO
 40
1.0
  9
$DIMDLI
 40
6.0
  9
$DIMRND
 40
0.0
  9
$DIMDLE
 40
0.0
  9
$DIMEXE
 40
1.0
  9
$DIMTP
 40
495.0
  9
$DIMTM
 40
0.0
  9
$DIMTXT
 40
3.0
  9
$DIMCEN
 40
0.0
  9
$DIMTSZ
 40
0.0
  9
$DIMTOL
 70
     0
  9
$DIMLIM
 70
     0
  9
$DIMTIH
 70
     0
  9
$DIMTOH
 70
     0
  9
$DIMSE1
 70
     0
  9
$DIMSE2
 70
     0
  9
$DIMTAD
 70
     1
  9
$DIMZIN
 70
     8
  9
$DIMBLK
  1
ARROW
  9
$DIMASO
 70
     0
  9
$DIMSHO
 70
     0
  9
$DIMPOST
  1

  9
$DIMAPOST
  1

  9
$DIMALT
 70
     0
  9
$DIMALTD
 70
     2
  9
$DIMALTF
 40
25.4
  9
$DIMLFAC
 40
1.0
  9
$DIMTOFL
 70
     1
  9
$DIMTVP
 40
0.0
  9
$DIMTIX
 70
     1
  9
$DIMSOXD
 70
     0
  9
$DIMSAH
 70
     0
  9
$DIMBLK1
  1

  9
$DIMBLK2
  1

  9
$DIMSTYLE
  2
*UNNAMED
  9
$DIMCLRD
 70
     0
  9
$DIMCLRE
 70
     0
  9
$DIMCLRT
 70
     0
  9
$DIMTFAC
 40
1.0
  9
$DIMGAP
 40
0.09
  9
$LUNITS
 70
     2
  9
$LUPREC
 70
     2
  9
$AXISMODE
 70
     0
  9
$AXISUNIT
 10
100.0
 20
100.0
  9
$SKETCHINC
 40
0.1
  9
$FILLETRAD
 40
37.5
  9
$AUNITS
 70
     0
  9
$AUPREC
 70
     2
  9
$MENU
  1
G:STDGX5
  9
$ELEVATION
 40
0.0
  9
$PELEVATION
 40
0.0
  9
$THICKNESS
 40
0.0
  9
$LIMCHECK
 70
     0
  9
$BLIPMODE
 70
     1
  9
$CHAMFERA
 40
0.0
  9
$CHAMFERB
 40
0.0
  9
$SKPOLY
 70
     0
  9
$TDCREATE
 40
2450249.557060185
  9
$TDUPDATE
 40
2450249.564409722
  9
$TDINDWG
 40
0.0027893519
  9
$TDUSRTIMER
 40
0.0027893519
  9
$USRTIMER
 70
     1
  9
$ANGBASE
 50
0.0
  9
$ANGDIR
 70
     0
  9
$PDMODE
 70
     0
  9
$PDSIZE
 40
0.0
  9
$PLINEWID
 40
0.0
  9
$COORDS
 70
     2
  9
$SPLFRAME
 70
     0
  9
$SPLINETYPE
 70
     6
  9
$SPLINESEGS
 70
     8
  9
$ATTDIA
 70
     0
  9
$ATTREQ
 70
     1
  9
$HANDLING
 70
     0
  9
$HANDSEED
  5
0
  9
$SURFTAB1
 70
     6
  9
$SURFTAB2
 70
     6
  9
$SURFTYPE
 70
     6
  9
$SURFU
 70
     6
  9
$SURFV
 70
     6
  9
$UCSNAME
  2

  9
$UCSORG
 10
0.0
 20
0.0
 30
0.0
  9
$UCSXDIR
 10
1.0
 20
0.0
 30
0.0
  9
$UCSYDIR
 10
0.0
 20
1.0
 30
0.0
  9
$PUCSNAME
  2

  9
$PUCSORG
 10
0.0
 20
0.0
 30
0.0
  9
$PUCSXDIR
 10
1.0
 20
0.0
 30
0.0
  9
$PUCSYDIR
 10
0.0
 20
1.0
 30
0.0
  9
$USERI1
 70
     3
  9
$USERI2
 70
   289
  9
$USERI3
 70
     0
  9
$USERI4
 70
     1
  9
$USERI5
 70
     0
  9
$USERR1
 40
30.0
  9
$USERR2
 40
3.0
  9
$USERR3
 40
3.0
  9
$USERR4
 40
1.5
  9
$USERR5
 40
10.0
  9
$WORLDVIEW
 70
     1
  9
$SHADEDGE
 70
     3
  9
$SHADEDIF
 70
    70
  9
$TILEMODE
 70
     1
  9
$MAXACTVP
 70
    16
  9
$PINSBASE
 10
0.0
 20
0.0
 30
0.0
  9
$PLIMCHECK
 70
     0
  9
$PEXTMIN
 10
1.000000E+20
 20
1.000000E+20
 30
1.000000E+20
  9
$PEXTMAX
 10
-1.000000E+20
 20
-1.000000E+20
 30
-1.000000E+20
  9
$PLIMMIN
 10
0.0
 20
0.0
  9
$PLIMMAX
 10
12.0
 20
9.0
  9
$UNITMODE
 70
     0
  9
$VISRETAIN
 70
     0
  0
ENDSEC
  0
SECTION
  2
TABLES
  0
TABLE
  2
VPORT
 70
    10
  0
VPORT
  2
*ACTIVE
 70
     0
 10
0.0
 20
0.0
 11
1.0
 21
1.0
 12
6691.515737
 22
4095.0
 13
0.0
 23
0.0
 14
1.0
 24
1.0
 15
10.0
 25
10.0
 16
0.0
 26
0.0
 36
1.0
 17
0.0
 27
0.0
 37
0.0
 40
8190.0
 41
1.63407
 42
50.0
 43
0.0
 44
0.0
 50
0.0
 51
0.0
 71
     0
 72
   500
 73
     1
 74
     0
 75
     0
 76
     0
 77
     0
 78
     0
  0
VPORT
  2
2
 70
     0
 10
0.5
 20
0.0
 11
1.0
 21
1.0
 12
0.924031
 22
1.052651
 13
0.0
 23
0.0
 14
1.0
 24
1.0
 15
10.0
 25
10.0
 16
0.0
 26
0.0
 36
1.0
 17
0.0
 27
0.0
 37
0.0
 40
2.105302
 41
0.877814
 42
50.0
 43
0.0
 44
0.0
 50
0.0
 51
0.0
 71
     0
 72
   500
 73
     1
 74
     1
 75
     0
 76
     0
 77
     0
 78
     0
  0
VPORT
  2
2
 70
     0
 10
0.0
 20
0.0
 11
0.5
 21
1.0
 12
0.924031
 22
1.052651
 13
0.0
 23
0.0
 14
1.0
 24
1.0
 15
10.0
 25
10.0
 16
0.0
 26
0.0
 36
1.0
 17
0.0
 27
0.0
 37
0.0
 40
2.105302
 41
0.877814
 42
50.0
 43
0.0
 44
0.0
 50
0.0
 51
0.0
 71
     0
 72
   500
 73
     1
 74
     1
 75
     0
 76
     0
 77
     0
 78
     0
  0
VPORT
  2
3
 70
     0
 10
0.0
 20
0.5
 11
1.0
 21
1.0
 12
2.83217
 22
1.052651
 13
0.0
 23
0.0
 14
1.0
 24
1.0
 15
10.0
 25
10.0
 16
0.0
 26
0.0
 36
1.0
 17
0.0
 27
0.0
 37
0.0
 40
2.105302
 41
3.571429
 42
50.0
 43
0.0
 44
0.0
 50
0.0
 51
0.0
 71
     0
 72
   500
 73
     1
 74
     1
 75
     0
 76
     0
 77
     0
 78
     0
  0
VPORT
  2
3
 70
     0
 10
0.0
 20
0.0
 11
1.0
 21
0.5
 12
2.856742
 22
1.052651
 13
0.0
 23
0.0
 14
1.0
 24
1.0
 15
10.0
 25
10.0
 16
0.0
 26
0.0
 36
1.0
 17
0.0
 27
0.0
 37
0.0
 40
2.105302
 41
3.594771
 42
50.0
 43
0.0
 44
0.0
 50
0.0
 51
0.0
 71
     0
 72
   500
 73
     1
 74
     1
 75
     0
 76
     0
 77
     0
 78
     0
  0
VPORT
  2
4
 70
     0
 10
0.5
 20
0.0
 11
1.0
 21
0.5
 12
2.886858
 22
1.052651
 13
0.0
 23
0.0
 14
1.0
 24
1.0
 15
10.0
 25
10.0
 16
0.0
 26
0.0
 36
1.0
 17
0.0
 27
0.0
 37
0.0
 40
4.275207
 41
1.784314
 42
50.0
 43
0.0
 44
0.0
 50
0.0
 51
0.0
 71
     0
 72
   500
 73
     1
 74
     1
 75
     0
 76
     0
 77
     0
 78
     0
  0
VPORT
  2
4
 70
     0
 10
0.5
 20
0.5
 11
1.0
 21
1.0
 12
2.86209
 22
1.052651
 13
0.0
 23
0.0
 14
1.0
 24
1.0
 15
10.0
 25
10.0
 16
0.0
 26
0.0
 36
1.0
 17
0.0
 27
0.0
 37
0.0
 40
4.275207
 41
1.772727
 42
50.0
 43
0.0
 44
0.0
 50
0.0
 51
0.0
 71
     0
 72
   500
 73
     1
 74
     1
 75
     0
 76
     0
 77
     0
 78
     0
  0
VPORT
  2
4
 70
     0
 10
0.0
 20
0.5
 11
0.5
 21
1.0
 12
2.86209
 22
1.052651
 13
0.0
 23
0.0
 14
1.0
 24
1.0
 15
10.0
 25
10.0
 16
0.0
 26
0.0
 36
1.0
 17
0.0
 27
0.0
 37
0.0
 40
4.275207
 41
1.772727
 42
50.0
 43
0.0
 44
0.0
 50
0.0
 51
0.0
 71
     0
 72
   500
 73
     1
 74
     1
 75
     0
 76
     0
 77
     0
 78
     0
  0
VPORT
  2
4
 70
     0
 10
0.0
 20
0.0
 11
0.5
 21
0.5
 12
2.886858
 22
1.052651
 13
0.0
 23
0.0
 14
1.0
 24
1.0
 15
10.0
 25
10.0
 16
0.0
 26
0.0
 36
1.0
 17
0.0
 27
0.0
 37
0.0
 40
4.275207
 41
1.784314
 42
50.0
 43
0.0
 44
0.0
 50
0.0
 51
0.0
 71
     0
 72
   500
 73
     1
 74
     1
 75
     0
 76
     0
 77
     0
 78
     0
  0
ENDTAB
  0
TABLE
  2
LTYPE
 70
     5
  0
LTYPE
  2
CONTINUOUS
 70
    64
  3
実線
 72
    65
 73
     0
 40
0.0
  0
LTYPE
  2
DASHED
 70
    64
  3
__ __ __ __ __ __ __ __ __ __ __ __ __ __ __
 72
    65
 73
     2
 40
0.75
 49
0.5
 49
-0.25
  0
LTYPE
  2
CENTER
 70
    64
  3
____ _ ____ _ ____ _ ____ _ ____ _ ____ _ ____
 72
    65
 73
     4
 40
2.0
 49
1.25
 49
-0.25
 49
0.25
 49
-0.25
  0
LTYPE
  2
PHANTOM
 70
    64
  3
_____ _ _ _____ _ _ _____ _ _ _____ _ _ ____
 72
    65
 73
     6
 40
2.5
 49
1.25
 49
-0.25
 49
0.25
 49
-0.25
 49
0.25
 49
-0.25
  0
LTYPE
  2
HIDDEN
 70
    64
  3
_ _ _ _ _ _ _ _ _ _ _ _ _ _ _ _ _ _ _ _ _ _ _
 72
    65
 73
     2
 40
0.375
 49
0.25
 49
-0.125
  0
ENDTAB
  0
TABLE
  2
LAYER
 70
    14
  0
LAYER
  2
0
 70
    64
 62
     7
  6
CONTINUOUS
  0
LAYER
  2
ITTEN
 70
    64
 62
     1
  6
CENTER
  0
LAYER
  2
HATCH
 70
    64
 62
     4
  6
CONTINUOUS
  0
LAYER
  2
SUNPOU
 70
    64
 62
     3
  6
CONTINUOUS
  0
LAYER
  2
TEXT
 70
    64
 62
     3
  6
CONTINUOUS
  0
LAYER
  2
SAISEN
 70
    64
 62
     4
  6
CONTINUOUS
  0
LAYER
  2
JISSEN
 70
    64
 62
     7
  6
CONTINUOUS
  0
LAYER
  2
TENSEN
 70
    64
 62
     2
  6
HIDDEN
  0
LAYER
  2
WAKU
 70
    64
 62
    -5
  6
CONTINUOUS
  0
ENDTAB
  0
TABLE
  2
STYLE
 70
     2
  0
STYLE
  2
STANDARD
 70
     0
 40
0.0
 41
1.0
 50
0.0
 71
     0
 42
0.2
  3
ROMANS
  4
EXTFONT
  0
STYLE
  2
K
 70
    64
 40
0.0
 41
1.0
 50
0.0
 71
     0
 42
60.0
  3
ROMANS
  4
EXTFONT
  0
ENDTAB
  0
TABLE
  2
VIEW
 70
     0
  0
ENDTAB
  0
TABLE
  2
UCS
 70
     0
  0
ENDTAB
  0
TABLE
  2
APPID
 70
     1
  0
APPID
  2
ACAD
 70
    64
  0
ENDTAB
  0
TABLE
  2
DIMSTYLE
 70
     0
  0
ENDTAB
  0
ENDSEC
  0
SECTION
  2
BLOCKS
  0
BLOCK
  8
JISSEN
  2
ARROW
 70
    64
 10
1.0
 20
0.5
 30
0.0
  3
ARROW
  0
LINE
  8
0
 10
1.0
 20
0.5
 30
0.0
 11
-0.5
 21
0.098076
 31
0.0
  0
LINE
  8
0
 10
0.0
 20
0.5
 30
0.0
 11
1.0
 21
0.5
 31
0.0
  0
LINE
  8
0
 10
1.0
 20
0.5
 30
0.0
 11
-0.5
 21
0.901924
 31
0.0
  0
ENDBLK
  8
JISSEN
  0
BLOCK
  8
SUNPOU
  2
ARROWANG
 70
    64
 10
0.0
 20
0.0
 30
0.0
  3
ARROWANG
  0
LINE
  8
SUNPOU
 10
0.0
 20
0.0
 30
0.0
 11
-1.5
 21
0.401924
 31
0.0
  0
LINE
  8
SUNPOU
 10
0.0
 20
0.0
 30
0.0
 11
-1.5
 21
-0.401924
 31
0.0
  0
ENDBLK
  8
SUNPOU
  0
BLOCK
  8
HATCH
  2
*X2
 70
    65
 10
0.0
 20
0.0
 30
0.0
  3
*X
  0
ENDBLK
  8
HATCH
  0
BLOCK
  8
HATCH
  2
*X3
 70
    65
 10
0.0
 20
0.0
 30
0.0
  3
*X
  0
ENDBLK
  8
HATCH
  0
BLOCK
  8
HATCH
  2
STDGX5
 70
    64
 10
0.0
 20
0.0
 30
0.0
  3
STDGX5
  0
ENDBLK
  8
HATCH
  0
ENDSEC
  0
SECTION
  2
ENTITIES
  0
TEXT
  8
SUNPOU
 10
7507.603349
 20
4577.115311
 30
0.0
 40
45.0
  1
592
 50
90.0
  7
K
 72
     1
 11
7507.603349
 21
4641.401025
 31
0.0
  0
INSERT
  8
SUNPOU
  2
ARROWANG
 10
7552.603349
 20
4937.401025
 30
0.0
 41
30.0
 42
30.0
 50
90.0
 43
30.0
  0
INSERT
  8
SUNPOU
  2
ARROWANG
 10
7552.603349
 20
4345.401025
 30
0.0
 41
30.0
 42
30.0
 50
270.0
 43
30.0
  0
LINE
  8
SUNPOU
 10
7552.603349
 20
4345.401025
 30
0.0
 11
7552.603349
 21
4937.401025
 31
0.0
  0
LINE
  8
SUNPOU
 10
7522.603349
 20
4937.401025
 30
0.0
 11
7522.603349
 21
4937.401025
 31
0.0
  0
LINE
  8
SUNPOU
 10
7522.603349
 20
4345.401025
 30
0.0
 11
7522.603349
 21
4345.401025
 31
0.0
  0
TEXT
  8
SUNPOU
 10
6917.523544
 20
4595.043883
 30
0.0
 40
45.0
  1
600
 50
90.0
  7
K
 72
     1
 11
6917.523544
 21
4660.401025
 31
0.0
  0
INSERT
  8
SUNPOU
  2
ARROWANG
 10
6962.523544
 20
4960.401025
 30
0.0
 41
30.0
 42
30.0
 50
90.0
 43
30.0
  0
INSERT
  8
SUNPOU
  2
ARROWANG
 10
6962.523544
 20
4360.401025
 30
0.0
 41
30.0
 42
30.0
 50
270.0
 43
30.0
  0
LINE
  8
SUNPOU
 10
6962.523544
 20
4360.401025
 30
0.0
 11
6962.523544
 21
4960.401025
 31
0.0
  0
LINE
  8
SUNPOU
 10
6932.523544
 20
4960.401025
 30
0.0
 11
6932.523544
 21
4960.401025
 31
0.0
  0
LINE
  8
SUNPOU
 10
6932.523544
 20
4360.401025
 30
0.0
 11
6932.523544
 21
4360.401025
 31
0.0
  0
LINE
  8
ITTEN
 10
3887.523544
 20
4795.401025
 30
0.0
 11
3987.523544
 21
4795.401025
 31
0.0
  0
LINE
  8
JISSEN
 10
7212.523544
 20
4960.401025
 30
0.0
 11
7252.523544
 21
4960.401025
 31
0.0
  0
LINE
  8
JISSEN
 10
7252.523544
 20
4960.401025
 30
0.0
 11
7259.523544
 21
4937.401025
 31
0.0
  0
LINE
  8
JISSEN
 10
7259.523544
 20
4937.401025
 30
0.0
 11
7287.523544
 21
4937.401025
 31
0.0
  0
LINE
  8
JISSEN
 10
7212.523544
 20
4960.401025
 30
0.0
 11
7212.523544
 21
4360.401025
 31
0.0
  0
LINE
  8
JISSEN
 10
7212.523544
 20
4360.401025
 30
0.0
 11
7253.523544
 21
4360.401025
 31
0.0
  0
LINE
  8
JISSEN
 10
7253.523544
 20
4360.401025
 30
0.0
 11
7262.523544
 21
4345.401025
 31
0.0
  0
LINE
  8
JISSEN
 10
7262.523544
 20
4345.401025
 30
0.0
 11
7287.523544
 21
4345.401025
 31
0.0
  0
LINE
  8
JISSEN
 10
7287.523544
 20
4937.401025
 30
0.0
 11
7287.523544
 21
4345.401025
 31
0.0
  0
LINE
  8
TENSEN
 10
8187.523544
 20
4937.401025
 30
0.0
 11
8187.523544
 21
4345.401025
 31
0.0
  0
LINE
  8
JISSEN
 10
8212.523544
 20
4345.401025
 30
0.0
 11
8187.523544
 21
4345.401025
 31
0.0
  0
LINE
  8
JISSEN
 10
8221.523544
 20
4360.401025
 30
0.0
 11
8212.523544
 21
4345.401025
 31
0.0
  0
LINE
  8
JISSEN
 10
8262.523544
 20
4360.401025
 30
0.0
 11
8221.523544
 21
4360.401025
 31
0.0
  0
LINE
  8
JISSEN
 10
8262.523544
 20
4960.401025
 30
0.0
 11
8262.523544
 21
4360.401025
 31
0.0
  0
LINE
  8
TENSEN
 10
8215.523544
 20
4937.401025
 30
0.0
 11
8187.523544
 21
4937.401025
 31
0.0
  0
LINE
  8
TENSEN
 10
8222.523544
 20
4960.401025
 30
0.0
 11
8215.523544
 21
4937.401025
 31
0.0
  0
LINE
  8
JISSEN
 10
8262.523544
 20
4960.401025
 30
0.0
 11
8222.523544
 21
4960.401025
 31
0.0
  0
LINE
  8
JISSEN
 10
7253.523544
 20
4960.401025
 30
0.0
 11
8222.523544
 21
4960.401025
 31
0.0
  0
LINE
  8
JISSEN
 10
7287.523544
 20
4937.401025
 30
0.0
 11
7587.523544
 21
4937.401025
 31
0.0
  0
LINE
  8
TENSEN
 10
7587.523544
 20
4937.401025
 30
0.0
 11
8187.523544
 21
4937.401025
 31
0.0
  0
LINE
  8
JISSEN
 10
7287.523544
 20
4345.401025
 30
0.0
 11
8187.523544
 21
4345.401025
 31
0.0
  0
LINE
  8
TENSEN
 10
7253.523544
 20
4360.401025
 30
0.0
 11
7587.523544
 21
4360.401025
 31
0.0
  0
LINE
  8
JISSEN
 10
7587.523544
 20
4360.401025
 30
0.0
 11
8221.523544
 21
4360.401025
 31
0.0
  0
LINE
  8
ITTEN
 10
7587.523544
 20
5060.401025
 30
0.0
 11
7587.523544
 21
4260.401025
 31
0.0
  0
LINE
  8
SUNPOU
 10
7212.523544
 20
4990.401025
 30
0.0
 11
7212.523544
 21
5440.401025
 31
0.0
  0
LINE
  8
SUNPOU
 10
8262.523544
 20
4990.401025
 30
0.0
 11
8262.523544
 21
5440.401025
 31
0.0
  0
LINE
  8
SUNPOU
 10
7212.523544
 20
5410.401025
 30
0.0
 11
8262.523544
 21
5410.401025
 31
0.0
  0
INSERT
  8
SUNPOU
  2
ARROWANG
 10
8262.523544
 20
5410.401025
 30
0.0
 41
30.0
 42
30.0
 43
30.0
  0
INSERT
  8
SUNPOU
  2
ARROWANG
 10
7212.523544
 20
5410.401025
 30
0.0
 41
30.0
 42
30.0
 50
180.0
 43
30.0
  0
TEXT
  8
SUNPOU
 10
7648.594972
 20
5455.401025
 30
0.0
 40
45.0
  1
1050
  7
K
 72
     1
 11
7737.523544
 21
5455.401025
 31
0.0
  0
LINE
  8
SUNPOU
 10
7212.523544
 20
5290.401025
 30
0.0
 11
7212.523544
 21
5290.401025
 31
0.0
  0
LINE
  8
SUNPOU
 10
7287.523544
 20
4967.401025
 30
0.0
 11
7287.523544
 21
5290.401025
 31
0.0
  0
LINE
  8
SUNPOU
 10
7212.523544
 20
5260.401025
 30
0.0
 11
7287.523544
 21
5260.401025
 31
0.0
  0
INSERT
  8
SUNPOU
  2
ARROWANG
 10
7287.523544
 20
5260.401025
 30
0.0
 41
30.0
 42
30.0
 50
180.0
 43
30.0
  0
INSERT
  8
SUNPOU
  2
ARROWANG
 10
7212.523544
 20
5260.401025
 30
0.0
 41
30.0
 42
30.0
 43
30.0
  0
TEXT
  8
SUNPOU
 10
7207.166416
 20
5305.401025
 30
0.0
 40
45.0
  1
75
  7
K
 72
     1
 11
7250.023559
 21
5305.401025
 31
0.0
  0
LINE
  8
SUNPOU
 10
7287.523544
 20
5260.401025
 30
0.0
 11
7347.523544
 21
5260.401025
 31
0.0
  0
LINE
  8
SUNPOU
 10
7212.523544
 20
5260.401025
 30
0.0
 11
7152.523544
 21
5260.401025
 31
0.0
  0
LINE
  8
SUNPOU
 10
8187.523544
 20
4967.401025
 30
0.0
 11
8187.523544
 21
5290.401025
 31
0.0
  0
LINE
  8
SUNPOU
 10
8262.523544
 20
5290.401025
 30
0.0
 11
8262.523544
 21
5290.401025
 31
0.0
  0
LINE
  8
SUNPOU
 10
8187.523544
 20
5260.401025
 30
0.0
 11
8262.523544
 21
5260.401025
 31
0.0
  0
INSERT
  8
SUNPOU
  2
ARROWANG
 10
8262.523544
 20
5260.401025
 30
0.0
 41
30.0
 42
30.0
 50
180.0
 43
30.0
  0
INSERT
  8
SUNPOU
  2
ARROWANG
 10
8187.523544
 20
5260.401025
 30
0.0
 41
30.0
 42
30.0
 43
30.0
  0
TEXT
  8
SUNPOU
 10
8182.166401
 20
5305.401025
 30
0.0
 40
45.0
  1
75
  7
K
 72
     1
 11
8225.023544
 21
5305.401025
 31
0.0
  0
LINE
  8
SUNPOU
 10
8262.523544
 20
5260.401025
 30
0.0
 11
8322.523544
 21
5260.401025
 31
0.0
  0
LINE
  8
SUNPOU
 10
8187.523544
 20
5260.401025
 30
0.0
 11
8127.523544
 21
5260.401025
 31
0.0
  0
LINE
  8
SUNPOU
 10
7287.523544
 20
5230.401025
 30
0.0
 11
7287.523544
 21
5230.401025
 31
0.0
  0
LINE
  8
SUNPOU
 10
8187.523544
 20
5230.401025
 30
0.0
 11
8187.523544
 21
5230.401025
 31
0.0
  0
LINE
  8
SUNPOU
 10
7287.523544
 20
5260.401025
 30
0.0
 11
8187.523544
 21
5260.401025
 31
0.0
  0
INSERT
  8
SUNPOU
  2
ARROWANG
 10
7287.523544
 20
5260.401025
 30
0.0
 41
30.0
 42
30.0
 50
180.0
 43
30.0
  0
INSERT
  8
SUNPOU
  2
ARROWANG
 10
8187.523544
 20
5260.401025
 30
0.0
 41
30.0
 42
30.0
 43
30.0
  0
TEXT
  8
SUNPOU
 10
7673.237844
 20
5305.401025
 30
0.0
 40
45.0
  1
900
  7
K
 72
     1
 11
7737.523559
 21
5305.401025
 31
0.0
  0
LINE
  8
SUNPOU
 10
7287.523544
 20
5140.401025
 30
0.0
 11
7287.523544
 21
5140.401025
 31
0.0
  0
LINE
  8
SUNPOU
 10
7587.523544
 20
4990.401025
 30
0.0
 11
7587.523544
 21
5140.401025
 31
0.0
  0
LINE
  8
SUNPOU
 10
7287.523544
 20
5110.401025
 30
0.0
 11
7587.523544
 21
5110.401025
 31
0.0
  0
INSERT
  8
SUNPOU
  2
ARROWANG
 10
7587.523544
 20
5110.401025
 30
0.0
 41
30.0
 42
30.0
 43
30.0
  0
INSERT
  8
SUNPOU
  2
ARROWANG
 10
7287.523544
 20
5110.401025
 30
0.0
 41
30.0
 42
30.0
 50
180.0
 43
30.0
  0
TEXT
  8
SUNPOU
 10
7373.23783
 20
5155.401025
 30
0.0
 40
45.0
  1
300
  7
K
 72
     1
 11
7437.523544
 21
5155.401025
 31
0.0
  0
LINE
  8
SUNPOU
 10
7587.523544
 20
5080.401025
 30
0.0
 11
7587.523544
 21
5080.401025
 31
0.0
  0
LINE
  8
SUNPOU
 10
8187.523544
 20
5080.401025
 30
0.0
 11
8187.523544
 21
5080.401025
 31
0.0
  0
LINE
  8
SUNPOU
 10
7587.523544
 20
5110.401025
 30
0.0
 11
8187.523544
 21
5110.401025
 31
0.0
  0
INSERT
  8
SUNPOU
  2
ARROWANG
 10
7587.523544
 20
5110.401025
 30
0.0
 41
30.0
 42
30.0
 50
180.0
 43
30.0
  0
INSERT
  8
SUNPOU
  2
ARROWANG
 10
8187.523544
 20
5110.401025
 30
0.0
 41
30.0
 42
30.0
 43
30.0
  0
TEXT
  8
SUNPOU
 10
7822.166416
 20
5155.401025
 30
0.0
 40
45.0
  1
600
  7
K
 72
     1
 11
7887.523559
 21
5155.401025
 31
0.0
  0
LINE
  8
SUNPOU
 10
7182.523544
 20
4360.401025
 30
0.0
 11
6932.523544
 21
4360.401025
 31
0.0
  0
LINE
  8
SUNPOU
 10
7182.523544
 20
4960.401025
 30
0.0
 11
6932.523544
 21
4960.401025
 31
0.0
  0
LINE
  8
SUNPOU
 10
7229.523544
 20
4937.401025
 30
0.0
 11
7082.523544
 21
4937.401025
 31
0.0
  0
LINE
  8
SUNPOU
 10
7142.523544
 20
4960.401025
 30
0.0
 11
7142.523544
 21
4960.401025
 31
0.0
  0
INSERT
  8
SUNPOU
  2
ARROWANG
 10
7112.523544
 20
4937.401025
 30
0.0
 41
30.0
 42
30.0
 50
90.0
 43
30.0
  0
INSERT
  8
SUNPOU
  2
ARROWANG
 10
7112.523544
 20
4960.401025
 30
0.0
 41
30.0
 42
30.0
 50
270.0
 43
30.0
  0
LINE
  8
SUNPOU
 10
7112.523544
 20
4937.401025
 30
0.0
 11
7112.523544
 21
4838.401025
 31
0.0
  0
LINE
  8
SUNPOU
 10
7112.523544
 20
4960.401025
 30
0.0
 11
7112.523544
 21
5020.401025
 31
0.0
  0
TEXT
  8
SUNPOU
 10
7067.523544
 20
4845.043883
 30
0.0
 40
45.0
  1
23
 50
90.0
  7
K
 72
     1
 11
7067.523544
 21
4887.901025
 31
0.0
  0
LINE
  8
SUNPOU
 10
7232.523544
 20
4345.401025
 30
0.0
 11
7082.523544
 21
4345.401025
 31
0.0
  0
LINE
  8
SUNPOU
 10
7142.523544
 20
4360.401025
 30
0.0
 11
7142.523544
 21
4360.401025
 31
0.0
  0
INSERT
  8
SUNPOU
  2
ARROWANG
 10
7112.523544
 20
4345.401025
 30
0.0
 41
30.0
 42
30.0
 50
90.0
 43
30.0
  0
INSERT
  8
SUNPOU
  2
ARROWANG
 10
7112.523544
 20
4360.401025
 30
0.0
 41
30.0
 42
30.0
 50
270.0
 43
30.0
  0
LINE
  8
SUNPOU
 10
7112.523544
 20
4360.401025
 30
0.0
 11
7112.523544
 21
4459.401025
 31
0.0
  0
LINE
  8
SUNPOU
 10
7112.523544
 20
4345.401025
 30
0.0
 11
7112.523545
 21
4285.401025
 31
0.0
  0
TEXT
  8
SUNPOU
 10
7067.523544
 20
4363.829597
 30
0.0
 40
45.0
  1
15
 50
90.0
  7
K
 72
     1
 11
7067.523544
 21
4409.901025
 31
0.0
  0
LINE
  8
SUNPOU
 10
7567.523544
 20
4345.401025
 30
0.0
 11
7582.603349
 21
4345.401025
 31
0.0
  0
LINE
  8
SUNPOU
 10
7567.523544
 20
4937.401025
 30
0.0
 11
7582.603349
 21
4937.401025
 31
0.0
  0
LINE
  8
SUNPOU
 10
9267.523544
 20
4937.401025
 30
0.0
 11
9282.603349
 21
4937.401025
 31
0.0
  0
LINE
  8
SUNPOU
 10
9267.523544
 20
4345.401025
 30
0.0
 11
9282.603349
 21
4345.401025
 31
0.0
  0
LINE
  8
SUNPOU
 10
9107.523544
 20
4345.401025
 30
0.0
 11
9107.523544
 21
4345.401025
 31
0.0
  0
LINE
  8
JISSEN
 10
9287.523544
 20
4360.401025
 30
0.0
 11
9621.523544
 21
4360.401025
 31
0.0
  0
LINE
  8
TENSEN
 10
8953.523544
 20
4360.401025
 30
0.0
 11
9287.523544
 21
4360.401025
 31
0.0
  0
LINE
  8
JISSEN
 10
8987.523544
 20
4345.401025
 30
0.0
 11
9587.523544
 21
4345.401025
 31
0.0
  0
LINE
  8
TENSEN
 10
9287.523544
 20
4937.401025
 30
0.0
 11
9587.523544
 21
4937.401025
 31
0.0
  0
LINE
  8
JISSEN
 10
8987.523544
 20
4937.401025
 30
0.0
 11
9287.523544
 21
4937.401025
 31
0.0
  0
LINE
  8
JISSEN
 10
8953.523544
 20
4960.401025
 30
0.0
 11
9622.523544
 21
4960.401025
 31
0.0
  0
LINE
  8
JISSEN
 10
9662.523544
 20
4960.401025
 30
0.0
 11
9622.523544
 21
4960.401025
 31
0.0
  0
LINE
  8
TENSEN
 10
9622.523544
 20
4960.401025
 30
0.0
 11
9615.523544
 21
4937.401025
 31
0.0
  0
LINE
  8
TENSEN
 10
9615.523544
 20
4937.401025
 30
0.0
 11
9587.523544
 21
4937.401025
 31
0.0
  0
LINE
  8
JISSEN
 10
9662.523544
 20
4960.401025
 30
0.0
 11
9662.523544
 21
4360.401025
 31
0.0
  0
LINE
  8
JISSEN
 10
9662.523544
 20
4360.401025
 30
0.0
 11
9621.523544
 21
4360.401025
 31
0.0
  0
LINE
  8
JISSEN
 10
9621.523544
 20
4360.401025
 30
0.0
 11
9612.523544
 21
4345.401025
 31
0.0
  0
LINE
  8
JISSEN
 10
9612.523544
 20
4345.401025
 30
0.0
 11
9587.523544
 21
4345.401025
 31
0.0
  0
LINE
  8
TENSEN
 10
9587.523544
 20
4937.401025
 30
0.0
 11
9587.523544
 21
4345.401025
 31
0.0
  0
LINE
  8
JISSEN
 10
8987.523544
 20
4937.401025
 30
0.0
 11
8987.523544
 21
4345.401025
 31
0.0
  0
LINE
  8
JISSEN
 10
8962.523544
 20
4345.401025
 30
0.0
 11
8987.523544
 21
4345.401025
 31
0.0
  0
LINE
  8
JISSEN
 10
8953.523544
 20
4360.401025
 30
0.0
 11
8962.523544
 21
4345.401025
 31
0.0
  0
LINE
  8
JISSEN
 10
8912.523544
 20
4360.401025
 30
0.0
 11
8953.523544
 21
4360.401025
 31
0.0
  0
LINE
  8
JISSEN
 10
8912.523544
 20
4960.401025
 30
0.0
 11
8912.523544
 21
4360.401025
 31
0.0
  0
LINE
  8
JISSEN
 10
8959.523544
 20
4937.401025
 30
0.0
 11
8987.523544
 21
4937.401025
 31
0.0
  0
LINE
  8
JISSEN
 10
8952.523544
 20
4960.401025
 30
0.0
 11
8959.523544
 21
4937.401025
 31
0.0
  0
LINE
  8
JISSEN
 10
8912.523544
 20
4960.401025
 30
0.0
 11
8952.523544
 21
4960.401025
 31
0.0
  0
LINE
  8
SUNPOU
 10
8912.523544
 20
4990.401025
 30
0.0
 11
8912.523544
 21
5290.401025
 31
0.0
  0
LINE
  8
SUNPOU
 10
9662.523544
 20
4990.401025
 30
0.0
 11
9662.523544
 21
5290.401025
 31
0.0
  0
LINE
  8
SUNPOU
 10
8912.523544
 20
5260.401025
 30
0.0
 11
9662.523544
 21
5260.401025
 31
0.0
  0
INSERT
  8
SUNPOU
  2
ARROWANG
 10
9662.523544
 20
5260.401025
 30
0.0
 41
30.0
 42
30.0
 43
30.0
  0
INSERT
  8
SUNPOU
  2
ARROWANG
 10
8912.523544
 20
5260.401025
 30
0.0
 41
30.0
 42
30.0
 50
180.0
 43
30.0
  0
TEXT
  8
SUNPOU
 10
9223.23783
 20
5305.401025
 30
0.0
 40
45.0
  1
750
  7
K
 72
     1
 11
9287.523544
 21
5305.401025
 31
0.0
  0
LINE
  8
SUNPOU
 10
8912.523544
 20
5140.401025
 30
0.0
 11
8912.523544
 21
5140.401025
 31
0.0
  0
LINE
  8
SUNPOU
 10
8987.523544
 20
4967.401025
 30
0.0
 11
8987.523544
 21
5140.401025
 31
0.0
  0
LINE
  8
SUNPOU
 10
8912.523544
 20
5110.401025
 30
0.0
 11
8987.523544
 21
5110.401025
 31
0.0
  0
INSERT
  8
SUNPOU
  2
ARROWANG
 10
8987.523544
 20
5110.401025
 30
0.0
 41
30.0
 42
30.0
 50
180.0
 43
30.0
  0
INSERT
  8
SUNPOU
  2
ARROWANG
 10
8912.523544
 20
5110.401025
 30
0.0
 41
30.0
 42
30.0
 43
30.0
  0
TEXT
  8
SUNPOU
 10
8907.166416
 20
5155.401025
 30
0.0
 40
45.0
  1
75
  7
K
 72
     1
 11
8950.023559
 21
5155.401025
 31
0.0
  0
LINE
  8
SUNPOU
 10
8987.523544
 20
5110.401025
 30
0.0
 11
9047.523544
 21
5110.401025
 31
0.0
  0
LINE
  8
SUNPOU
 10
8912.523544
 20
5110.401025
 30
0.0
 11
8852.523544
 21
5110.401025
 31
0.0
  0
LINE
  8
SUNPOU
 10
9587.523544
 20
4967.401025
 30
0.0
 11
9587.523544
 21
5140.401025
 31
0.0
  0
LINE
  8
SUNPOU
 10
9662.523544
 20
5140.401025
 30
0.0
 11
9662.523544
 21
5140.401025
 31
0.0
  0
LINE
  8
SUNPOU
 10
9587.523544
 20
5110.401025
 30
0.0
 11
9662.523544
 21
5110.401025
 31
0.0
  0
INSERT
  8
SUNPOU
  2
ARROWANG
 10
9662.523544
 20
5110.401025
 30
0.0
 41
30.0
 42
30.0
 50
180.0
 43
30.0
  0
INSERT
  8
SUNPOU
  2
ARROWANG
 10
9587.523544
 20
5110.401025
 30
0.0
 41
30.0
 42
30.0
 43
30.0
  0
TEXT
  8
SUNPOU
 10
9582.166416
 20
5155.401025
 30
0.0
 40
45.0
  1
75
  7
K
 72
     1
 11
9625.023559
 21
5155.401025
 31
0.0
  0
LINE
  8
SUNPOU
 10
9662.523544
 20
5110.401025
 30
0.0
 11
9722.523544
 21
5110.401025
 31
0.0
  0
LINE
  8
SUNPOU
 10
9587.523544
 20
5110.401025
 30
0.0
 11
9527.523544
 21
5110.401025
 31
0.0
  0
LINE
  8
SUNPOU
 10
8987.523544
 20
5080.401025
 30
0.0
 11
8987.523544
 21
5080.401025
 31
0.0
  0
LINE
  8
SUNPOU
 10
9587.523544
 20
5080.401025
 30
0.0
 11
9587.523544
 21
5080.401025
 31
0.0
  0
LINE
  8
SUNPOU
 10
8987.523544
 20
5110.401025
 30
0.0
 11
9587.523544
 21
5110.401025
 31
0.0
  0
INSERT
  8
SUNPOU
  2
ARROWANG
 10
8987.523544
 20
5110.401025
 30
0.0
 41
30.0
 42
30.0
 50
180.0
 43
30.0
  0
INSERT
  8
SUNPOU
  2
ARROWANG
 10
9587.523544
 20
5110.401025
 30
0.0
 41
30.0
 42
30.0
 43
30.0
  0
TEXT
  8
SUNPOU
 10
9222.166416
 20
5155.401025
 30
0.0
 40
45.0
  1
600
  7
K
 72
     1
 11
9287.523559
 21
5155.401025
 31
0.0
  0
LINE
  8
ITTEN
 10
9287.523544
 20
5060.401025
 30
0.0
 11
9287.523544
 21
4260.401025
 31
0.0
  0
CIRCLE
  8
JISSEN
 10
7677.523544
 20
4860.401025
 30
0.0
 40
10.0
  0
LINE
  8
ITTEN
 10
7677.523544
 20
4890.401025
 30
0.0
 11
7677.523544
 21
4830.401025
 31
0.0
  0
LINE
  8
ITTEN
 10
7707.523544
 20
4860.401025
 30
0.0
 11
7647.523544
 21
4860.401025
 31
0.0
  0
CIRCLE
  8
JISSEN
 10
7677.523544
 20
4460.401025
 30
0.0
 40
10.0
  0
LINE
  8
ITTEN
 10
7677.523544
 20
4490.401025
 30
0.0
 11
7677.523544
 21
4430.401025
 31
0.0
  0
LINE
  8
ITTEN
 10
7707.523544
 20
4460.401025
 30
0.0
 11
7647.523544
 21
4460.401025
 31
0.0
  0
LINE
  8
SUNPOU
 10
7737.523544
 20
4860.401025
 30
0.0
 11
7857.523544
 21
4860.401025
 31
0.0
  0
LINE
  8
SUNPOU
 10
7857.523544
 20
4960.401025
 30
0.0
 11
7857.523544
 21
4960.401025
 31
0.0
  0
INSERT
  8
SUNPOU
  2
ARROWANG
 10
7827.523544
 20
4860.401025
 30
0.0
 41
30.0
 42
30.0
 50
90.0
 43
30.0
  0
INSERT
  8
SUNPOU
  2
ARROWANG
 10
7827.523544
 20
4960.401025
 30
0.0
 41
30.0
 42
30.0
 50
270.0
 43
30.0
  0
LINE
  8
SUNPOU
 10
7827.523544
 20
4860.401025
 30
0.0
 11
7827.523544
 21
4711.901025
 31
0.0
  0
LINE
  8
SUNPOU
 10
7827.523544
 20
4960.401025
 30
0.0
 11
7827.523544
 21
5020.401025
 31
0.0
  0
TEXT
  8
SUNPOU
 10
7782.523544
 20
4718.651025
 30
0.0
 40
45.0
  1
100
 50
90.0
  7
K
 72
     1
 11
7782.523544
 21
4786.151025
 31
0.0
  0
LINE
  8
SUNPOU
 10
7857.523544
 20
4360.401025
 30
0.0
 11
7857.523544
 21
4360.401025
 31
0.0
  0
LINE
  8
SUNPOU
 10
7737.523544
 20
4460.401025
 30
0.0
 11
7857.523544
 21
4460.401025
 31
0.0
  0
INSERT
  8
SUNPOU
  2
ARROWANG
 10
7827.523544
 20
4360.401025
 30
0.0
 41
30.0
 42
30.0
 50
90.0
 43
30.0
  0
INSERT
  8
SUNPOU
  2
ARROWANG
 10
7827.523544
 20
4460.401025
 30
0.0
 41
30.0
 42
30.0
 50
270.0
 43
30.0
  0
LINE
  8
SUNPOU
 10
7827.523544
 20
4460.401025
 30
0.0
 11
7827.523544
 21
4608.901025
 31
0.0
  0
LINE
  8
SUNPOU
 10
7827.523544
 20
4360.401025
 30
0.0
 11
7827.523545
 21
4300.401025
 31
0.0
  0
TEXT
  8
SUNPOU
 10
7782.523544
 20
4467.151025
 30
0.0
 40
45.0
  1
100
 50
90.0
  7
K
 72
     1
 11
7782.523544
 21
4534.651025
 31
0.0
  0
LINE
  8
JISSEN
 10
8912.523544
 20
4870.401025
 30
0.0
 11
8962.523544
 21
4870.401025
 31
0.0
  0
LINE
  8
JISSEN
 10
8962.523544
 20
4870.401025
 30
0.0
 11
8962.523544
 21
4850.401025
 31
0.0
  0
LINE
  8
JISSEN
 10
8962.523544
 20
4850.401025
 30
0.0
 11
8912.523544
 21
4850.401025
 31
0.0
  0
LINE
  8
JISSEN
 10
8912.523544
 20
4470.401025
 30
0.0
 11
8962.523544
 21
4470.401025
 31
0.0
  0
LINE
  8
JISSEN
 10
8962.523544
 20
4470.401025
 30
0.0
 11
8962.523544
 21
4450.401025
 31
0.0
  0
LINE
  8
JISSEN
 10
8962.523544
 20
4450.401025
 30
0.0
 11
8912.523544
 21
4450.401025
 31
0.0
  0
LINE
  8
TENSEN
 10
9662.523544
 20
4450.401025
 30
0.0
 11
9612.523544
 21
4450.401025
 31
0.0
  0
LINE
  8
TENSEN
 10
9612.523544
 20
4450.401025
 30
0.0
 11
9612.523544
 21
4470.401025
 31
0.0
  0
LINE
  8
TENSEN
 10
9612.523544
 20
4470.401025
 30
0.0
 11
9662.523544
 21
4470.401025
 31
0.0
  0
LINE
  8
TENSEN
 10
9662.523544
 20
4870.401025
 30
0.0
 11
9612.523544
 21
4870.401025
 31
0.0
  0
LINE
  8
TENSEN
 10
9612.523544
 20
4870.401025
 30
0.0
 11
9612.523544
 21
4850.401025
 31
0.0
  0
LINE
  8
TENSEN
 10
9612.523544
 20
4850.401025
 30
0.0
 11
9662.523544
 21
4850.401025
 31
0.0
  0
LINE
  8
ITTEN
 10
8862.523544
 20
4860.401025
 30
0.0
 11
9037.523544
 21
4860.401025
 31
0.0
  0
LINE
  8
ITTEN
 10
9712.523544
 20
4460.401025
 30
0.0
 11
9537.523544
 21
4460.401025
 31
0.0
  0
LINE
  8
ITTEN
 10
9537.523544
 20
4860.401025
 30
0.0
 11
9712.523544
 21
4860.401025
 31
0.0
  0
LINE
  8
ITTEN
 10
9037.523544
 20
4460.401025
 30
0.0
 11
8862.523544
 21
4460.401025
 31
0.0
  0
LINE
  8
ITTEN
 10
3837.523544
 20
4160.401025
 30
0.0
 11
3662.523544
 21
4160.401025
 31
0.0
  0
LINE
  8
ITTEN
 10
4337.523544
 20
4860.401025
 30
0.0
 11
4512.523544
 21
4860.401025
 31
0.0
  0
LINE
  8
ITTEN
 10
4512.523544
 20
4160.401025
 30
0.0
 11
4337.523544
 21
4160.401025
 31
0.0
  0
LINE
  8
ITTEN
 10
3662.523544
 20
4860.401025
 30
0.0
 11
3837.523544
 21
4860.401025
 31
0.0
  0
LINE
  8
TENSEN
 10
4412.523544
 20
4850.401025
 30
0.0
 11
4462.523544
 21
4850.401025
 31
0.0
  0
LINE
  8
TENSEN
 10
4412.523544
 20
4870.401025
 30
0.0
 11
4412.523544
 21
4850.401025
 31
0.0
  0
LINE
  8
TENSEN
 10
4462.523544
 20
4870.401025
 30
0.0
 11
4412.523544
 21
4870.401025
 31
0.0
  0
LINE
  8
TENSEN
 10
4412.523544
 20
4170.401025
 30
0.0
 11
4462.523544
 21
4170.401025
 31
0.0
  0
LINE
  8
TENSEN
 10
4412.523544
 20
4150.401025
 30
0.0
 11
4412.523544
 21
4170.401025
 31
0.0
  0
LINE
  8
TENSEN
 10
4462.523544
 20
4150.401025
 30
0.0
 11
4412.523544
 21
4150.401025
 31
0.0
  0
LINE
  8
JISSEN
 10
3762.523544
 20
4150.401025
 30
0.0
 11
3712.523544
 21
4150.401025
 31
0.0
  0
LINE
  8
JISSEN
 10
3762.523544
 20
4170.401025
 30
0.0
 11
3762.523544
 21
4150.401025
 31
0.0
  0
LINE
  8
JISSEN
 10
3712.523544
 20
4170.401025
 30
0.0
 11
3762.523544
 21
4170.401025
 31
0.0
  0
LINE
  8
JISSEN
 10
3762.523544
 20
4850.401025
 30
0.0
 11
3712.523544
 21
4850.401025
 31
0.0
  0
LINE
  8
JISSEN
 10
3762.523544
 20
4870.401025
 30
0.0
 11
3762.523544
 21
4850.401025
 31
0.0
  0
LINE
  8
JISSEN
 10
3712.523544
 20
4870.401025
 30
0.0
 11
3762.523544
 21
4870.401025
 31
0.0
  0
TEXT
  8
SUNPOU
 10
2582.523544
 20
4167.151025
 30
0.0
 40
45.0
  1
100
 50
90.0
  7
K
 72
     1
 11
2582.523544
 21
4234.651025
 31
0.0
  0
LINE
  8
SUNPOU
 10
2627.523544
 20
4060.401025
 30
0.0
 11
2627.523545
 21
4000.401025
 31
0.0
  0
LINE
  8
SUNPOU
 10
2627.523544
 20
4160.401025
 30
0.0
 11
2627.523544
 21
4308.901025
 31
0.0
  0
INSERT
  8
SUNPOU
  2
ARROWANG
 10
2627.523544
 20
4160.401025
 30
0.0
 41
30.0
 42
30.0
 50
270.0
 43
30.0
  0
INSERT
  8
SUNPOU
  2
ARROWANG
 10
2627.523544
 20
4060.401025
 30
0.0
 41
30.0
 42
30.0
 50
90.0
 43
30.0
  0
LINE
  8
SUNPOU
 10
2537.523544
 20
4160.401025
 30
0.0
 11
2657.523544
 21
4160.401025
 31
0.0
  0
LINE
  8
SUNPOU
 10
2657.523544
 20
4060.401025
 30
0.0
 11
2657.523544
 21
4060.401025
 31
0.0
  0
TEXT
  8
SUNPOU
 10
2582.523544
 20
4718.651025
 30
0.0
 40
45.0
  1
100
 50
90.0
  7
K
 72
     1
 11
2582.523544
 21
4786.151025
 31
0.0
  0
LINE
  8
SUNPOU
 10
2627.523544
 20
4960.401025
 30
0.0
 11
2627.523544
 21
5020.401025
 31
0.0
  0
LINE
  8
SUNPOU
 10
2627.523544
 20
4860.401025
 30
0.0
 11
2627.523544
 21
4711.901025
 31
0.0
  0
INSERT
  8
SUNPOU
  2
ARROWANG
 10
2627.523544
 20
4960.401025
 30
0.0
 41
30.0
 42
30.0
 50
270.0
 43
30.0
  0
INSERT
  8
SUNPOU
  2
ARROWANG
 10
2627.523544
 20
4860.401025
 30
0.0
 41
30.0
 42
30.0
 50
90.0
 43
30.0
  0
LINE
  8
SUNPOU
 10
2657.523544
 20
4960.401025
 30
0.0
 11
2657.523544
 21
4960.401025
 31
0.0
  0
LINE
  8
SUNPOU
 10
2537.523544
 20
4860.401025
 30
0.0
 11
2657.523544
 21
4860.401025
 31
0.0
  0
LINE
  8
ITTEN
 10
2507.523544
 20
4160.401025
 30
0.0
 11
2447.523544
 21
4160.401025
 31
0.0
  0
LINE
  8
ITTEN
 10
2477.523544
 20
4190.401025
 30
0.0
 11
2477.523544
 21
4130.401025
 31
0.0
  0
CIRCLE
  8
JISSEN
 10
2477.523544
 20
4160.401025
 30
0.0
 40
10.0
  0
LINE
  8
ITTEN
 10
2507.523544
 20
4860.401025
 30
0.0
 11
2447.523544
 21
4860.401025
 31
0.0
  0
LINE
  8
ITTEN
 10
2477.523544
 20
4890.401025
 30
0.0
 11
2477.523544
 21
4830.401025
 31
0.0
  0
CIRCLE
  8
JISSEN
 10
2477.523544
 20
4860.401025
 30
0.0
 40
10.0
  0
LINE
  8
TENSEN
 10
2487.523544
 20
3545.401025
 30
0.0
 11
2487.523544
 21
3505.401025
 31
0.0
  0
LINE
  8
TENSEN
 10
2467.523544
 20
3545.401025
 30
0.0
 11
2467.523544
 21
3505.401025
 31
0.0
  0
TEXT
  8
SUNPOU
 10
2196.635836
 20
3433.653782
 30
0.0
 40
45.0
  1
R60
 50
310.788871
  7
K
 72
     1
 11
2240.031865
 21
3383.359252
 31
0.0
  0
INSERT
  8
SUNPOU
  2
ARROWANG
 10
2124.958337
 20
3455.828343
 30
0.0
 41
30.0
 42
30.0
 50
130.788871
 43
30.0
  0
LINE
  8
SUNPOU
 10
2124.958337
 20
3455.828343
 30
0.0
 11
2255.923478
 21
3301.853713
 31
0.0
  0
LINE
  8
ITTEN
 10
2387.523544
 20
3000.932407
 30
0.0
 11
2387.523544
 21
2695.401025
 31
0.0
  0
POINT
  8
SUNPOU
 10
2294.817856
 20
2959.982127
 30
0.0
  0
TEXT
  8
SUNPOU
 10
2312.212211
 20
3019.7329
 30
0.0
 40
45.0
  1
R1800
 50
11.425132
  7
K
 72
     1
 11
2414.875397
 21
3063.43516
 31
0.0
 73
     2
  0
LINE
  8
SUNPOU
 10
2322.424258
 20
2998.841806
 30
0.0
 11
2522.507896
 21
3039.277084
 31
0.0
  0
LINE
  8
SUNPOU
 10
2293.018727
 20
2992.899187
 30
0.0
 11
2322.424258
 21
2998.841806
 31
0.0
  0
LINE
  8
SUNPOU
 10
2258.096219
 20
2984.904233
 30
0.0
 11
2293.384902
 21
2992.614741
 31
0.0
  0
LINE
  8
SUNPOU
 10
2300.150225
 20
3026.045366
 30
0.0
 11
2258.096219
 21
2984.904233
 31
0.0
  0
LINE
  8
SUNPOU
 10
2127.901632
 20
2990.569886
 30
0.0
 11
2300.150225
 21
3026.045366
 31
0.0
  0
INSERT
  8
SUNPOU
  2
ARROW
 10
2098.518343
 20
2984.518247
 30
0.0
 41
30.0
 42
30.0
 50
191.637634
 43
30.0
  0
TEXT
  8
SUNPOU
 10
2722.386226
 20
3238.74814
 30
0.0
 40
45.0
  1
R300
 50
27.064934
  7
K
 72
     1
 11
2800.62226
 21
3278.72314
 31
0.0
  0
INSERT
  8
SUNPOU
  2
ARROWANG
 10
2954.670975
 20
3306.901025
 30
0.0
 41
30.0
 42
30.0
 50
27.064934
 43
30.0
  0
LINE
  8
SUNPOU
 10
2954.670975
 20
3306.901025
 30
0.0
 11
2687.523544
 21
3170.401025
 31
0.0
  0
LINE
  8
SUNPOU
 10
2087.523544
 20
2846.084394
 30
0.0
 11
2087.523544
 21
2465.401025
 31
0.0
  0
TEXT
  8
SUNPOU
 10
2473.237844
 20
2690.401025
 30
0.0
 40
45.0
  1
300
  7
K
 72
     1
 11
2537.523559
 21
2690.401025
 31
0.0
  0
INSERT
  8
SUNPOU
  2
ARROWANG
 10
2687.523544
 20
2645.401025
 30
0.0
 41
30.0
 42
30.0
 43
30.0
  0
INSERT
  8
SUNPOU
  2
ARROWANG
 10
2387.523544
 20
2645.401025
 30
0.0
 41
30.0
 42
30.0
 50
180.0
 43
30.0
  0
LINE
  8
SUNPOU
 10
2387.523544
 20
2645.401025
 30
0.0
 11
2687.523544
 21
2645.401025
 31
0.0
  0
LINE
  8
SUNPOU
 10
2687.523544
 20
2615.401025
 30
0.0
 11
2687.523544
 21
2615.401025
 31
0.0
  0
LINE
  8
SUNPOU
 10
2387.523544
 20
2695.401025
 30
0.0
 11
2387.523544
 21
2615.401025
 31
0.0
  0
TEXT
  8
SUNPOU
 10
2322.166401
 20
2540.401025
 30
0.0
 40
45.0
  1
600
  7
K
 72
     1
 11
2387.523544
 21
2540.401025
 31
0.0
  0
INSERT
  8
SUNPOU
  2
ARROWANG
 10
2087.523544
 20
2495.401025
 30
0.0
 41
30.0
 42
30.0
 50
180.0
 43
30.0
  0
INSERT
  8
SUNPOU
  2
ARROWANG
 10
2687.523544
 20
2495.401025
 30
0.0
 41
30.0
 42
30.0
 43
30.0
  0
LINE
  8
SUNPOU
 10
2087.523544
 20
2495.401025
 30
0.0
 11
2687.523544
 21
2495.401025
 31
0.0
  0
LINE
  8
SUNPOU
 10
2687.523544
 20
2665.401025
 30
0.0
 11
2687.523544
 21
2465.401025
 31
0.0
  0
TEXT
  8
SUNPOU
 10
1817.523544
 20
3106.115311
 30
0.0
 40
45.0
  1
273
 50
90.0
  7
K
 72
     1
 11
1817.523544
 21
3170.401025
 31
0.0
  0
INSERT
  8
SUNPOU
  2
ARROWANG
 10
1862.523544
 20
3306.901025
 30
0.0
 41
30.0
 42
30.0
 50
90.0
 43
30.0
  0
INSERT
  8
SUNPOU
  2
ARROWANG
 10
1862.523544
 20
3033.901025
 30
0.0
 41
30.0
 42
30.0
 50
270.0
 43
30.0
  0
LINE
  8
SUNPOU
 10
1862.523544
 20
3033.901025
 30
0.0
 11
1862.523544
 21
3306.901025
 31
0.0
  0
LINE
  8
SUNPOU
 10
2062.706631
 20
3306.901025
 30
0.0
 11
1832.523544
 21
3306.901025
 31
0.0
  0
LINE
  8
SUNPOU
 10
2062.706631
 20
3033.901025
 30
0.0
 11
1832.523544
 21
3033.901025
 31
0.0
  0
ARC
  8
ITTEN
 10
2145.023544
 20
3076.401025
 30
0.0
 40
42.5
 50
270.0
 51
0.0
  0
ARC
  8
ITTEN
 10
2145.023544
 20
3264.401025
 30
0.0
 40
42.5
 50
0.0
 51
90.0
  0
LINE
  8
ITTEN
 10
2145.023544
 20
3033.901025
 30
0.0
 11
2092.706631
 21
3033.901025
 31
0.0
  0
LINE
  8
ITTEN
 10
2187.523544
 20
3264.401025
 30
0.0
 11
2187.523544
 21
3076.401025
 31
0.0
  0
LINE
  8
ITTEN
 10
2145.023544
 20
3306.901025
 30
0.0
 11
2092.706631
 21
3306.901025
 31
0.0
  0
ARC
  8
JISSEN
 10
2145.023544
 20
3076.401025
 30
0.0
 40
55.0
 50
270.0
 51
0.0
  0
ARC
  8
JISSEN
 10
2145.023544
 20
3264.401025
 30
0.0
 40
55.0
 50
0.0
 51
90.0
  0
ARC
  8
JISSEN
 10
2145.023544
 20
3076.401025
 30
0.0
 40
30.0
 50
270.0
 51
0.0
  0
ARC
  8
JISSEN
 10
2145.023544
 20
3264.401025
 30
0.0
 40
30.0
 50
0.0
 51
90.0
  0
LINE
  8
JISSEN
 10
2145.023544
 20
3319.401025
 30
0.0
 11
2093.701089
 21
3319.401025
 31
0.0
  0
LINE
  8
JISSEN
 10
2200.023544
 20
3076.401025
 30
0.0
 11
2200.023544
 21
3264.401025
 31
0.0
  0
LINE
  8
JISSEN
 10
2093.701089
 20
3021.401025
 30
0.0
 11
2145.023544
 21
3021.401025
 31
0.0
  0
LINE
  8
JISSEN
 10
2145.023544
 20
3046.401025
 30
0.0
 11
2091.799734
 21
3046.401025
 31
0.0
  0
LINE
  8
JISSEN
 10
2175.023544
 20
3264.401025
 30
0.0
 11
2175.023544
 21
3076.401025
 31
0.0
  0
LINE
  8
JISSEN
 10
2145.023544
 20
3294.401025
 30
0.0
 11
2091.799734
 21
3294.401025
 31
0.0
  0
LINE
  8
JISSEN
 10
2091.799734
 20
3294.401025
 30
0.0
 11
2091.799734
 21
3294.401025
 31
0.0
  0
LINE
  8
ITTEN
 10
1912.523544
 20
3170.401025
 30
0.0
 11
3162.523544
 21
3170.401025
 31
0.0
  0
LINE
  8
ITTEN
 10
2687.523544
 20
3645.401025
 30
0.0
 11
2687.523544
 21
2695.401025
 31
0.0
  0
LINE
  8
ITTEN
 10
2387.523544
 20
3645.401025
 30
0.0
 11
2387.523544
 21
3084.034174
 31
0.0
  0
ARC
  8
JISSEN
 10
2037.523544
 20
2820.401025
 30
0.0
 40
25.0
 50
180.0
 51
270.0
  0
ARC
  8
JISSEN
 10
2037.523544
 20
3520.401025
 30
0.0
 40
25.0
 50
90.0
 51
180.0
  0
LINE
  8
JISSEN
 10
2164.15475
 20
2835.401025
 30
0.0
 11
2687.523544
 21
2835.401025
 31
0.0
  0
LINE
  8
JISSEN
 10
2164.15475
 20
2870.401025
 30
0.0
 11
2687.523544
 21
2870.401025
 31
0.0
  0
ARC
  8
JISSEN
 10
3887.523544
 20
3170.401025
 30
0.0
 40
1835.0
 50
191.792017
 51
191.792017
  0
ARC
  8
JISSEN
 10
2164.15475
 20
2930.401025
 30
0.0
 40
95.0
 50
187.928142
 51
270.0
  0
ARC
  8
JISSEN
 10
2164.15475
 20
2930.401025
 30
0.0
 40
88.0
 50
187.928142
 51
270.0
  0
ARC
  8
JISSEN
 10
2164.15475
 20
2930.401025
 30
0.0
 40
60.0
 50
187.928142
 51
270.0
  0
LINE
  8
JISSEN
 10
2164.15475
 20
3505.401025
 30
0.0
 11
2687.523544
 21
3505.401025
 31
0.0
  0
LINE
  8
JISSEN
 10
2164.15475
 20
3498.401025
 30
0.0
 11
2687.523544
 21
3498.401025
 31
0.0
  0
ARC
  8
JISSEN
 10
3887.523544
 20
3170.401025
 30
0.0
 40
1835.0
 50
171.970527
 51
187.928142
  0
ARC
  8
JISSEN
 10
3887.523544
 20
3170.401025
 30
0.0
 40
1828.0
 50
171.976608
 51
187.928142
  0
ARC
  8
JISSEN
 10
3887.523544
 20
3170.401025
 30
0.0
 40
1800.0
 50
172.003017
 51
187.928142
  0
ARC
  8
JISSEN
 10
2164.15475
 20
3410.401025
 30
0.0
 40
95.0
 50
90.0
 51
172.071858
  0
ARC
  8
JISSEN
 10
2164.15475
 20
3410.401025
 30
0.0
 40
88.0
 50
90.0
 51
172.071858
  0
ARC
  8
JISSEN
 10
3887.523544
 20
3170.401025
 30
0.0
 40
1835.0
 50
168.162175
 51
168.207983
  0
ARC
  8
JISSEN
 10
3887.523544
 20
3170.401025
 30
0.0
 40
1828.0
 50
168.162175
 51
168.162175
  0
ARC
  8
JISSEN
 10
2164.15475
 20
3410.401025
 30
0.0
 40
60.0
 50
90.0
 51
180.0
  0
ARC
  8
JISSEN
 10
3887.523544
 20
3170.401025
 30
0.0
 40
1800.0
 50
167.975301
 51
167.975301
  0
LINE
  8
JISSEN
 10
2687.523544
 20
3470.401025
 30
0.0
 11
2164.15475
 21
3470.401025
 31
0.0
  0
LINE
  8
JISSEN
 10
2687.523544
 20
2842.401025
 30
0.0
 11
2164.15475
 21
2842.401025
 31
0.0
  0
LINE
  8
JISSEN
 10
2037.523544
 20
2795.401025
 30
0.0
 11
2687.523544
 21
2795.401025
 31
0.0
  0
LINE
  8
JISSEN
 10
2012.523544
 20
3520.401025
 30
0.0
 11
2012.523544
 21
2820.401025
 31
0.0
  0
LINE
  8
JISSEN
 10
2037.523544
 20
3545.401025
 30
0.0
 11
2687.523544
 21
3545.401025
 31
0.0
  0
ARC
  8
JISSEN
 10
2687.523544
 20
3170.401025
 30
0.0
 40
335.0
 50
270.0
 51
90.0
  0
ARC
  8
JISSEN
 10
2687.523544
 20
3170.401025
 30
0.0
 40
328.0
 50
270.0
 51
90.0
  0
ARC
  8
JISSEN
 10
2687.523544
 20
3170.401025
 30
0.0
 40
300.0
 50
270.0
 51
90.0
  0
ARC
  8
JISSEN
 10
2687.523544
 20
3170.401025
 30
0.0
 40
375.0
 50
270.0
 51
90.0
  0
ARC
  8
TENSEN
 10
4224.023544
 20
4795.401025
 30
0.0
 40
12.5
 50
270.0
 51
90.0
  0
ARC
  8
JISSEN
 10
3951.023544
 20
4795.401025
 30
0.0
 40
12.5
 50
90.0
 51
270.0
  0
LINE
  8
JISSEN
 10
3951.023544
 20
4807.901025
 30
0.0
 11
4087.523544
 21
4807.901025
 31
0.0
  0
LINE
  8
TENSEN
 10
4087.523544
 20
4807.901025
 30
0.0
 11
4224.023544
 21
4807.901025
 31
0.0
  0
LINE
  8
TENSEN
 10
4224.023544
 20
4782.901025
 30
0.0
 11
4087.523544
 21
4782.901025
 31
0.0
  0
LINE
  8
JISSEN
 10
4087.523544
 20
4782.901025
 30
0.0
 11
3951.023544
 21
4782.901025
 31
0.0
  0
LINE
  8
ITTEN
 10
3887.523544
 20
4795.401025
 30
0.0
 11
4287.523544
 21
4795.401025
 31
0.0
  0
LINE
  8
ITTEN
 10
4087.523544
 20
5060.401025
 30
0.0
 11
4087.523544
 21
3960.401025
 31
0.0
  0
TEXT
  8
SUNPOU
 10
4022.166416
 20
5155.401025
 30
0.0
 40
45.0
  1
600
  7
K
 72
     1
 11
4087.523559
 21
5155.401025
 31
0.0
  0
INSERT
  8
SUNPOU
  2
ARROWANG
 10
4387.523544
 20
5110.401025
 30
0.0
 41
30.0
 42
30.0
 43
30.0
  0
INSERT
  8
SUNPOU
  2
ARROWANG
 10
3787.523544
 20
5110.401025
 30
0.0
 41
30.0
 42
30.0
 50
180.0
 43
30.0
  0
LINE
  8
SUNPOU
 10
3787.523544
 20
5110.401025
 30
0.0
 11
4387.523544
 21
5110.401025
 31
0.0
  0
LINE
  8
SUNPOU
 10
4387.523544
 20
5080.401025
 30
0.0
 11
4387.523544
 21
5080.401025
 31
0.0
  0
LINE
  8
SUNPOU
 10
3787.523544
 20
5080.401025
 30
0.0
 11
3787.523544
 21
5080.401025
 31
0.0
  0
LINE
  8
SUNPOU
 10
4387.523544
 20
5110.401025
 30
0.0
 11
4327.523544
 21
5110.401025
 31
0.0
  0
LINE
  8
SUNPOU
 10
4462.523544
 20
5110.401025
 30
0.0
 11
4522.523544
 21
5110.401025
 31
0.0
  0
TEXT
  8
SUNPOU
 10
4382.166416
 20
5155.401025
 30
0.0
 40
45.0
  1
75
  7
K
 72
     1
 11
4425.023559
 21
5155.401025
 31
0.0
  0
INSERT
  8
SUNPOU
  2
ARROWANG
 10
4387.523544
 20
5110.401025
 30
0.0
 41
30.0
 42
30.0
 43
30.0
  0
INSERT
  8
SUNPOU
  2
ARROWANG
 10
4462.523544
 20
5110.401025
 30
0.0
 41
30.0
 42
30.0
 50
180.0
 43
30.0
  0
LINE
  8
SUNPOU
 10
4387.523544
 20
5110.401025
 30
0.0
 11
4462.523544
 21
5110.401025
 31
0.0
  0
LINE
  8
SUNPOU
 10
4462.523544
 20
5140.401025
 30
0.0
 11
4462.523544
 21
5140.401025
 31
0.0
  0
LINE
  8
SUNPOU
 10
4387.523544
 20
4967.401025
 30
0.0
 11
4387.523544
 21
5140.401025
 31
0.0
  0
LINE
  8
SUNPOU
 10
3712.523544
 20
5110.401025
 30
0.0
 11
3652.523544
 21
5110.401025
 31
0.0
  0
LINE
  8
SUNPOU
 10
3787.523544
 20
5110.401025
 30
0.0
 11
3847.523544
 21
5110.401025
 31
0.0
  0
TEXT
  8
SUNPOU
 10
3707.166416
 20
5155.401025
 30
0.0
 40
45.0
  1
75
  7
K
 72
     1
 11
3750.023559
 21
5155.401025
 31
0.0
  0
INSERT
  8
SUNPOU
  2
ARROWANG
 10
3712.523544
 20
5110.401025
 30
0.0
 41
30.0
 42
30.0
 43
30.0
  0
INSERT
  8
SUNPOU
  2
ARROWANG
 10
3787.523544
 20
5110.401025
 30
0.0
 41
30.0
 42
30.0
 50
180.0
 43
30.0
  0
LINE
  8
SUNPOU
 10
3712.523544
 20
5110.401025
 30
0.0
 11
3787.523544
 21
5110.401025
 31
0.0
  0
LINE
  8
SUNPOU
 10
3787.523544
 20
4967.401025
 30
0.0
 11
3787.523544
 21
5140.401025
 31
0.0
  0
LINE
  8
SUNPOU
 10
3712.523544
 20
5140.401025
 30
0.0
 11
3712.523544
 21
5140.401025
 31
0.0
  0
TEXT
  8
SUNPOU
 10
4023.23783
 20
5305.401025
 30
0.0
 40
45.0
  1
750
  7
K
 72
     1
 11
4087.523544
 21
5305.401025
 31
0.0
  0
INSERT
  8
SUNPOU
  2
ARROWANG
 10
3712.523544
 20
5260.401025
 30
0.0
 41
30.0
 42
30.0
 50
180.0
 43
30.0
  0
INSERT
  8
SUNPOU
  2
ARROWANG
 10
4462.523544
 20
5260.401025
 30
0.0
 41
30.0
 42
30.0
 43
30.0
  0
LINE
  8
SUNPOU
 10
3712.523544
 20
5260.401025
 30
0.0
 11
4462.523544
 21
5260.401025
 31
0.0
  0
LINE
  8
SUNPOU
 10
4462.523544
 20
4990.401025
 30
0.0
 11
4462.523544
 21
5290.401025
 31
0.0
  0
LINE
  8
SUNPOU
 10
3712.523544
 20
4990.401025
 30
0.0
 11
3712.523544
 21
5290.401025
 31
0.0
  0
LINE
  8
JISSEN
 10
3712.523544
 20
4960.401025
 30
0.0
 11
3752.523544
 21
4960.401025
 31
0.0
  0
LINE
  8
JISSEN
 10
3752.523544
 20
4960.401025
 30
0.0
 11
3759.523544
 21
4937.401025
 31
0.0
  0
LINE
  8
JISSEN
 10
3759.523544
 20
4937.401025
 30
0.0
 11
3787.523544
 21
4937.401025
 31
0.0
  0
LINE
  8
JISSEN
 10
3712.523544
 20
4960.401025
 30
0.0
 11
3712.523544
 21
4060.401025
 31
0.0
  0
LINE
  8
JISSEN
 10
3712.523544
 20
4060.401025
 30
0.0
 11
3753.523544
 21
4060.401025
 31
0.0
  0
LINE
  8
JISSEN
 10
3753.523544
 20
4060.401025
 30
0.0
 11
3762.523544
 21
4045.401025
 31
0.0
  0
LINE
  8
JISSEN
 10
3762.523544
 20
4045.401025
 30
0.0
 11
3787.523544
 21
4045.401025
 31
0.0
  0
LINE
  8
JISSEN
 10
3787.523544
 20
4937.401025
 30
0.0
 11
3787.523544
 21
4045.401025
 31
0.0
  0
LINE
  8
TENSEN
 10
4387.523544
 20
4937.401025
 30
0.0
 11
4387.523544
 21
4045.401025
 31
0.0
  0
LINE
  8
JISSEN
 10
4412.523544
 20
4045.401025
 30
0.0
 11
4387.523544
 21
4045.401025
 31
0.0
  0
LINE
  8
JISSEN
 10
4421.523544
 20
4060.401025
 30
0.0
 11
4412.523544
 21
4045.401025
 31
0.0
  0
LINE
  8
JISSEN
 10
4462.523544
 20
4060.401025
 30
0.0
 11
4421.523544
 21
4060.401025
 31
0.0
  0
LINE
  8
JISSEN
 10
4462.523544
 20
4960.401025
 30
0.0
 11
4462.523544
 21
4060.401025
 31
0.0
  0
LINE
  8
TENSEN
 10
4415.523544
 20
4937.401025
 30
0.0
 11
4387.523544
 21
4937.401025
 31
0.0
  0
LINE
  8
TENSEN
 10
4422.523544
 20
4960.401025
 30
0.0
 11
4415.523544
 21
4937.401025
 31
0.0
  0
LINE
  8
JISSEN
 10
4462.523544
 20
4960.401025
 30
0.0
 11
4422.523544
 21
4960.401025
 31
0.0
  0
LINE
  8
JISSEN
 10
3753.523544
 20
4960.401025
 30
0.0
 11
4422.523544
 21
4960.401025
 31
0.0
  0
LINE
  8
JISSEN
 10
3787.523544
 20
4937.401025
 30
0.0
 11
4087.523544
 21
4937.401025
 31
0.0
  0
LINE
  8
TENSEN
 10
4087.523544
 20
4937.401025
 30
0.0
 11
4387.523544
 21
4937.401025
 31
0.0
  0
LINE
  8
JISSEN
 10
3787.523544
 20
4045.401025
 30
0.0
 11
4387.523544
 21
4045.401025
 31
0.0
  0
LINE
  8
TENSEN
 10
3753.523544
 20
4060.401025
 30
0.0
 11
4087.523544
 21
4060.401025
 31
0.0
  0
LINE
  8
JISSEN
 10
4087.523544
 20
4060.401025
 30
0.0
 11
4421.523544
 21
4060.401025
 31
0.0
  0
LINE
  8
SUNPOU
 10
3907.523544
 20
4045.401025
 30
0.0
 11
3907.523544
 21
4045.401025
 31
0.0
  0
LINE
  8
SUNPOU
 10
4067.523544
 20
4045.401025
 30
0.0
 11
4082.603349
 21
4045.401025
 31
0.0
  0
LINE
  8
SUNPOU
 10
4067.523544
 20
4937.401025
 30
0.0
 11
4082.603349
 21
4937.401025
 31
0.0
  0
TEXT
  8
SUNPOU
 10
2307.603349
 20
4430.024493
 30
0.0
 40
45.0
  1
892
 50
90.0
  7
K
 72
     1
 11
2307.603349
 21
4494.310207
 31
0.0
  0
INSERT
  8
SUNPOU
  2
ARROWANG
 10
2352.603349
 20
4937.401025
 30
0.0
 41
30.0
 42
30.0
 50
90.0
 43
30.0
  0
INSERT
  8
SUNPOU
  2
ARROWANG
 10
2352.603349
 20
4045.401025
 30
0.0
 41
30.0
 42
30.0
 50
270.0
 43
30.0
  0
LINE
  8
SUNPOU
 10
2352.603349
 20
4045.401025
 30
0.0
 11
2352.603349
 21
4937.401025
 31
0.0
  0
LINE
  8
SUNPOU
 10
2367.523544
 20
4937.401025
 30
0.0
 11
2382.603349
 21
4937.401025
 31
0.0
  0
LINE
  8
SUNPOU
 10
2367.523544
 20
4045.401025
 30
0.0
 11
2382.603349
 21
4045.401025
 31
0.0
  0
LINE
  8
SUNPOU
 10
2207.523544
 20
4045.401025
 30
0.0
 11
2207.523544
 21
4045.401025
 31
0.0
  0
LINE
  8
SUNPOU
 10
2267.523544
 20
4495.401025
 30
0.0
 11
2267.523544
 21
4495.401025
 31
0.0
  0
LINE
  8
SUNPOU
 10
2267.523544
 20
4195.401025
 30
0.0
 11
2267.523544
 21
4195.401025
 31
0.0
  0
LINE
  8
SUNPOU
 10
2267.523544
 20
4795.401025
 30
0.0
 11
2267.523544
 21
4795.401025
 31
0.0
  0
LINE
  8
SUNPOU
 10
2267.523544
 20
4495.401025
 30
0.0
 11
2267.523544
 21
4495.401025
 31
0.0
  0
ARC
  8
JISSEN
 10
2187.523544
 20
4795.401025
 30
0.0
 40
12.5
 50
270.0
 51
90.0
  0
LINE
  8
JISSEN
 10
2087.523544
 20
4807.901025
 30
0.0
 11
2187.523544
 21
4807.901025
 31
0.0
  0
LINE
  8
JISSEN
 10
2187.523544
 20
4782.901025
 30
0.0
 11
2087.523544
 21
4782.901025
 31
0.0
  0
LINE
  8
ITTEN
 10
1987.523544
 20
4795.401025
 30
0.0
 11
2287.523544
 21
4795.401025
 31
0.0
  0
TEXT
  8
SUNPOU
 10
1867.523544
 20
4063.829597
 30
0.0
 40
45.0
  1
15
 50
90.0
  7
K
 72
     1
 11
1867.523544
 21
4109.901025
 31
0.0
  0
LINE
  8
SUNPOU
 10
1912.523544
 20
4045.401025
 30
0.0
 11
1912.523545
 21
3985.401025
 31
0.0
  0
LINE
  8
SUNPOU
 10
1912.523544
 20
4060.401025
 30
0.0
 11
1912.523544
 21
4159.401025
 31
0.0
  0
INSERT
  8
SUNPOU
  2
ARROWANG
 10
1912.523544
 20
4060.401025
 30
0.0
 41
30.0
 42
30.0
 50
270.0
 43
30.0
  0
INSERT
  8
SUNPOU
  2
ARROWANG
 10
1912.523544
 20
4045.401025
 30
0.0
 41
30.0
 42
30.0
 50
90.0
 43
30.0
  0
LINE
  8
SUNPOU
 10
1942.523544
 20
4060.401025
 30
0.0
 11
1942.523544
 21
4060.401025
 31
0.0
  0
LINE
  8
SUNPOU
 10
2032.523544
 20
4045.401025
 30
0.0
 11
1882.523544
 21
4045.401025
 31
0.0
  0
TEXT
  8
SUNPOU
 10
1867.523544
 20
4845.043883
 30
0.0
 40
45.0
  1
23
 50
90.0
  7
K
 72
     1
 11
1867.523544
 21
4887.901025
 31
0.0
  0
LINE
  8
SUNPOU
 10
1912.523544
 20
4960.401025
 30
0.0
 11
1912.523544
 21
5020.401025
 31
0.0
  0
LINE
  8
SUNPOU
 10
1912.523544
 20
4937.401025
 30
0.0
 11
1912.523544
 21
4838.401025
 31
0.0
  0
INSERT
  8
SUNPOU
  2
ARROWANG
 10
1912.523544
 20
4960.401025
 30
0.0
 41
30.0
 42
30.0
 50
270.0
 43
30.0
  0
INSERT
  8
SUNPOU
  2
ARROWANG
 10
1912.523544
 20
4937.401025
 30
0.0
 41
30.0
 42
30.0
 50
90.0
 43
30.0
  0
LINE
  8
SUNPOU
 10
1942.523544
 20
4960.401025
 30
0.0
 11
1942.523544
 21
4960.401025
 31
0.0
  0
LINE
  8
SUNPOU
 10
2029.523544
 20
4937.401025
 30
0.0
 11
1882.523544
 21
4937.401025
 31
0.0
  0
TEXT
  8
SUNPOU
 10
1717.523544
 20
4446.115311
 30
0.0
 40
45.0
  1
900
 50
90.0
  7
K
 72
     1
 11
1717.523544
 21
4510.401025
 31
0.0
  0
INSERT
  8
SUNPOU
  2
ARROWANG
 10
1762.523544
 20
4960.401025
 30
0.0
 41
30.0
 42
30.0
 50
90.0
 43
30.0
  0
INSERT
  8
SUNPOU
  2
ARROWANG
 10
1762.523544
 20
4060.401025
 30
0.0
 41
30.0
 42
30.0
 50
270.0
 43
30.0
  0
LINE
  8
SUNPOU
 10
1762.523544
 20
4060.401025
 30
0.0
 11
1762.523544
 21
4960.401025
 31
0.0
  0
LINE
  8
SUNPOU
 10
1982.523544
 20
4960.401025
 30
0.0
 11
1732.523544
 21
4960.401025
 31
0.0
  0
LINE
  8
SUNPOU
 10
1982.523544
 20
4060.401025
 30
0.0
 11
1732.523544
 21
4060.401025
 31
0.0
  0
TEXT
  8
SUNPOU
 10
2622.166416
 20
5155.401025
 30
0.0
 40
45.0
  1
600
  7
K
 72
     1
 11
2687.523559
 21
5155.401025
 31
0.0
  0
INSERT
  8
SUNPOU
  2
ARROWANG
 10
2987.523544
 20
5110.401025
 30
0.0
 41
30.0
 42
30.0
 43
30.0
  0
INSERT
  8
SUNPOU
  2
ARROWANG
 10
2387.523544
 20
5110.401025
 30
0.0
 41
30.0
 42
30.0
 50
180.0
 43
30.0
  0
LINE
  8
SUNPOU
 10
2387.523544
 20
5110.401025
 30
0.0
 11
2987.523544
 21
5110.401025
 31
0.0
  0
LINE
  8
SUNPOU
 10
2987.523544
 20
5080.401025
 30
0.0
 11
2987.523544
 21
5080.401025
 31
0.0
  0
LINE
  8
SUNPOU
 10
2387.523544
 20
5080.401025
 30
0.0
 11
2387.523544
 21
5080.401025
 31
0.0
  0
TEXT
  8
SUNPOU
 10
2173.23783
 20
5155.401025
 30
0.0
 40
45.0
  1
300
  7
K
 72
     1
 11
2237.523544
 21
5155.401025
 31
0.0
  0
INSERT
  8
SUNPOU
  2
ARROWANG
 10
2087.523544
 20
5110.401025
 30
0.0
 41
30.0
 42
30.0
 50
180.0
 43
30.0
  0
INSERT
  8
SUNPOU
  2
ARROWANG
 10
2387.523544
 20
5110.401025
 30
0.0
 41
30.0
 42
30.0
 43
30.0
  0
LINE
  8
SUNPOU
 10
2087.523544
 20
5110.401025
 30
0.0
 11
2387.523544
 21
5110.401025
 31
0.0
  0
LINE
  8
SUNPOU
 10
2387.523544
 20
4990.401025
 30
0.0
 11
2387.523544
 21
5140.401025
 31
0.0
  0
LINE
  8
SUNPOU
 10
2087.523544
 20
5140.401025
 30
0.0
 11
2087.523544
 21
5140.401025
 31
0.0
  0
TEXT
  8
SUNPOU
 10
2473.237844
 20
5305.401025
 30
0.0
 40
45.0
  1
900
  7
K
 72
     1
 11
2537.523559
 21
5305.401025
 31
0.0
  0
INSERT
  8
SUNPOU
  2
ARROWANG
 10
2987.523544
 20
5260.401025
 30
0.0
 41
30.0
 42
30.0
 43
30.0
  0
INSERT
  8
SUNPOU
  2
ARROWANG
 10
2087.523544
 20
5260.401025
 30
0.0
 41
30.0
 42
30.0
 50
180.0
 43
30.0
  0
LINE
  8
SUNPOU
 10
2087.523544
 20
5260.401025
 30
0.0
 11
2987.523544
 21
5260.401025
 31
0.0
  0
LINE
  8
SUNPOU
 10
2987.523544
 20
5230.401025
 30
0.0
 11
2987.523544
 21
5230.401025
 31
0.0
  0
LINE
  8
SUNPOU
 10
2087.523544
 20
5230.401025
 30
0.0
 11
2087.523544
 21
5230.401025
 31
0.0
  0
LINE
  8
SUNPOU
 10
2987.523544
 20
5260.401025
 30
0.0
 11
2927.523544
 21
5260.401025
 31
0.0
  0
LINE
  8
SUNPOU
 10
3062.523544
 20
5260.401025
 30
0.0
 11
3122.523544
 21
5260.401025
 31
0.0
  0
TEXT
  8
SUNPOU
 10
2982.166401
 20
5305.401025
 30
0.0
 40
45.0
  1
75
  7
K
 72
     1
 11
3025.023544
 21
5305.401025
 31
0.0
  0
INSERT
  8
SUNPOU
  2
ARROWANG
 10
2987.523544
 20
5260.401025
 30
0.0
 41
30.0
 42
30.0
 43
30.0
  0
INSERT
  8
SUNPOU
  2
ARROWANG
 10
3062.523544
 20
5260.401025
 30
0.0
 41
30.0
 42
30.0
 50
180.0
 43
30.0
  0
LINE
  8
SUNPOU
 10
2987.523544
 20
5260.401025
 30
0.0
 11
3062.523544
 21
5260.401025
 31
0.0
  0
LINE
  8
SUNPOU
 10
3062.523544
 20
5290.401025
 30
0.0
 11
3062.523544
 21
5290.401025
 31
0.0
  0
LINE
  8
SUNPOU
 10
2987.523544
 20
4967.401025
 30
0.0
 11
2987.523544
 21
5290.401025
 31
0.0
  0
LINE
  8
SUNPOU
 10
2012.523544
 20
5260.401025
 30
0.0
 11
1952.523544
 21
5260.401025
 31
0.0
  0
LINE
  8
SUNPOU
 10
2087.523544
 20
5260.401025
 30
0.0
 11
2147.523544
 21
5260.401025
 31
0.0
  0
TEXT
  8
SUNPOU
 10
2007.166416
 20
5305.401025
 30
0.0
 40
45.0
  1
75
  7
K
 72
     1
 11
2050.023559
 21
5305.401025
 31
0.0
  0
INSERT
  8
SUNPOU
  2
ARROWANG
 10
2012.523544
 20
5260.401025
 30
0.0
 41
30.0
 42
30.0
 43
30.0
  0
INSERT
  8
SUNPOU
  2
ARROWANG
 10
2087.523544
 20
5260.401025
 30
0.0
 41
30.0
 42
30.0
 50
180.0
 43
30.0
  0
LINE
  8
SUNPOU
 10
2012.523544
 20
5260.401025
 30
0.0
 11
2087.523544
 21
5260.401025
 31
0.0
  0
LINE
  8
SUNPOU
 10
2087.523544
 20
4967.401025
 30
0.0
 11
2087.523544
 21
5290.401025
 31
0.0
  0
LINE
  8
SUNPOU
 10
2012.523544
 20
5290.401025
 30
0.0
 11
2012.523544
 21
5290.401025
 31
0.0
  0
TEXT
  8
SUNPOU
 10
2448.594972
 20
5455.401025
 30
0.0
 40
45.0
  1
1050
  7
K
 72
     1
 11
2537.523544
 21
5455.401025
 31
0.0
  0
INSERT
  8
SUNPOU
  2
ARROWANG
 10
2012.523544
 20
5410.401025
 30
0.0
 41
30.0
 42
30.0
 50
180.0
 43
30.0
  0
INSERT
  8
SUNPOU
  2
ARROWANG
 10
3062.523544
 20
5410.401025
 30
0.0
 41
30.0
 42
30.0
 43
30.0
  0
LINE
  8
SUNPOU
 10
2012.523544
 20
5410.401025
 30
0.0
 11
3062.523544
 21
5410.401025
 31
0.0
  0
LINE
  8
SUNPOU
 10
3062.523544
 20
4990.401025
 30
0.0
 11
3062.523544
 21
5440.401025
 31
0.0
  0
LINE
  8
SUNPOU
 10
2012.523544
 20
4990.401025
 30
0.0
 11
2012.523544
 21
5440.401025
 31
0.0
  0
LINE
  8
ITTEN
 10
2387.523544
 20
5060.401025
 30
0.0
 11
2387.523544
 21
3960.401025
 31
0.0
  0
LINE
  8
JISSEN
 10
2387.523544
 20
4060.401025
 30
0.0
 11
3021.523544
 21
4060.401025
 31
0.0
  0
LINE
  8
TENSEN
 10
2053.523544
 20
4060.401025
 30
0.0
 11
2387.523544
 21
4060.401025
 31
0.0
  0
LINE
  8
JISSEN
 10
2087.523544
 20
4045.401025
 30
0.0
 11
2987.523544
 21
4045.401025
 31
0.0
  0
LINE
  8
TENSEN
 10
2387.523544
 20
4937.401025
 30
0.0
 11
2987.523544
 21
4937.401025
 31
0.0
  0
LINE
  8
JISSEN
 10
2087.523544
 20
4937.401025
 30
0.0
 11
2387.523544
 21
4937.401025
 31
0.0
  0
LINE
  8
JISSEN
 10
2053.523544
 20
4960.401025
 30
0.0
 11
3022.523544
 21
4960.401025
 31
0.0
  0
LINE
  8
JISSEN
 10
3062.523544
 20
4960.401025
 30
0.0
 11
3022.523544
 21
4960.401025
 31
0.0
  0
LINE
  8
TENSEN
 10
3022.523544
 20
4960.401025
 30
0.0
 11
3015.523544
 21
4937.401025
 31
0.0
  0
LINE
  8
TENSEN
 10
3015.523544
 20
4937.401025
 30
0.0
 11
2987.523544
 21
4937.401025
 31
0.0
  0
LINE
  8
JISSEN
 10
3062.523544
 20
4960.401025
 30
0.0
 11
3062.523544
 21
4060.401025
 31
0.0
  0
LINE
  8
JISSEN
 10
3062.523544
 20
4060.401025
 30
0.0
 11
3021.523544
 21
4060.401025
 31
0.0
  0
LINE
  8
JISSEN
 10
3021.523544
 20
4060.401025
 30
0.0
 11
3012.523544
 21
4045.401025
 31
0.0
  0
LINE
  8
JISSEN
 10
3012.523544
 20
4045.401025
 30
0.0
 11
2987.523544
 21
4045.401025
 31
0.0
  0
LINE
  8
TENSEN
 10
2987.523544
 20
4937.401025
 30
0.0
 11
2987.523544
 21
4045.401025
 31
0.0
  0
LINE
  8
JISSEN
 10
2087.523544
 20
4937.401025
 30
0.0
 11
2087.523544
 21
4045.401025
 31
0.0
  0
LINE
  8
JISSEN
 10
2062.523544
 20
4045.401025
 30
0.0
 11
2087.523544
 21
4045.401025
 31
0.0
  0
LINE
  8
JISSEN
 10
2053.523544
 20
4060.401025
 30
0.0
 11
2062.523544
 21
4045.401025
 31
0.0
  0
LINE
  8
JISSEN
 10
2012.523544
 20
4060.401025
 30
0.0
 11
2053.523544
 21
4060.401025
 31
0.0
  0
LINE
  8
JISSEN
 10
2012.523544
 20
4960.401025
 30
0.0
 11
2012.523544
 21
4060.401025
 31
0.0
  0
LINE
  8
JISSEN
 10
2059.523544
 20
4937.401025
 30
0.0
 11
2087.523544
 21
4937.401025
 31
0.0
  0
LINE
  8
JISSEN
 10
2052.523544
 20
4960.401025
 30
0.0
 11
2059.523544
 21
4937.401025
 31
0.0
  0
LINE
  8
JISSEN
 10
2012.523544
 20
4960.401025
 30
0.0
 11
2052.523544
 21
4960.401025
 31
0.0
  0
LINE
  8
TENSEN
 10
2467.523544
 20
2835.401025
 30
0.0
 11
2467.523544
 21
2795.401025
 31
0.0
  0
LINE
  8
TENSEN
 10
2487.523544
 20
2795.401025
 30
0.0
 11
2487.523544
 21
2835.401025
 31
0.0
  0
LINE
  8
SAISEN
 10
2012.523544
 20
4520.401025
 30
0.0
 11
2087.523544
 21
4520.401025
 31
0.0
  0
LINE
  8
SAISEN
 10
2012.523544
 20
4200.401025
 30
0.0
 11
2087.523544
 21
4200.401025
 31
0.0
  0
ARC
  8
SAISEN
 10
4087.523544
 20
4360.401025
 30
0.0
 40
160.0
 50
90.0
 51
270.0
  0
ARC
  8
TENSEN
 10
4087.523544
 20
4360.401025
 30
0.0
 40
160.0
 50
270.0
 51
90.0
  0
LINE
  8
SAISEN
 10
7212.523544
 20
4820.401025
 30
0.0
 11
7287.523544
 21
4820.401025
 31
0.0
  0
LINE
  8
SAISEN
 10
7212.523544
 20
4500.401025
 30
0.0
 11
7287.523544
 21
4500.401025
 31
0.0
  0
ARC
  8
SAISEN
 10
9287.523544
 20
4660.401025
 30
0.0
 40
160.0
 50
90.0
 51
270.0
  0
ARC
  8
TENSEN
 10
9287.523544
 20
4660.401025
 30
0.0
 40
160.0
 50
270.0
 51
90.0
  0
LINE
  8
TENSEN
 10
2094.648757
 20
3330.401025
 30
0.0
 11
2012.523544
 21
3330.401025
 31
0.0
  0
LINE
  8
TENSEN
 10
2094.648757
 20
3010.401025
 30
0.0
 11
2012.523544
 21
3010.401025
 31
0.0
  0
INSERT
  8
HATCH
  2
*X2
 10
0.0
 20
0.0
 30
0.0
  0
INSERT
  8
HATCH
  2
*X3
 10
0.0
 20
0.0
 30
0.0
  0
INSERT
  8
HATCH
  2
STDGX5
 10
0.0
 20
0.0
 30
0.0
  0
LINE
  8
ITTEN
 10
2477.523544
 20
3565.401025
 30
0.0
 11
2477.523544
 21
3485.401025
 31
0.0
  0
LINE
  8
ITTEN
 10
2477.523544
 20
2855.401025
 30
0.0
 11
2477.523544
 21
2775.401025
 31
0.0
  0
TEXT
  8
TEXT
 10
5435.826694
 20
6065.269197
 30
0.0
 40
240.0
  1
管取付壁
  7
K
  0
TEXT
  8
TEXT
 10
2673.921084
 20
5632.964568
 30
0.0
 40
150.0
  1
MA1B90
  7
K
  0
TEXT
  8
TEXT
 10
7873.268111
 20
5632.964568
 30
0.0
 40
150.0
  1
MA1B60
  7
K
  0
TEXT
  8
JISSEN
 10
2491.83109
 20
7648.329222
 30
0.0
 40
300.0
  1
組立マンホール構造図
  7
K
  0
TEXT
  8
TEXT
 10
6496.676547
 20
7671.224245
 30
0.0
 40
240.0
  1
( 600 x 900 方円形 )
  7
K
  0
POLYLINE
  8
WAKU
 66
     1
 10
0.0
 20
0.0
 30
0.0
 70
     1
  0
VERTEX
  8
WAKU
 10
0.0
 20
0.0
 30
0.0
  0
VERTEX
  8
WAKU
 10
11850.0
 20
0.0
 30
0.0
  0
VERTEX
  8
WAKU
 10
11850.0
 20
8190.0
 30
0.0
  0
VERTEX
  8
WAKU
 10
0.0
 20
8190.0
 30
0.0
  0
SEQEND
  8
WAKU
  0
TEXT
  8
TEXT
 10
10937.448751
 20
782.05814
 30
0.0
 40
150.0
  1
1/30
  7
K
  0
ENDSEC
  0
EOF
