  0
SECTION
  2
HEADER
  9
$ACADVER
  1
AC1009
  9
$INSBASE
 10
0.0
 20
0.0
 30
0.0
  9
$EXTMIN
 10
0.0
 20
0.0
 30
0.0
  9
$EXTMAX
 10
24000.0
 20
16800.0
 30
0.0
  9
$LIMMIN
 10
0.0
 20
0.0
  9
$LIMMAX
 10
11850.0
 20
8190.0
  9
$ORTHOMODE
 70
     0
  9
$REGENMODE
 70
     1
  9
$FILLMODE
 70
     1
  9
$QTEXTMODE
 70
     0
  9
$MIRRTEXT
 70
     0
  9
$DRAGMODE
 70
     2
  9
$LTSCALE
 40
150.0
  9
$OSMODE
 70
   289
  9
$ATTMODE
 70
     1
  9
$TEXTSIZE
 40
60.0
  9
$TRACEWID
 40
0.05
  9
$TEXTSTYLE
  7
K
  9
$CLAYER
  8
JISSEN
  9
$CELTYPE
  6
BYLAYER
  9
$CECOLOR
 62
   256
  9
$DIMSCALE
 40
30.0
  9
$DIMASZ
 40
1.5
  9
$DIMEXO
 40
1.0
  9
$DIMDLI
 40
6.0
  9
$DIMRND
 40
0.0
  9
$DIMDLE
 40
0.0
  9
$DIMEXE
 40
1.0
  9
$DIMTP
 40
495.0
  9
$DIMTM
 40
0.0
  9
$DIMTXT
 40
3.0
  9
$DIMCEN
 40
0.0
  9
$DIMTSZ
 40
0.0
  9
$DIMTOL
 70
     0
  9
$DIMLIM
 70
     0
  9
$DIMTIH
 70
     0
  9
$DIMTOH
 70
     0
  9
$DIMSE1
 70
     0
  9
$DIMSE2
 70
     0
  9
$DIMTAD
 70
     1
  9
$DIMZIN
 70
     8
  9
$DIMBLK
  1
ARROW
  9
$DIMASO
 70
     0
  9
$DIMSHO
 70
     0
  9
$DIMPOST
  1

  9
$DIMAPOST
  1

  9
$DIMALT
 70
     0
  9
$DIMALTD
 70
     2
  9
$DIMALTF
 40
25.4
  9
$DIMLFAC
 40
1.0
  9
$DIMTOFL
 70
     1
  9
$DIMTVP
 40
0.0
  9
$DIMTIX
 70
     1
  9
$DIMSOXD
 70
     0
  9
$DIMSAH
 70
     0
  9
$DIMBLK1
  1

  9
$DIMBLK2
  1

  9
$DIMSTYLE
  2
*UNNAMED
  9
$DIMCLRD
 70
     0
  9
$DIMCLRE
 70
     0
  9
$DIMCLRT
 70
     0
  9
$DIMTFAC
 40
1.0
  9
$DIMGAP
 40
0.09
  9
$LUNITS
 70
     2
  9
$LUPREC
 70
     2
  9
$AXISMODE
 70
     0
  9
$AXISUNIT
 10
100.0
 20
100.0
  9
$SKETCHINC
 40
0.1
  9
$FILLETRAD
 40
37.5
  9
$AUNITS
 70
     0
  9
$AUPREC
 70
     2
  9
$MENU
  1
G:STDGX5
  9
$ELEVATION
 40
0.0
  9
$PELEVATION
 40
0.0
  9
$THICKNESS
 40
0.0
  9
$LIMCHECK
 70
     0
  9
$BLIPMODE
 70
     1
  9
$CHAMFERA
 40
0.0
  9
$CHAMFERB
 40
0.0
  9
$SKPOLY
 70
     0
  9
$TDCREATE
 40
2450249.570590277
  9
$TDUPDATE
 40
2450255.732071759
  9
$TDINDWG
 40
0.0030439815
  9
$TDUSRTIMER
 40
0.0030439815
  9
$USRTIMER
 70
     1
  9
$ANGBASE
 50
0.0
  9
$ANGDIR
 70
     0
  9
$PDMODE
 70
     0
  9
$PDSIZE
 40
0.0
  9
$PLINEWID
 40
0.0
  9
$COORDS
 70
     2
  9
$SPLFRAME
 70
     0
  9
$SPLINETYPE
 70
     6
  9
$SPLINESEGS
 70
     8
  9
$ATTDIA
 70
     0
  9
$ATTREQ
 70
     1
  9
$HANDLING
 70
     0
  9
$HANDSEED
  5
0
  9
$SURFTAB1
 70
     6
  9
$SURFTAB2
 70
     6
  9
$SURFTYPE
 70
     6
  9
$SURFU
 70
     6
  9
$SURFV
 70
     6
  9
$UCSNAME
  2

  9
$UCSORG
 10
0.0
 20
0.0
 30
0.0
  9
$UCSXDIR
 10
1.0
 20
0.0
 30
0.0
  9
$UCSYDIR
 10
0.0
 20
1.0
 30
0.0
  9
$PUCSNAME
  2

  9
$PUCSORG
 10
0.0
 20
0.0
 30
0.0
  9
$PUCSXDIR
 10
1.0
 20
0.0
 30
0.0
  9
$PUCSYDIR
 10
0.0
 20
1.0
 30
0.0
  9
$USERI1
 70
     3
  9
$USERI2
 70
   289
  9
$USERI3
 70
     0
  9
$USERI4
 70
     1
  9
$USERI5
 70
     0
  9
$USERR1
 40
30.0
  9
$USERR2
 40
3.0
  9
$USERR3
 40
3.0
  9
$USERR4
 40
1.5
  9
$USERR5
 40
10.0
  9
$WORLDVIEW
 70
     1
  9
$SHADEDGE
 70
     3
  9
$SHADEDIF
 70
    70
  9
$TILEMODE
 70
     1
  9
$MAXACTVP
 70
    16
  9
$PINSBASE
 10
0.0
 20
0.0
 30
0.0
  9
$PLIMCHECK
 70
     0
  9
$PEXTMIN
 10
1.000000E+20
 20
1.000000E+20
 30
1.000000E+20
  9
$PEXTMAX
 10
-1.000000E+20
 20
-1.000000E+20
 30
-1.000000E+20
  9
$PLIMMIN
 10
0.0
 20
0.0
  9
$PLIMMAX
 10
12.0
 20
9.0
  9
$UNITMODE
 70
     0
  9
$VISRETAIN
 70
     0
  0
ENDSEC
  0
SECTION
  2
TABLES
  0
TABLE
  2
VPORT
 70
    10
  0
VPORT
  2
*ACTIVE
 70
     0
 10
0.0
 20
0.0
 11
1.0
 21
1.0
 12
6691.515737
 22
4095.0
 13
0.0
 23
0.0
 14
1.0
 24
1.0
 15
10.0
 25
10.0
 16
0.0
 26
0.0
 36
1.0
 17
0.0
 27
0.0
 37
0.0
 40
8190.0
 41
1.63407
 42
50.0
 43
0.0
 44
0.0
 50
0.0
 51
0.0
 71
     0
 72
   500
 73
     1
 74
     0
 75
     0
 76
     0
 77
     0
 78
     0
  0
VPORT
  2
2
 70
     0
 10
0.5
 20
0.0
 11
1.0
 21
1.0
 12
0.924031
 22
1.052651
 13
0.0
 23
0.0
 14
1.0
 24
1.0
 15
10.0
 25
10.0
 16
0.0
 26
0.0
 36
1.0
 17
0.0
 27
0.0
 37
0.0
 40
2.105302
 41
0.877814
 42
50.0
 43
0.0
 44
0.0
 50
0.0
 51
0.0
 71
     0
 72
   500
 73
     1
 74
     1
 75
     0
 76
     0
 77
     0
 78
     0
  0
VPORT
  2
2
 70
     0
 10
0.0
 20
0.0
 11
0.5
 21
1.0
 12
0.924031
 22
1.052651
 13
0.0
 23
0.0
 14
1.0
 24
1.0
 15
10.0
 25
10.0
 16
0.0
 26
0.0
 36
1.0
 17
0.0
 27
0.0
 37
0.0
 40
2.105302
 41
0.877814
 42
50.0
 43
0.0
 44
0.0
 50
0.0
 51
0.0
 71
     0
 72
   500
 73
     1
 74
     1
 75
     0
 76
     0
 77
     0
 78
     0
  0
VPORT
  2
3
 70
     0
 10
0.0
 20
0.5
 11
1.0
 21
1.0
 12
2.83217
 22
1.052651
 13
0.0
 23
0.0
 14
1.0
 24
1.0
 15
10.0
 25
10.0
 16
0.0
 26
0.0
 36
1.0
 17
0.0
 27
0.0
 37
0.0
 40
2.105302
 41
3.571429
 42
50.0
 43
0.0
 44
0.0
 50
0.0
 51
0.0
 71
     0
 72
   500
 73
     1
 74
     1
 75
     0
 76
     0
 77
     0
 78
     0
  0
VPORT
  2
3
 70
     0
 10
0.0
 20
0.0
 11
1.0
 21
0.5
 12
2.856742
 22
1.052651
 13
0.0
 23
0.0
 14
1.0
 24
1.0
 15
10.0
 25
10.0
 16
0.0
 26
0.0
 36
1.0
 17
0.0
 27
0.0
 37
0.0
 40
2.105302
 41
3.594771
 42
50.0
 43
0.0
 44
0.0
 50
0.0
 51
0.0
 71
     0
 72
   500
 73
     1
 74
     1
 75
     0
 76
     0
 77
     0
 78
     0
  0
VPORT
  2
4
 70
     0
 10
0.5
 20
0.0
 11
1.0
 21
0.5
 12
2.886858
 22
1.052651
 13
0.0
 23
0.0
 14
1.0
 24
1.0
 15
10.0
 25
10.0
 16
0.0
 26
0.0
 36
1.0
 17
0.0
 27
0.0
 37
0.0
 40
4.275207
 41
1.784314
 42
50.0
 43
0.0
 44
0.0
 50
0.0
 51
0.0
 71
     0
 72
   500
 73
     1
 74
     1
 75
     0
 76
     0
 77
     0
 78
     0
  0
VPORT
  2
4
 70
     0
 10
0.5
 20
0.5
 11
1.0
 21
1.0
 12
2.86209
 22
1.052651
 13
0.0
 23
0.0
 14
1.0
 24
1.0
 15
10.0
 25
10.0
 16
0.0
 26
0.0
 36
1.0
 17
0.0
 27
0.0
 37
0.0
 40
4.275207
 41
1.772727
 42
50.0
 43
0.0
 44
0.0
 50
0.0
 51
0.0
 71
     0
 72
   500
 73
     1
 74
     1
 75
     0
 76
     0
 77
     0
 78
     0
  0
VPORT
  2
4
 70
     0
 10
0.0
 20
0.5
 11
0.5
 21
1.0
 12
2.86209
 22
1.052651
 13
0.0
 23
0.0
 14
1.0
 24
1.0
 15
10.0
 25
10.0
 16
0.0
 26
0.0
 36
1.0
 17
0.0
 27
0.0
 37
0.0
 40
4.275207
 41
1.772727
 42
50.0
 43
0.0
 44
0.0
 50
0.0
 51
0.0
 71
     0
 72
   500
 73
     1
 74
     1
 75
     0
 76
     0
 77
     0
 78
     0
  0
VPORT
  2
4
 70
     0
 10
0.0
 20
0.0
 11
0.5
 21
0.5
 12
2.886858
 22
1.052651
 13
0.0
 23
0.0
 14
1.0
 24
1.0
 15
10.0
 25
10.0
 16
0.0
 26
0.0
 36
1.0
 17
0.0
 27
0.0
 37
0.0
 40
4.275207
 41
1.784314
 42
50.0
 43
0.0
 44
0.0
 50
0.0
 51
0.0
 71
     0
 72
   500
 73
     1
 74
     1
 75
     0
 76
     0
 77
     0
 78
     0
  0
ENDTAB
  0
TABLE
  2
LTYPE
 70
     5
  0
LTYPE
  2
CONTINUOUS
 70
    64
  3
実線
 72
    65
 73
     0
 40
0.0
  0
LTYPE
  2
DASHED
 70
    64
  3
__ __ __ __ __ __ __ __ __ __ __ __ __ __ __
 72
    65
 73
     2
 40
0.75
 49
0.5
 49
-0.25
  0
LTYPE
  2
CENTER
 70
    64
  3
____ _ ____ _ ____ _ ____ _ ____ _ ____ _ ____
 72
    65
 73
     4
 40
2.0
 49
1.25
 49
-0.25
 49
0.25
 49
-0.25
  0
LTYPE
  2
PHANTOM
 70
    64
  3
_____ _ _ _____ _ _ _____ _ _ _____ _ _ ____
 72
    65
 73
     6
 40
2.5
 49
1.25
 49
-0.25
 49
0.25
 49
-0.25
 49
0.25
 49
-0.25
  0
LTYPE
  2
HIDDEN
 70
    64
  3
_ _ _ _ _ _ _ _ _ _ _ _ _ _ _ _ _ _ _ _ _ _ _
 72
    65
 73
     2
 40
0.375
 49
0.25
 49
-0.125
  0
ENDTAB
  0
TABLE
  2
LAYER
 70
    14
  0
LAYER
  2
0
 70
    64
 62
     7
  6
CONTINUOUS
  0
LAYER
  2
ITTEN
 70
    64
 62
     1
  6
CENTER
  0
LAYER
  2
HATCH
 70
    64
 62
     4
  6
CONTINUOUS
  0
LAYER
  2
SUNPOU
 70
    64
 62
     3
  6
CONTINUOUS
  0
LAYER
  2
TEXT
 70
    64
 62
     3
  6
CONTINUOUS
  0
LAYER
  2
SAISEN
 70
    64
 62
     4
  6
CONTINUOUS
  0
LAYER
  2
JISSEN
 70
    64
 62
     7
  6
CONTINUOUS
  0
LAYER
  2
WAKU
 70
    64
 62
    -5
  6
CONTINUOUS
  0
ENDTAB
  0
TABLE
  2
STYLE
 70
     2
  0
STYLE
  2
STANDARD
 70
     0
 40
0.0
 41
1.0
 50
0.0
 71
     0
 42
0.2
  3
ROMANS
  4
EXTFONT
  0
STYLE
  2
K
 70
    64
 40
0.0
 41
1.0
 50
0.0
 71
     0
 42
60.0
  3
ROMANS
  4
EXTFONT
  0
ENDTAB
  0
TABLE
  2
VIEW
 70
     0
  0
ENDTAB
  0
TABLE
  2
UCS
 70
     0
  0
ENDTAB
  0
TABLE
  2
APPID
 70
     1
  0
APPID
  2
ACAD
 70
    64
  0
ENDTAB
  0
TABLE
  2
DIMSTYLE
 70
     0
  0
ENDTAB
  0
ENDSEC
  0
SECTION
  2
BLOCKS
  0
BLOCK
  8
SUNPOU
  2
ARROWANG
 70
    64
 10
0.0
 20
0.0
 30
0.0
  3
ARROWANG
  0
LINE
  8
SUNPOU
 10
0.0
 20
0.0
 30
0.0
 11
-1.5
 21
0.401924
 31
0.0
  0
LINE
  8
SUNPOU
 10
0.0
 20
0.0
 30
0.0
 11
-1.5
 21
-0.401924
 31
0.0
  0
ENDBLK
  8
SUNPOU
  0
BLOCK
  8
HATCH
  2
*X2
 70
    65
 10
0.0
 20
0.0
 30
0.0
  3
*X
  0
ENDBLK
  8
HATCH
  0
BLOCK
  8
HATCH
  2
*X3
 70
    65
 10
0.0
 20
0.0
 30
0.0
  3
*X
  0
ENDBLK
  8
HATCH
  0
BLOCK
  8
HATCH
  2
STDGX5
 70
    64
 10
0.0
 20
0.0
 30
0.0
  3
STDGX5
  0
ENDBLK
  8
HATCH
  0
BLOCK
  8
HATCH
  2
*X5
 70
    65
 10
0.0
 20
0.0
 30
0.0
  3
*X
  0
LINE
  8
0
 62
     0
 10
7053.561201
 20
12259.814946
 30
0.0
 11
7063.203015
 21
12271.305613
 31
0.0
  0
LINE
  8
0
 62
     0
 10
7169.262971
 20
12397.702946
 30
0.0
 11
7178.904785
 21
12409.193613
 31
0.0
  0
LINE
  8
0
 62
     0
 10
7197.013237
 20
12247.264519
 30
0.0
 11
7206.655051
 21
12258.755186
 31
0.0
  0
LINE
  8
0
 62
     0
 10
7312.715007
 20
12385.152519
 30
0.0
 11
7322.356821
 21
12396.643186
 31
0.0
  0
LINE
  8
0
 62
     0
 10
7428.416777
 20
12523.040519
 30
0.0
 11
7438.058591
 21
12534.531185
 31
0.0
  0
LINE
  8
0
 62
     0
 10
7340.465274
 20
12234.714092
 30
0.0
 11
7350.107088
 21
12246.204759
 31
0.0
  0
LINE
  8
0
 62
     0
 10
7456.167044
 20
12372.602092
 30
0.0
 11
7465.808858
 21
12384.092759
 31
0.0
  0
LINE
  8
0
 62
     0
 10
7025.810934
 20
12410.253373
 30
0.0
 11
7035.452748
 21
12421.74404
 31
0.0
  0
LINE
  8
0
 62
     0
 10
6882.358897
 20
12422.8038
 30
0.0
 11
6892.000712
 21
12434.294467
 31
0.0
  0
LINE
  8
0
 62
     0
 10
6738.906861
 20
12435.354227
 30
0.0
 11
6748.548675
 21
12446.844894
 31
0.0
  0
LINE
  8
0
 62
     0
 10
6602.67352
 20
12456.50756
 30
0.0
 11
6605.096639
 21
12459.395321
 31
0.0
  0
LINE
  8
0
 62
     0
 10
7053.561206
 20
12259.814947
 30
0.0
 11
7065.515542
 21
12258.769078
 31
0.0
  0
LINE
  8
0
 62
     0
 10
7197.013242
 20
12247.26452
 30
0.0
 11
7208.967579
 21
12246.218651
 31
0.0
  0
LINE
  8
0
 62
     0
 10
7340.465279
 20
12234.714093
 30
0.0
 11
7352.419615
 21
12233.668224
 31
0.0
  0
LINE
  8
0
 62
     0
 10
6602.67352
 20
12447.273101
 30
0.0
 11
6607.409166
 21
12446.858786
 31
0.0
  0
LINE
  8
0
 62
     0
 10
6738.906866
 20
12435.354228
 30
0.0
 11
6750.861202
 21
12434.308359
 31
0.0
  0
LINE
  8
0
 62
     0
 10
6882.358903
 20
12422.803801
 30
0.0
 11
6894.313239
 21
12421.757932
 31
0.0
  0
LINE
  8
0
 62
     0
 10
7025.810939
 20
12410.253374
 30
0.0
 11
7037.765275
 21
12409.207505
 31
0.0
  0
LINE
  8
0
 62
     0
 10
7169.262976
 20
12397.702947
 30
0.0
 11
7181.217312
 21
12396.657078
 31
0.0
  0
LINE
  8
0
 62
     0
 10
7312.715012
 20
12385.15252
 30
0.0
 11
7324.669349
 21
12384.106651
 31
0.0
  0
LINE
  8
0
 62
     0
 10
7456.167049
 20
12372.602093
 30
0.0
 11
7468.121385
 21
12371.556224
 31
0.0
  0
LINE
  8
0
 62
     0
 10
7428.416782
 20
12523.04052
 30
0.0
 11
7440.371118
 21
12521.994651
 31
0.0
  0
LINE
  8
0
 62
     0
 10
7065.525041
 20
12258.763496
 30
0.0
 11
7063.212528
 21
12271.300033
 31
0.0
  0
LINE
  8
0
 62
     0
 10
7037.774891
 20
12409.201944
 30
0.0
 11
7035.462379
 21
12421.738481
 31
0.0
  0
LINE
  8
0
 62
     0
 10
7208.977066
 20
12246.212957
 30
0.0
 11
7206.664554
 21
12258.749494
 31
0.0
  0
LINE
  8
0
 62
     0
 10
7181.226917
 20
12396.651405
 30
0.0
 11
7178.914405
 21
12409.187942
 31
0.0
  0
LINE
  8
0
 62
     0
 10
7352.429092
 20
12233.662417
 30
0.0
 11
7350.116579
 21
12246.198954
 31
0.0
  0
LINE
  8
0
 62
     0
 10
7324.678943
 20
12384.100865
 30
0.0
 11
7322.36643
 21
12396.637402
 31
0.0
  0
LINE
  8
0
 62
     0
 10
7468.130968
 20
12371.550326
 30
0.0
 11
7465.818456
 21
12384.086862
 31
0.0
  0
LINE
  8
0
 62
     0
 10
7440.380819
 20
12521.988774
 30
0.0
 11
7438.068306
 21
12534.525311
 31
0.0
  0
LINE
  8
0
 62
     0
 10
6894.322866
 20
12421.752484
 30
0.0
 11
6892.010353
 21
12434.289021
 31
0.0
  0
LINE
  8
0
 62
     0
 10
6750.87084
 20
12434.303024
 30
0.0
 11
6748.558328
 21
12446.839561
 31
0.0
  0
LINE
  8
0
 62
     0
 10
6607.418815
 20
12446.853563
 30
0.0
 11
6605.106302
 21
12459.3901
 31
0.0
  0
LINE
  8
0
 62
     0
 10
7160.427357
 20
12358.395463
 30
0.0
 11
7176.005056
 21
12374.630773
 31
0.0
  0
LINE
  8
0
 62
     0
 10
6946.979148
 20
12391.499266
 30
0.0
 11
6962.556847
 21
12407.734576
 31
0.0
  0
LINE
  8
0
 62
     0
 10
6733.530938
 20
12424.603069
 30
0.0
 11
6749.108637
 21
12440.838379
 31
0.0
  0
LINE
  8
0
 62
     0
 10
6964.776217
 20
12388.734513
 30
0.0
 11
6962.56658
 21
12407.728475
 31
0.0
  0
LINE
  8
0
 62
     0
 10
7178.224397
 20
12355.630577
 30
0.0
 11
7176.01476
 21
12374.624539
 31
0.0
  0
LINE
  8
0
 62
     0
 10
6751.328037
 20
12421.838449
 30
0.0
 11
6749.1184
 21
12440.832411
 31
0.0
  0
LINE
  8
0
 62
     0
 10
6733.530937
 20
12424.60307
 30
0.0
 11
6751.318288
 21
12421.84442
 31
0.0
  0
LINE
  8
0
 62
     0
 10
6946.979147
 20
12391.499267
 30
0.0
 11
6964.766498
 21
12388.740617
 31
0.0
  0
LINE
  8
0
 62
     0
 10
7160.427357
 20
12358.395464
 30
0.0
 11
7178.214707
 21
12355.636814
 31
0.0
  0
LINE
  8
0
 62
     0
 10
7079.282578
 20
12342.405306
 30
0.0
 11
7093.286284
 21
12347.780825
 31
0.0
  0
LINE
  8
0
 62
     0
 10
7247.327054
 20
12406.911537
 30
0.0
 11
7261.330761
 21
12412.287056
 31
0.0
  0
LINE
  8
0
 62
     0
 10
7415.371531
 20
12471.417768
 30
0.0
 11
7429.375238
 21
12476.793287
 31
0.0
  0
LINE
  8
0
 62
     0
 10
7198.663988
 20
12261.881528
 30
0.0
 11
7212.667694
 21
12267.257047
 31
0.0
  0
LINE
  8
0
 62
     0
 10
6791.85669
 20
12358.422853
 30
0.0
 11
6805.860397
 21
12363.798373
 31
0.0
  0
LINE
  8
0
 62
     0
 10
6959.901167
 20
12422.929084
 30
0.0
 11
6973.904874
 21
12428.304604
 31
0.0
  0
LINE
  8
0
 62
     0
 10
7127.945644
 20
12487.435315
 30
0.0
 11
7141.94935
 21
12492.810835
 31
0.0
  0
LINE
  8
0
 62
     0
 10
6672.47528
 20
12438.946632
 30
0.0
 11
6686.478986
 21
12444.322151
 31
0.0
  0
LINE
  8
0
 62
     0
 10
6840.519757
 20
12503.452863
 30
0.0
 11
6854.523463
 21
12508.828382
 31
0.0
  0
LINE
  8
0
 62
     0
 10
6840.519761
 20
12503.452859
 30
0.0
 11
6850.468212
 21
12496.742544
 31
0.0
  0
LINE
  8
0
 62
     0
 10
6959.901171
 20
12422.929081
 30
0.0
 11
6969.849622
 21
12416.218766
 31
0.0
  0
LINE
  8
0
 62
     0
 10
7079.282582
 20
12342.405303
 30
0.0
 11
7089.231033
 21
12335.694988
 31
0.0
  0
LINE
  8
0
 62
     0
 10
7198.663992
 20
12261.881525
 30
0.0
 11
7208.612443
 21
12255.17121
 31
0.0
  0
LINE
  8
0
 62
     0
 10
7127.945648
 20
12487.435312
 30
0.0
 11
7137.894099
 21
12480.724997
 31
0.0
  0
LINE
  8
0
 62
     0
 10
7247.327059
 20
12406.911534
 30
0.0
 11
7257.27551
 21
12400.201219
 31
0.0
  0
LINE
  8
0
 62
     0
 10
7415.371536
 20
12471.417765
 30
0.0
 11
7425.319986
 21
12464.70745
 31
0.0
  0
LINE
  8
0
 62
     0
 10
6672.475284
 20
12438.946628
 30
0.0
 11
6682.423735
 21
12432.236313
 31
0.0
  0
LINE
  8
0
 62
     0
 10
6791.856695
 20
12358.42285
 30
0.0
 11
6801.805145
 21
12351.712535
 31
0.0
  0
LINE
  8
0
 62
     0
 10
6969.859255
 20
12416.21331
 30
0.0
 11
6973.914519
 21
12428.29914
 31
0.0
  0
LINE
  8
0
 62
     0
 10
7089.240601
 20
12335.689439
 30
0.0
 11
7093.295866
 21
12347.775269
 31
0.0
  0
LINE
  8
0
 62
     0
 10
7137.90378
 20
12480.719409
 30
0.0
 11
7141.959045
 21
12492.80524
 31
0.0
  0
LINE
  8
0
 62
     0
 10
7208.621947
 20
12255.165567
 30
0.0
 11
7212.677212
 21
12267.251398
 31
0.0
  0
LINE
  8
0
 62
     0
 10
7257.285126
 20
12400.195538
 30
0.0
 11
7261.340391
 21
12412.281368
 31
0.0
  0
LINE
  8
0
 62
     0
 10
7425.329652
 20
12464.701637
 30
0.0
 11
7429.384917
 21
12476.787468
 31
0.0
  0
LINE
  8
0
 62
     0
 10
6801.814729
 20
12351.707211
 30
0.0
 11
6805.869994
 21
12363.793041
 31
0.0
  0
LINE
  8
0
 62
     0
 10
6850.477908
 20
12496.737181
 30
0.0
 11
6854.533173
 21
12508.823012
 31
0.0
  0
LINE
  8
0
 62
     0
 10
6682.433383
 20
12432.231082
 30
0.0
 11
6686.488647
 21
12444.316912
 31
0.0
  0
LINE
  8
0
 62
     0
 10
7082.504283
 20
12358.850628
 30
0.0
 11
7082.504283
 21
12358.850628
 31
0.0
  0
LINE
  8
0
 62
     0
 10
7187.623601
 20
12439.511518
 30
0.0
 11
7187.623601
 21
12439.511518
 31
0.0
  0
LINE
  8
0
 62
     0
 10
7291.076876
 20
12518.894008
 30
0.0
 11
7291.076876
 21
12518.894008
 31
0.0
  0
LINE
  8
0
 62
     0
 10
7084.936254
 20
12425.429399
 30
0.0
 11
7084.936254
 21
12425.429399
 31
0.0
  0
LINE
  8
0
 62
     0
 10
7190.055572
 20
12506.090289
 30
0.0
 11
7190.055572
 21
12506.090289
 31
0.0
  0
LINE
  8
0
 62
     0
 10
6981.058877
 20
12410.434139
 30
0.0
 11
6981.058877
 21
12410.434139
 31
0.0
  0
LINE
  8
0
 62
     0
 10
7087.368225
 20
12492.00817
 30
0.0
 11
7087.368225
 21
12492.00817
 31
0.0
  0
LINE
  8
0
 62
     0
 10
6880.037573
 20
12397.630419
 30
0.0
 11
6880.037573
 21
12397.630419
 31
0.0
  0
LINE
  8
0
 62
     0
 10
6983.490849
 20
12477.012909
 30
0.0
 11
6983.490849
 21
12477.012909
 31
0.0
  0
LINE
  8
0
 62
     0
 10
6777.350226
 20
12383.5483
 30
0.0
 11
6777.350226
 21
12383.5483
 31
0.0
  0
LINE
  8
0
 62
     0
 10
6882.469544
 20
12464.20919
 30
0.0
 11
6882.469544
 21
12464.20919
 31
0.0
  0
LINE
  8
0
 62
     0
 10
6673.47285
 20
12368.55304
 30
0.0
 11
6673.47285
 21
12368.55304
 31
0.0
  0
LINE
  8
0
 62
     0
 10
6779.782198
 20
12450.127071
 30
0.0
 11
6779.782198
 21
12450.127071
 31
0.0
  0
LINE
  8
0
 62
     0
 10
6675.904821
 20
12435.13181
 30
0.0
 11
6675.904821
 21
12435.13181
 31
0.0
  0
LINE
  8
0
 62
     0
 10
6782.214169
 20
12516.705842
 30
0.0
 11
6782.214169
 21
12516.705842
 31
0.0
  0
LINE
  8
0
 62
     0
 10
6678.336792
 20
12501.710581
 30
0.0
 11
6678.336792
 21
12501.710581
 31
0.0
  0
LINE
  8
0
 62
     0
 10
7080.072312
 20
12292.271858
 30
0.0
 11
7080.072312
 21
12292.271858
 31
0.0
  0
LINE
  8
0
 62
     0
 10
7185.191629
 20
12372.932747
 30
0.0
 11
7185.191629
 21
12372.932747
 31
0.0
  0
LINE
  8
0
 62
     0
 10
7288.644905
 20
12452.315237
 30
0.0
 11
7288.644905
 21
12452.315237
 31
0.0
  0
LINE
  8
0
 62
     0
 10
7394.954253
 20
12533.889269
 30
0.0
 11
7394.954253
 21
12533.889269
 31
0.0
  0
LINE
  8
0
 62
     0
 10
7077.640341
 20
12225.693087
 30
0.0
 11
7077.640341
 21
12225.693087
 31
0.0
  0
LINE
  8
0
 62
     0
 10
7182.759658
 20
12306.353976
 30
0.0
 11
7182.759658
 21
12306.353976
 31
0.0
  0
LINE
  8
0
 62
     0
 10
7286.212934
 20
12385.736467
 30
0.0
 11
7286.212934
 21
12385.736467
 31
0.0
  0
LINE
  8
0
 62
     0
 10
7392.522282
 20
12467.310498
 30
0.0
 11
7392.522282
 21
12467.310498
 31
0.0
  0
LINE
  8
0
 62
     0
 10
7180.327687
 20
12239.775206
 30
0.0
 11
7180.327687
 21
12239.775206
 31
0.0
  0
LINE
  8
0
 62
     0
 10
7283.780963
 20
12319.157696
 30
0.0
 11
7283.780963
 21
12319.157696
 31
0.0
  0
LINE
  8
0
 62
     0
 10
7390.090311
 20
12400.731727
 30
0.0
 11
7390.090311
 21
12400.731727
 31
0.0
  0
LINE
  8
0
 62
     0
 10
7495.209628
 20
12481.392617
 30
0.0
 11
7495.209628
 21
12481.392617
 31
0.0
  0
LINE
  8
0
 62
     0
 10
7281.348992
 20
12252.578925
 30
0.0
 11
7281.348992
 21
12252.578925
 31
0.0
  0
LINE
  8
0
 62
     0
 10
7492.777657
 20
12414.813846
 30
0.0
 11
7492.777657
 21
12414.813846
 31
0.0
  0
LINE
  8
0
 62
     0
 10
7490.345686
 20
12348.235075
 30
0.0
 11
7490.345686
 21
12348.235075
 31
0.0
  0
LINE
  8
0
 62
     0
 10
6928.611109
 20
12353.107775
 30
0.0
 11
6928.611109
 21
12353.107775
 31
0.0
  0
LINE
  8
0
 62
     0
 10
7054.921184
 20
12369.736812
 30
0.0
 11
7054.921184
 21
12369.736812
 31
0.0
  0
LINE
  8
0
 62
     0
 10
7104.989149
 20
12376.328384
 30
0.0
 11
7104.989149
 21
12376.328384
 31
0.0
  0
LINE
  8
0
 62
     0
 10
7180.735537
 20
12386.300586
 30
0.0
 11
7180.735537
 21
12386.300586
 31
0.0
  0
LINE
  8
0
 62
     0
 10
7307.045612
 20
12402.929622
 30
0.0
 11
7307.045612
 21
12402.929622
 31
0.0
  0
LINE
  8
0
 62
     0
 10
7357.113578
 20
12409.521195
 30
0.0
 11
7357.113578
 21
12409.521195
 31
0.0
  0
LINE
  8
0
 62
     0
 10
7432.859965
 20
12419.493396
 30
0.0
 11
7432.859965
 21
12419.493396
 31
0.0
  0
LINE
  8
0
 62
     0
 10
6603.286235
 20
12382.233533
 30
0.0
 11
6603.286235
 21
12382.233533
 31
0.0
  0
LINE
  8
0
 62
     0
 10
6653.3542
 20
12388.825105
 30
0.0
 11
6653.3542
 21
12388.825105
 31
0.0
  0
LINE
  8
0
 62
     0
 10
6729.100588
 20
12398.797307
 30
0.0
 11
6729.100588
 21
12398.797307
 31
0.0
  0
LINE
  8
0
 62
     0
 10
6855.410663
 20
12415.426343
 30
0.0
 11
6855.410663
 21
12415.426343
 31
0.0
  0
LINE
  8
0
 62
     0
 10
6905.478629
 20
12422.017916
 30
0.0
 11
6905.478629
 21
12422.017916
 31
0.0
  0
LINE
  8
0
 62
     0
 10
6981.225016
 20
12431.990117
 30
0.0
 11
6981.225016
 21
12431.990117
 31
0.0
  0
LINE
  8
0
 62
     0
 10
7107.535091
 20
12448.619154
 30
0.0
 11
7107.535091
 21
12448.619154
 31
0.0
  0
LINE
  8
0
 62
     0
 10
7157.603057
 20
12455.210727
 30
0.0
 11
7157.603057
 21
12455.210727
 31
0.0
  0
LINE
  8
0
 62
     0
 10
7233.349444
 20
12465.182928
 30
0.0
 11
7233.349444
 21
12465.182928
 31
0.0
  0
LINE
  8
0
 62
     0
 10
7359.65952
 20
12481.811965
 30
0.0
 11
7359.65952
 21
12481.811965
 31
0.0
  0
LINE
  8
0
 62
     0
 10
7409.727485
 20
12488.403538
 30
0.0
 11
7409.727485
 21
12488.403538
 31
0.0
  0
LINE
  8
0
 62
     0
 10
7485.473873
 20
12498.375739
 30
0.0
 11
7485.473873
 21
12498.375739
 31
0.0
  0
LINE
  8
0
 62
     0
 10
6655.900142
 20
12461.115875
 30
0.0
 11
6655.900142
 21
12461.115875
 31
0.0
  0
LINE
  8
0
 62
     0
 10
6705.968108
 20
12467.707448
 30
0.0
 11
6705.968108
 21
12467.707448
 31
0.0
  0
LINE
  8
0
 62
     0
 10
6781.714495
 20
12477.679649
 30
0.0
 11
6781.714495
 21
12477.679649
 31
0.0
  0
LINE
  8
0
 62
     0
 10
6908.024571
 20
12494.308686
 30
0.0
 11
6908.024571
 21
12494.308686
 31
0.0
  0
LINE
  8
0
 62
     0
 10
6958.092536
 20
12500.900259
 30
0.0
 11
6958.092536
 21
12500.900259
 31
0.0
  0
LINE
  8
0
 62
     0
 10
7033.838924
 20
12510.87246
 30
0.0
 11
7033.838924
 21
12510.87246
 31
0.0
  0
LINE
  8
0
 62
     0
 10
7160.148999
 20
12527.501496
 30
0.0
 11
7160.148999
 21
12527.501496
 31
0.0
  0
LINE
  8
0
 62
     0
 10
7128.121629
 20
12307.418243
 30
0.0
 11
7128.121629
 21
12307.418243
 31
0.0
  0
LINE
  8
0
 62
     0
 10
7254.431705
 20
12324.04728
 30
0.0
 11
7254.431705
 21
12324.04728
 31
0.0
  0
LINE
  8
0
 62
     0
 10
7304.49967
 20
12330.638853
 30
0.0
 11
7304.49967
 21
12330.638853
 31
0.0
  0
LINE
  8
0
 62
     0
 10
7075.507722
 20
12228.535901
 30
0.0
 11
7075.507722
 21
12228.535901
 31
0.0
  0
LINE
  8
0
 62
     0
 10
7201.817797
 20
12245.164938
 30
0.0
 11
7201.817797
 21
12245.164938
 31
0.0
  0
LINE
  8
0
 62
     0
 10
7251.885763
 20
12251.75651
 30
0.0
 11
7251.885763
 21
12251.75651
 31
0.0
  0
LINE
  8
0
 62
     0
 10
7327.63215
 20
12261.728711
 30
0.0
 11
7327.63215
 21
12261.728711
 31
0.0
  0
LINE
  8
0
 62
     0
 10
6932.610881
 20
12447.490876
 30
0.0
 11
6932.610881
 21
12447.490876
 31
0.0
  0
LINE
  8
0
 62
     0
 10
7107.19291
 20
12336.269857
 30
0.0
 11
7107.19291
 21
12336.269857
 31
0.0
  0
LINE
  8
0
 62
     0
 10
7149.362482
 20
12309.404876
 30
0.0
 11
7149.362482
 21
12309.404876
 31
0.0
  0
LINE
  8
0
 62
     0
 10
7280.931548
 20
12225.586137
 30
0.0
 11
7280.931548
 21
12225.586137
 31
0.0
  0
LINE
  8
0
 62
     0
 10
7039.375368
 20
12442.979901
 30
0.0
 11
7039.375368
 21
12442.979901
 31
0.0
  0
LINE
  8
0
 62
     0
 10
7213.957397
 20
12331.758882
 30
0.0
 11
7213.957397
 21
12331.758882
 31
0.0
  0
LINE
  8
0
 62
     0
 10
7256.12697
 20
12304.893902
 30
0.0
 11
7256.12697
 21
12304.893902
 31
0.0
  0
LINE
  8
0
 62
     0
 10
7014.57079
 20
12522.287666
 30
0.0
 11
7014.57079
 21
12522.287666
 31
0.0
  0
LINE
  8
0
 62
     0
 10
7146.139855
 20
12438.468927
 30
0.0
 11
7146.139855
 21
12438.468927
 31
0.0
  0
LINE
  8
0
 62
     0
 10
7320.721884
 20
12327.247908
 30
0.0
 11
7320.721884
 21
12327.247908
 31
0.0
  0
LINE
  8
0
 62
     0
 10
7121.335277
 20
12517.776692
 30
0.0
 11
7121.335277
 21
12517.776692
 31
0.0
  0
LINE
  8
0
 62
     0
 10
7252.904342
 20
12433.957953
 30
0.0
 11
7252.904342
 21
12433.957953
 31
0.0
  0
LINE
  8
0
 62
     0
 10
7228.099764
 20
12513.265717
 30
0.0
 11
7228.099764
 21
12513.265717
 31
0.0
  0
LINE
  8
0
 62
     0
 10
7359.66883
 20
12429.446978
 30
0.0
 11
7359.66883
 21
12429.446978
 31
0.0
  0
LINE
  8
0
 62
     0
 10
7334.864251
 20
12508.754743
 30
0.0
 11
7334.864251
 21
12508.754743
 31
0.0
  0
LINE
  8
0
 62
     0
 10
7466.433317
 20
12424.936004
 30
0.0
 11
7466.433317
 21
12424.936004
 31
0.0
  0
LINE
  8
0
 62
     0
 10
7399.459166
 20
12531.108749
 30
0.0
 11
7399.459166
 21
12531.108749
 31
0.0
  0
LINE
  8
0
 62
     0
 10
7441.628739
 20
12504.243769
 30
0.0
 11
7441.628739
 21
12504.243769
 31
0.0
  0
LINE
  8
0
 62
     0
 10
6825.846393
 20
12452.00185
 30
0.0
 11
6825.846393
 21
12452.00185
 31
0.0
  0
LINE
  8
0
 62
     0
 10
7174.167061
 20
12230.097112
 30
0.0
 11
7174.167061
 21
12230.097112
 31
0.0
  0
LINE
  8
0
 62
     0
 10
6719.081906
 20
12456.512824
 30
0.0
 11
6719.081906
 21
12456.512824
 31
0.0
  0
LINE
  8
0
 62
     0
 10
7067.402573
 20
12234.608086
 30
0.0
 11
7067.402573
 21
12234.608086
 31
0.0
  0
LINE
  8
0
 62
     0
 10
6612.317419
 20
12461.023799
 30
0.0
 11
6612.317419
 21
12461.023799
 31
0.0
  0
LINE
  8
0
 62
     0
 10
6786.899448
 20
12349.80278
 30
0.0
 11
6786.899448
 21
12349.80278
 31
0.0
  0
LINE
  8
0
 62
     0
 10
6680.134961
 20
12354.313754
 30
0.0
 11
6680.134961
 21
12354.313754
 31
0.0
  0
LINE
  8
0
 62
     0
 10
6967.840068
 20
12463.956093
 30
0.0
 11
6967.840068
 21
12463.956093
 31
0.0
  0
LINE
  8
0
 62
     0
 10
7076.219837
 20
12364.644333
 30
0.0
 11
7076.219837
 21
12364.644333
 31
0.0
  0
LINE
  8
0
 62
     0
 10
7124.142863
 20
12320.730969
 30
0.0
 11
7124.142863
 21
12320.730969
 31
0.0
  0
LINE
  8
0
 62
     0
 10
7200.524796
 20
12250.739824
 30
0.0
 11
7200.524796
 21
12250.739824
 31
0.0
  0
LINE
  8
0
 62
     0
 10
7084.477302
 20
12483.97709
 30
0.0
 11
7084.477302
 21
12483.97709
 31
0.0
  0
LINE
  8
0
 62
     0
 10
7192.85707
 20
12384.665329
 30
0.0
 11
7192.85707
 21
12384.665329
 31
0.0
  0
LINE
  8
0
 62
     0
 10
7240.780097
 20
12340.751966
 30
0.0
 11
7240.780097
 21
12340.751966
 31
0.0
  0
LINE
  8
0
 62
     0
 10
7317.162029
 20
12270.76082
 30
0.0
 11
7317.162029
 21
12270.76082
 31
0.0
  0
LINE
  8
0
 62
     0
 10
7201.114536
 20
12503.998086
 30
0.0
 11
7201.114536
 21
12503.998086
 31
0.0
  0
LINE
  8
0
 62
     0
 10
7309.494304
 20
12404.686325
 30
0.0
 11
7309.494304
 21
12404.686325
 31
0.0
  0
LINE
  8
0
 62
     0
 10
7357.417331
 20
12360.772962
 30
0.0
 11
7357.417331
 21
12360.772962
 31
0.0
  0
LINE
  8
0
 62
     0
 10
7317.75177
 20
12524.019082
 30
0.0
 11
7317.75177
 21
12524.019082
 31
0.0
  0
LINE
  8
0
 62
     0
 10
7426.131538
 20
12424.707322
 30
0.0
 11
7426.131538
 21
12424.707322
 31
0.0
  0
LINE
  8
0
 62
     0
 10
7474.054565
 20
12380.793958
 30
0.0
 11
7474.054565
 21
12380.793958
 31
0.0
  0
LINE
  8
0
 62
     0
 10
6774.820902
 20
12513.926242
 30
0.0
 11
6774.820902
 21
12513.926242
 31
0.0
  0
LINE
  8
0
 62
     0
 10
6851.202834
 20
12443.935097
 30
0.0
 11
6851.202834
 21
12443.935097
 31
0.0
  0
LINE
  8
0
 62
     0
 10
7083.887562
 20
12230.718827
 30
0.0
 11
7083.887562
 21
12230.718827
 31
0.0
  0
LINE
  8
0
 62
     0
 10
6658.183668
 20
12493.905246
 30
0.0
 11
6658.183668
 21
12493.905246
 31
0.0
  0
LINE
  8
0
 62
     0
 10
6734.5656
 20
12423.9141
 30
0.0
 11
6734.5656
 21
12423.9141
 31
0.0
  0
LINE
  8
0
 62
     0
 10
6617.928366
 20
12403.893104
 30
0.0
 11
6617.928366
 21
12403.893104
 31
0.0
  0
ENDBLK
  8
HATCH
  0
BLOCK
  8
HATCH
  2
*X6
 70
    65
 10
0.0
 20
0.0
 30
0.0
  3
*X
  0
LINE
  8
0
 62
     0
 10
3781.914628
 20
12398.03634
 30
0.0
 11
3791.556442
 21
12409.527007
 31
0.0
  0
LINE
  8
0
 62
     0
 10
3925.366664
 20
12385.485913
 30
0.0
 11
3935.008478
 21
12396.97658
 31
0.0
  0
LINE
  8
0
 62
     0
 10
4041.068434
 20
12523.373913
 30
0.0
 11
4050.710248
 21
12534.86458
 31
0.0
  0
LINE
  8
0
 62
     0
 10
4068.818701
 20
12372.935486
 30
0.0
 11
4078.460515
 21
12384.426153
 31
0.0
  0
LINE
  8
0
 62
     0
 10
3638.462591
 20
12410.586767
 30
0.0
 11
3648.104405
 21
12422.077434
 31
0.0
  0
LINE
  8
0
 62
     0
 10
3754.164361
 20
12548.474767
 30
0.0
 11
3754.312559
 21
12548.651383
 31
0.0
  0
LINE
  8
0
 62
     0
 10
3610.712324
 20
12561.025194
 30
0.0
 11
3620.354138
 21
12572.515861
 31
0.0
  0
LINE
  8
0
 62
     0
 10
3638.462596
 20
12410.586768
 30
0.0
 11
3650.416932
 21
12409.540899
 31
0.0
  0
LINE
  8
0
 62
     0
 10
3781.914632
 20
12398.036341
 30
0.0
 11
3793.868969
 21
12396.990472
 31
0.0
  0
LINE
  8
0
 62
     0
 10
3925.366669
 20
12385.485914
 30
0.0
 11
3937.321005
 21
12384.440045
 31
0.0
  0
LINE
  8
0
 62
     0
 10
4068.818705
 20
12372.935487
 30
0.0
 11
4080.773042
 21
12371.889618
 31
0.0
  0
LINE
  8
0
 62
     0
 10
3610.712329
 20
12561.025194
 30
0.0
 11
3622.666666
 21
12559.979325
 31
0.0
  0
LINE
  8
0
 62
     0
 10
3754.164366
 20
12548.474767
 30
0.0
 11
3754.62409
 21
12548.434547
 31
0.0
  0
LINE
  8
0
 62
     0
 10
4041.068439
 20
12523.373913
 30
0.0
 11
4053.022775
 21
12522.328044
 31
0.0
  0
LINE
  8
0
 62
     0
 10
3793.878601
 20
12396.98746
 30
0.0
 11
3791.566089
 21
12409.523997
 31
0.0
  0
LINE
  8
0
 62
     0
 10
3937.330627
 20
12384.436921
 30
0.0
 11
3935.018115
 21
12396.973457
 31
0.0
  0
LINE
  8
0
 62
     0
 10
4080.782653
 20
12371.886381
 30
0.0
 11
4078.47014
 21
12384.422918
 31
0.0
  0
LINE
  8
0
 62
     0
 10
4053.032503
 20
12522.324829
 30
0.0
 11
4050.719991
 21
12534.861366
 31
0.0
  0
LINE
  8
0
 62
     0
 10
3650.426576
 20
12409.538
 30
0.0
 11
3648.114063
 21
12422.074537
 31
0.0
  0
LINE
  8
0
 62
     0
 10
3622.676427
 20
12559.976448
 30
0.0
 11
3620.363914
 21
12572.512985
 31
0.0
  0
LINE
  8
0
 62
     0
 10
3798.287643
 20
12432.201263
 30
0.0
 11
3813.865342
 21
12448.436573
 31
0.0
  0
LINE
  8
0
 62
     0
 10
4011.735853
 20
12399.09746
 30
0.0
 11
4027.313552
 21
12415.33277
 31
0.0
  0
LINE
  8
0
 62
     0
 10
3584.839433
 20
12465.305066
 30
0.0
 11
3600.417132
 21
12481.540376
 31
0.0
  0
LINE
  8
0
 62
     0
 10
3558.323613
 20
12693.232589
 30
0.0
 11
3573.901312
 21
12709.467899
 31
0.0
  0
LINE
  8
0
 62
     0
 10
3816.084795
 20
12429.438535
 30
0.0
 11
3813.875158
 21
12448.432497
 31
0.0
  0
LINE
  8
0
 62
     0
 10
4029.532975
 20
12396.334599
 30
0.0
 11
4027.323338
 21
12415.328561
 31
0.0
  0
LINE
  8
0
 62
     0
 10
3602.636615
 20
12462.542472
 30
0.0
 11
3600.426978
 21
12481.536434
 31
0.0
  0
LINE
  8
0
 62
     0
 10
3576.120976
 20
12690.469982
 30
0.0
 11
3573.911339
 21
12709.463944
 31
0.0
  0
LINE
  8
0
 62
     0
 10
3584.839432
 20
12465.305066
 30
0.0
 11
3602.626783
 21
12462.546416
 31
0.0
  0
LINE
  8
0
 62
     0
 10
3798.287642
 20
12432.201263
 30
0.0
 11
3816.074993
 21
12429.442613
 31
0.0
  0
LINE
  8
0
 62
     0
 10
4011.735852
 20
12399.09746
 30
0.0
 11
4029.523203
 21
12396.33881
 31
0.0
  0
LINE
  8
0
 62
     0
 10
3558.323612
 20
12693.232589
 30
0.0
 11
3576.110963
 21
12690.473939
 31
0.0
  0
LINE
  8
0
 62
     0
 10
3581.508865
 20
12389.585864
 30
0.0
 11
3595.512571
 21
12394.961383
 31
0.0
  0
LINE
  8
0
 62
     0
 10
3749.553342
 20
12454.092095
 30
0.0
 11
3763.557048
 21
12459.467614
 31
0.0
  0
LINE
  8
0
 62
     0
 10
3917.597819
 20
12518.598326
 30
0.0
 11
3931.601525
 21
12523.973845
 31
0.0
  0
LINE
  8
0
 62
     0
 10
4085.642295
 20
12583.104557
 30
0.0
 11
4099.646002
 21
12588.480076
 31
0.0
  0
LINE
  8
0
 62
     0
 10
3868.934752
 20
12373.568317
 30
0.0
 11
3882.938459
 21
12378.943836
 31
0.0
  0
LINE
  8
0
 62
     0
 10
4036.979229
 20
12438.074547
 30
0.0
 11
4050.982935
 21
12443.450067
 31
0.0
  0
LINE
  8
0
 62
     0
 10
3630.171931
 20
12534.615873
 30
0.0
 11
3644.175638
 21
12539.991392
 31
0.0
  0
LINE
  8
0
 62
     0
 10
3678.834998
 20
12679.645882
 30
0.0
 11
3679.862994
 21
12680.040493
 31
0.0
  0
LINE
  8
0
 62
     0
 10
3630.171934
 20
12534.615869
 30
0.0
 11
3640.120385
 21
12527.905554
 31
0.0
  0
LINE
  8
0
 62
     0
 10
3749.553345
 20
12454.092091
 30
0.0
 11
3759.501796
 21
12447.381776
 31
0.0
  0
LINE
  8
0
 62
     0
 10
3868.934755
 20
12373.568313
 30
0.0
 11
3878.883206
 21
12366.857998
 31
0.0
  0
LINE
  8
0
 62
     0
 10
3678.835001
 20
12679.645878
 30
0.0
 11
3679.946296
 21
12678.8963
 31
0.0
  0
LINE
  8
0
 62
     0
 10
3917.597822
 20
12518.598322
 30
0.0
 11
3927.546273
 21
12511.888007
 31
0.0
  0
LINE
  8
0
 62
     0
 10
4036.979232
 20
12438.074544
 30
0.0
 11
4046.927683
 21
12431.364229
 31
0.0
  0
LINE
  8
0
 62
     0
 10
4085.642299
 20
12583.104553
 30
0.0
 11
4095.590749
 21
12576.394238
 31
0.0
  0
LINE
  8
0
 62
     0
 10
3581.508868
 20
12389.58586
 30
0.0
 11
3591.457319
 21
12382.875545
 31
0.0
  0
LINE
  8
0
 62
     0
 10
3878.89283
 20
12366.85496
 30
0.0
 11
3882.948095
 21
12378.940791
 31
0.0
  0
LINE
  8
0
 62
     0
 10
3927.556009
 20
12511.884931
 30
0.0
 11
3931.611274
 21
12523.970761
 31
0.0
  0
LINE
  8
0
 62
     0
 10
4046.937355
 20
12431.361059
 30
0.0
 11
4050.99262
 21
12443.44689
 31
0.0
  0
LINE
  8
0
 62
     0
 10
4095.600535
 20
12576.39103
 30
0.0
 11
4099.6558
 21
12588.476861
 31
0.0
  0
LINE
  8
0
 62
     0
 10
3759.511483
 20
12447.378831
 30
0.0
 11
3763.566748
 21
12459.464662
 31
0.0
  0
LINE
  8
0
 62
     0
 10
3591.466958
 20
12382.872732
 30
0.0
 11
3595.522223
 21
12394.958563
 31
0.0
  0
LINE
  8
0
 62
     0
 10
3640.130137
 20
12527.902703
 30
0.0
 11
3644.185402
 21
12539.988533
 31
0.0
  0
LINE
  8
0
 62
     0
 10
3716.081777
 20
12364.209936
 30
0.0
 11
3716.081777
 21
12364.209936
 31
0.0
  0
LINE
  8
0
 62
     0
 10
3821.201095
 20
12444.870826
 30
0.0
 11
3821.201095
 21
12444.870826
 31
0.0
  0
LINE
  8
0
 62
     0
 10
3924.65437
 20
12524.253316
 30
0.0
 11
3924.65437
 21
12524.253316
 31
0.0
  0
LINE
  8
0
 62
     0
 10
4030.963718
 20
12605.827347
 30
0.0
 11
4030.963718
 21
12605.827347
 31
0.0
  0
LINE
  8
0
 62
     0
 10
4136.083035
 20
12686.488237
 30
0.0
 11
4136.083035
 21
12686.488237
 31
0.0
  0
LINE
  8
0
 62
     0
 10
3612.204401
 20
12349.214675
 30
0.0
 11
3612.204401
 21
12349.214675
 31
0.0
  0
LINE
  8
0
 62
     0
 10
3718.513748
 20
12430.788707
 30
0.0
 11
3718.513748
 21
12430.788707
 31
0.0
  0
LINE
  8
0
 62
     0
 10
3823.633066
 20
12511.449596
 30
0.0
 11
3823.633066
 21
12511.449596
 31
0.0
  0
LINE
  8
0
 62
     0
 10
4033.395689
 20
12672.406118
 30
0.0
 11
4033.395689
 21
12672.406118
 31
0.0
  0
LINE
  8
0
 62
     0
 10
3614.636372
 20
12415.793446
 30
0.0
 11
3614.636372
 21
12415.793446
 31
0.0
  0
LINE
  8
0
 62
     0
 10
3720.945719
 20
12497.367478
 30
0.0
 11
3720.945719
 21
12497.367478
 31
0.0
  0
LINE
  8
0
 62
     0
 10
3617.068343
 20
12482.372217
 30
0.0
 11
3617.068343
 21
12482.372217
 31
0.0
  0
LINE
  8
0
 62
     0
 10
3723.37769
 20
12563.946249
 30
0.0
 11
3723.37769
 21
12563.946249
 31
0.0
  0
LINE
  8
0
 62
     0
 10
3619.500314
 20
12548.950988
 30
0.0
 11
3619.500314
 21
12548.950988
 31
0.0
  0
LINE
  8
0
 62
     0
 10
3621.932285
 20
12615.529759
 30
0.0
 11
3621.932285
 21
12615.529759
 31
0.0
  0
LINE
  8
0
 62
     0
 10
3624.364256
 20
12682.108529
 30
0.0
 11
3624.364256
 21
12682.108529
 31
0.0
  0
LINE
  8
0
 62
     0
 10
3818.769124
 20
12378.292055
 30
0.0
 11
3818.769124
 21
12378.292055
 31
0.0
  0
LINE
  8
0
 62
     0
 10
3922.222399
 20
12457.674545
 30
0.0
 11
3922.222399
 21
12457.674545
 31
0.0
  0
LINE
  8
0
 62
     0
 10
4028.531747
 20
12539.248577
 30
0.0
 11
4028.531747
 21
12539.248577
 31
0.0
  0
LINE
  8
0
 62
     0
 10
4133.651064
 20
12619.909466
 30
0.0
 11
4133.651064
 21
12619.909466
 31
0.0
  0
LINE
  8
0
 62
     0
 10
3919.790428
 20
12391.095774
 30
0.0
 11
3919.790428
 21
12391.095774
 31
0.0
  0
LINE
  8
0
 62
     0
 10
4026.099776
 20
12472.669806
 30
0.0
 11
4026.099776
 21
12472.669806
 31
0.0
  0
LINE
  8
0
 62
     0
 10
4131.219093
 20
12553.330695
 30
0.0
 11
4131.219093
 21
12553.330695
 31
0.0
  0
LINE
  8
0
 62
     0
 10
4023.667805
 20
12406.091035
 30
0.0
 11
4023.667805
 21
12406.091035
 31
0.0
  0
LINE
  8
0
 62
     0
 10
4128.787122
 20
12486.751924
 30
0.0
 11
4128.787122
 21
12486.751924
 31
0.0
  0
LINE
  8
0
 62
     0
 10
4126.355151
 20
12420.173154
 30
0.0
 11
4126.355151
 21
12420.173154
 31
0.0
  0
LINE
  8
0
 62
     0
 10
4123.92318
 20
12353.594383
 30
0.0
 11
4123.92318
 21
12353.594383
 31
0.0
  0
LINE
  8
0
 62
     0
 10
3567.655945
 20
12486.274354
 30
0.0
 11
3567.655945
 21
12486.274354
 31
0.0
  0
LINE
  8
0
 62
     0
 10
3693.96602
 20
12502.903391
 30
0.0
 11
3693.96602
 21
12502.903391
 31
0.0
  0
LINE
  8
0
 62
     0
 10
3744.033986
 20
12509.494963
 30
0.0
 11
3744.033986
 21
12509.494963
 31
0.0
  0
LINE
  8
0
 62
     0
 10
3819.780373
 20
12519.467164
 30
0.0
 11
3819.780373
 21
12519.467164
 31
0.0
  0
LINE
  8
0
 62
     0
 10
3946.090448
 20
12536.096201
 30
0.0
 11
3946.090448
 21
12536.096201
 31
0.0
  0
LINE
  8
0
 62
     0
 10
3996.158414
 20
12542.687774
 30
0.0
 11
3996.158414
 21
12542.687774
 31
0.0
  0
LINE
  8
0
 62
     0
 10
4071.904801
 20
12552.659975
 30
0.0
 11
4071.904801
 21
12552.659975
 31
0.0
  0
LINE
  8
0
 62
     0
 10
3620.269852
 20
12565.156696
 30
0.0
 11
3620.269852
 21
12565.156696
 31
0.0
  0
LINE
  8
0
 62
     0
 10
4048.772321
 20
12621.570116
 30
0.0
 11
4048.772321
 21
12621.570116
 31
0.0
  0
LINE
  8
0
 62
     0
 10
4124.518709
 20
12631.542317
 30
0.0
 11
4124.518709
 21
12631.542317
 31
0.0
  0
LINE
  8
0
 62
     0
 10
3597.137372
 20
12634.066837
 30
0.0
 11
3597.137372
 21
12634.066837
 31
0.0
  0
LINE
  8
0
 62
     0
 10
3672.88376
 20
12644.039038
 30
0.0
 11
3672.88376
 21
12644.039038
 31
0.0
  0
LINE
  8
0
 62
     0
 10
4051.318263
 20
12693.860886
 30
0.0
 11
4051.318263
 21
12693.860886
 31
0.0
  0
LINE
  8
0
 62
     0
 10
4101.386229
 20
12700.452459
 30
0.0
 11
4101.386229
 21
12700.452459
 31
0.0
  0
LINE
  8
0
 62
     0
 10
3599.683314
 20
12706.357607
 30
0.0
 11
3599.683314
 21
12706.357607
 31
0.0
  0
LINE
  8
0
 62
     0
 10
3641.352113
 20
12424.021048
 30
0.0
 11
3641.352113
 21
12424.021048
 31
0.0
  0
LINE
  8
0
 62
     0
 10
3691.420078
 20
12430.612621
 30
0.0
 11
3691.420078
 21
12430.612621
 31
0.0
  0
LINE
  8
0
 62
     0
 10
3767.166466
 20
12440.584822
 30
0.0
 11
3767.166466
 21
12440.584822
 31
0.0
  0
LINE
  8
0
 62
     0
 10
3893.476541
 20
12457.213859
 30
0.0
 11
3893.476541
 21
12457.213859
 31
0.0
  0
LINE
  8
0
 62
     0
 10
3943.544506
 20
12463.805432
 30
0.0
 11
3943.544506
 21
12463.805432
 31
0.0
  0
LINE
  8
0
 62
     0
 10
4019.290894
 20
12473.777633
 30
0.0
 11
4019.290894
 21
12473.777633
 31
0.0
  0
LINE
  8
0
 62
     0
 10
4145.600969
 20
12490.40667
 30
0.0
 11
4145.600969
 21
12490.40667
 31
0.0
  0
LINE
  8
0
 62
     0
 10
3638.806171
 20
12351.730278
 30
0.0
 11
3638.806171
 21
12351.730278
 31
0.0
  0
LINE
  8
0
 62
     0
 10
3714.552558
 20
12361.70248
 30
0.0
 11
3714.552558
 21
12361.70248
 31
0.0
  0
LINE
  8
0
 62
     0
 10
3840.862633
 20
12378.331516
 30
0.0
 11
3840.862633
 21
12378.331516
 31
0.0
  0
LINE
  8
0
 62
     0
 10
3890.930599
 20
12384.923089
 30
0.0
 11
3890.930599
 21
12384.923089
 31
0.0
  0
LINE
  8
0
 62
     0
 10
3966.676986
 20
12394.89529
 30
0.0
 11
3966.676986
 21
12394.89529
 31
0.0
  0
LINE
  8
0
 62
     0
 10
4092.987062
 20
12411.524327
 30
0.0
 11
4092.987062
 21
12411.524327
 31
0.0
  0
LINE
  8
0
 62
     0
 10
4143.055027
 20
12418.1159
 30
0.0
 11
4143.055027
 21
12418.1159
 31
0.0
  0
LINE
  8
0
 62
     0
 10
3555.937626
 20
12693.503825
 30
0.0
 11
3555.937626
 21
12693.503825
 31
0.0
  0
LINE
  8
0
 62
     0
 10
3598.107198
 20
12666.638845
 30
0.0
 11
3598.107198
 21
12666.638845
 31
0.0
  0
LINE
  8
0
 62
     0
 10
3904.258293
 20
12471.599087
 30
0.0
 11
3904.258293
 21
12471.599087
 31
0.0
  0
LINE
  8
0
 62
     0
 10
3946.427865
 20
12444.734107
 30
0.0
 11
3946.427865
 21
12444.734107
 31
0.0
  0
LINE
  8
0
 62
     0
 10
4077.996931
 20
12360.915368
 30
0.0
 11
4077.996931
 21
12360.915368
 31
0.0
  0
LINE
  8
0
 62
     0
 10
3662.702113
 20
12688.992851
 30
0.0
 11
3662.702113
 21
12688.992851
 31
0.0
  0
LINE
  8
0
 62
     0
 10
4011.02278
 20
12467.088113
 30
0.0
 11
4011.02278
 21
12467.088113
 31
0.0
  0
LINE
  8
0
 62
     0
 10
4053.192352
 20
12440.223132
 30
0.0
 11
4053.192352
 21
12440.223132
 31
0.0
  0
LINE
  8
0
 62
     0
 10
4117.787267
 20
12462.577139
 30
0.0
 11
4117.787267
 21
12462.577139
 31
0.0
  0
LINE
  8
0
 62
     0
 10
4049.969725
 20
12569.287183
 30
0.0
 11
4049.969725
 21
12569.287183
 31
0.0
  0
LINE
  8
0
 62
     0
 10
4025.165147
 20
12648.594948
 30
0.0
 11
4025.165147
 21
12648.594948
 31
0.0
  0
LINE
  8
0
 62
     0
 10
4089.760062
 20
12670.948954
 30
0.0
 11
4089.760062
 21
12670.948954
 31
0.0
  0
LINE
  8
0
 62
     0
 10
4131.929634
 20
12644.083973
 30
0.0
 11
4131.929634
 21
12644.083973
 31
0.0
  0
LINE
  8
0
 62
     0
 10
3622.911776
 20
12587.33108
 30
0.0
 11
3622.911776
 21
12587.33108
 31
0.0
  0
LINE
  8
0
 62
     0
 10
3797.493806
 20
12476.110062
 30
0.0
 11
3797.493806
 21
12476.110062
 31
0.0
  0
LINE
  8
0
 62
     0
 10
3839.663378
 20
12449.245081
 30
0.0
 11
3839.663378
 21
12449.245081
 31
0.0
  0
LINE
  8
0
 62
     0
 10
3971.232444
 20
12365.426342
 30
0.0
 11
3971.232444
 21
12365.426342
 31
0.0
  0
LINE
  8
0
 62
     0
 10
3690.729319
 20
12480.621036
 30
0.0
 11
3690.729319
 21
12480.621036
 31
0.0
  0
LINE
  8
0
 62
     0
 10
3732.898891
 20
12453.756055
 30
0.0
 11
3732.898891
 21
12453.756055
 31
0.0
  0
LINE
  8
0
 62
     0
 10
3864.467956
 20
12369.937317
 30
0.0
 11
3864.467956
 21
12369.937317
 31
0.0
  0
LINE
  8
0
 62
     0
 10
3583.964831
 20
12485.13201
 30
0.0
 11
3583.964831
 21
12485.13201
 31
0.0
  0
LINE
  8
0
 62
     0
 10
3626.134404
 20
12458.26703
 30
0.0
 11
3626.134404
 21
12458.26703
 31
0.0
  0
LINE
  8
0
 62
     0
 10
3757.703469
 20
12374.448291
 30
0.0
 11
3757.703469
 21
12374.448291
 31
0.0
  0
LINE
  8
0
 62
     0
 10
3650.938982
 20
12378.959265
 30
0.0
 11
3650.938982
 21
12378.959265
 31
0.0
  0
LINE
  8
0
 62
     0
 10
3936.451468
 20
12449.92671
 30
0.0
 11
3936.451468
 21
12449.92671
 31
0.0
  0
LINE
  8
0
 62
     0
 10
4044.831236
 20
12350.614949
 30
0.0
 11
4044.831236
 21
12350.614949
 31
0.0
  0
LINE
  8
0
 62
     0
 10
3976.70677
 20
12539.938852
 30
0.0
 11
3976.70677
 21
12539.938852
 31
0.0
  0
LINE
  8
0
 62
     0
 10
4053.088702
 20
12469.947706
 30
0.0
 11
4053.088702
 21
12469.947706
 31
0.0
  0
LINE
  8
0
 62
     0
 10
4045.420977
 20
12603.873212
 30
0.0
 11
4045.420977
 21
12603.873212
 31
0.0
  0
LINE
  8
0
 62
     0
 10
4093.344004
 20
12559.959848
 30
0.0
 11
4093.344004
 21
12559.959848
 31
0.0
  0
LINE
  8
0
 62
     0
 10
3587.129507
 20
12643.121983
 30
0.0
 11
3587.129507
 21
12643.121983
 31
0.0
  0
LINE
  8
0
 62
     0
 10
3695.509275
 20
12543.810222
 30
0.0
 11
3695.509275
 21
12543.810222
 31
0.0
  0
LINE
  8
0
 62
     0
 10
3743.432302
 20
12499.896859
 30
0.0
 11
3743.432302
 21
12499.896859
 31
0.0
  0
LINE
  8
0
 62
     0
 10
3819.814234
 20
12429.905713
 30
0.0
 11
3819.814234
 21
12429.905713
 31
0.0
  0
LINE
  8
0
 62
     0
 10
3578.872041
 20
12523.789226
 30
0.0
 11
3578.872041
 21
12523.789226
 31
0.0
  0
LINE
  8
0
 62
     0
 10
3626.795068
 20
12479.875862
 30
0.0
 11
3626.795068
 21
12479.875862
 31
0.0
  0
LINE
  8
0
 62
     0
 10
3703.177
 20
12409.884717
 30
0.0
 11
3703.177
 21
12409.884717
 31
0.0
  0
LINE
  8
0
 62
     0
 10
3586.539766
 20
12389.86372
 30
0.0
 11
3586.539766
 21
12389.86372
 31
0.0
  0
ENDBLK
  8
HATCH
  0
ENDSEC
  0
SECTION
  2
ENTITIES
  0
LINE
  8
ITTEN
 10
7604.890436
 20
2547.887257
 30
0.0
 11
7604.890436
 21
2051.964149
 31
0.0
  0
LINE
  8
JISSEN
 10
7754.890436
 20
2302.887257
 30
0.0
 11
7754.890436
 21
2432.887257
 31
0.0
  0
LINE
  8
JISSEN
 10
7454.890436
 20
2432.887257
 30
0.0
 11
7454.890436
 21
2302.887257
 31
0.0
  0
LINE
  8
JISSEN
 10
6904.890436
 20
2302.887257
 30
0.0
 11
6904.890436
 21
2447.887257
 31
0.0
  0
LINE
  8
JISSEN
 10
8004.890436
 20
2302.887257
 30
0.0
 11
6904.890436
 21
2302.887257
 31
0.0
  0
LINE
  8
JISSEN
 10
8004.890436
 20
2447.887257
 30
0.0
 11
8004.890436
 21
2302.887257
 31
0.0
  0
LINE
  8
JISSEN
 10
7939.890436
 20
2447.887257
 30
0.0
 11
8004.890436
 21
2447.887257
 31
0.0
  0
LINE
  8
JISSEN
 10
7934.890436
 20
2432.887257
 30
0.0
 11
7939.890436
 21
2447.887257
 31
0.0
  0
LINE
  8
JISSEN
 10
6974.890436
 20
2432.887257
 30
0.0
 11
7454.890436
 21
2432.887257
 31
0.0
  0
LINE
  8
JISSEN
 10
6969.890436
 20
2447.887257
 30
0.0
 11
6974.890436
 21
2432.887257
 31
0.0
  0
LINE
  8
JISSEN
 10
6904.890436
 20
2447.887257
 30
0.0
 11
6969.890436
 21
2447.887257
 31
0.0
  0
LINE
  8
JISSEN
 10
6929.890436
 20
3347.887257
 30
0.0
 11
6969.890436
 21
3347.887257
 31
0.0
  0
LINE
  8
JISSEN
 10
6969.890436
 20
3347.887257
 30
0.0
 11
6976.890436
 21
3324.887257
 31
0.0
  0
LINE
  8
JISSEN
 10
6976.890436
 20
3324.887257
 30
0.0
 11
7004.890436
 21
3324.887257
 31
0.0
  0
LINE
  8
JISSEN
 10
6929.890436
 20
3347.887257
 30
0.0
 11
6929.890436
 21
2984.887257
 31
0.0
  0
LINE
  8
JISSEN
 10
6979.890436
 20
2432.887257
 30
0.0
 11
7004.890436
 21
2432.887257
 31
0.0
  0
LINE
  8
JISSEN
 10
7004.890436
 20
3324.887257
 30
0.0
 11
7004.890436
 21
2984.887257
 31
0.0
  0
LINE
  8
JISSEN
 10
7904.890436
 20
3324.887257
 30
0.0
 11
7904.890436
 21
2972.887257
 31
0.0
  0
LINE
  8
JISSEN
 10
7929.890436
 20
2432.887257
 30
0.0
 11
7904.890436
 21
2432.887257
 31
0.0
  0
LINE
  8
JISSEN
 10
7979.890436
 20
3347.887257
 30
0.0
 11
7979.890436
 21
3004.887257
 31
0.0
  0
LINE
  8
JISSEN
 10
7932.890436
 20
3324.887257
 30
0.0
 11
7904.890436
 21
3324.887257
 31
0.0
  0
LINE
  8
JISSEN
 10
7939.890436
 20
3347.887257
 30
0.0
 11
7932.890436
 21
3324.887257
 31
0.0
  0
LINE
  8
JISSEN
 10
7979.890436
 20
3347.887257
 30
0.0
 11
7939.890436
 21
3347.887257
 31
0.0
  0
LINE
  8
JISSEN
 10
7004.890436
 20
3324.887257
 30
0.0
 11
7304.890436
 21
3324.887257
 31
0.0
  0
LINE
  8
JISSEN
 10
7304.890436
 20
3324.887257
 30
0.0
 11
7904.890436
 21
3324.887257
 31
0.0
  0
LINE
  8
JISSEN
 10
7004.890436
 20
2432.887257
 30
0.0
 11
7454.890436
 21
2432.887257
 31
0.0
  0
LINE
  8
JISSEN
 10
7104.890436
 20
3170.387257
 30
0.0
 11
7004.890436
 21
3170.387257
 31
0.0
  0
LINE
  8
JISSEN
 10
7004.890436
 20
3195.387257
 30
0.0
 11
7104.890436
 21
3195.387257
 31
0.0
  0
ARC
  8
JISSEN
 10
7104.890436
 20
3182.887257
 30
0.0
 40
12.5
 50
270.0
 51
90.0
  0
LINE
  8
SUNPOU
 10
7124.890436
 20
2432.887257
 30
0.0
 11
7124.890436
 21
2432.887257
 31
0.0
  0
ARC
  8
JISSEN
 10
7104.890436
 20
4082.887257
 30
0.0
 40
12.5
 50
270.0
 51
90.0
  0
LINE
  8
JISSEN
 10
7004.890436
 20
4095.387257
 30
0.0
 11
7104.890436
 21
4095.387257
 31
0.0
  0
LINE
  8
JISSEN
 10
7104.890436
 20
4070.387257
 30
0.0
 11
7004.890436
 21
4070.387257
 31
0.0
  0
ARC
  8
JISSEN
 10
7104.890436
 20
3782.887257
 30
0.0
 40
12.5
 50
270.0
 51
90.0
  0
LINE
  8
JISSEN
 10
7004.890436
 20
3795.387257
 30
0.0
 11
7104.890436
 21
3795.387257
 31
0.0
  0
LINE
  8
JISSEN
 10
7104.890436
 20
3770.387257
 30
0.0
 11
7004.890436
 21
3770.387257
 31
0.0
  0
LINE
  8
JISSEN
 10
7104.890436
 20
3470.387257
 30
0.0
 11
7004.890436
 21
3470.387257
 31
0.0
  0
LINE
  8
JISSEN
 10
7004.890436
 20
3495.387257
 30
0.0
 11
7104.890436
 21
3495.387257
 31
0.0
  0
ARC
  8
JISSEN
 10
7104.890436
 20
3482.887257
 30
0.0
 40
12.5
 50
270.0
 51
90.0
  0
LINE
  8
JISSEN
 10
7304.890436
 20
4224.887257
 30
0.0
 11
7904.890436
 21
4224.887257
 31
0.0
  0
LINE
  8
JISSEN
 10
7004.890436
 20
4224.887257
 30
0.0
 11
7304.890436
 21
4224.887257
 31
0.0
  0
LINE
  8
JISSEN
 10
7979.890436
 20
4247.887257
 30
0.0
 11
7939.890436
 21
4247.887257
 31
0.0
  0
LINE
  8
JISSEN
 10
7939.890436
 20
4247.887257
 30
0.0
 11
7932.890436
 21
4224.887257
 31
0.0
  0
LINE
  8
JISSEN
 10
7932.890436
 20
4224.887257
 30
0.0
 11
7904.890436
 21
4224.887257
 31
0.0
  0
LINE
  8
JISSEN
 10
7979.890436
 20
4247.887257
 30
0.0
 11
7979.890436
 21
3347.887257
 31
0.0
  0
LINE
  8
JISSEN
 10
7979.890436
 20
3347.887257
 30
0.0
 11
7938.890436
 21
3347.887257
 31
0.0
  0
LINE
  8
JISSEN
 10
7904.890436
 20
4224.887257
 30
0.0
 11
7904.890436
 21
3324.887257
 31
0.0
  0
LINE
  8
JISSEN
 10
7004.890436
 20
4224.887257
 30
0.0
 11
7004.890436
 21
3324.887257
 31
0.0
  0
LINE
  8
JISSEN
 10
6929.890436
 20
3347.887257
 30
0.0
 11
6970.890436
 21
3347.887257
 31
0.0
  0
LINE
  8
JISSEN
 10
6929.890436
 20
4247.887257
 30
0.0
 11
6929.890436
 21
3347.887257
 31
0.0
  0
LINE
  8
JISSEN
 10
6976.890436
 20
4224.887257
 30
0.0
 11
7004.890436
 21
4224.887257
 31
0.0
  0
LINE
  8
JISSEN
 10
6969.890436
 20
4247.887257
 30
0.0
 11
6976.890436
 21
4224.887257
 31
0.0
  0
LINE
  8
JISSEN
 10
6929.890436
 20
4247.887257
 30
0.0
 11
6969.890436
 21
4247.887257
 31
0.0
  0
POLYLINE
  8
HATCH
 66
     1
 10
0.0
 20
0.0
 30
0.0
  0
VERTEX
  8
HATCH
 10
7977.113341
 20
2102.92388
 30
0.0
  0
VERTEX
  8
HATCH
 10
8003.923935
 20
2102.92388
 30
0.0
  0
VERTEX
  8
HATCH
 10
8004.761766
 20
2112.665686
 30
0.0
  0
VERTEX
  8
HATCH
 10
7996.383455
 20
2126.509304
 30
0.0
  0
VERTEX
  8
HATCH
 10
7991.356469
 20
2119.843858
 30
0.0
  0
VERTEX
  8
HATCH
 10
7979.626834
 20
2108.563873
 30
0.0
  0
VERTEX
  8
HATCH
 10
7979.626834
 20
2102.92388
 30
0.0
  0
SEQEND
  8
HATCH
  0
POLYLINE
  8
HATCH
 66
     1
 10
0.0
 20
0.0
 30
0.0
  0
VERTEX
  8
HATCH
 10
7995.545624
 20
2256.741862
 30
0.0
  0
VERTEX
  8
HATCH
 10
7999.734779
 20
2268.021848
 30
0.0
  0
VERTEX
  8
HATCH
 10
8004.761766
 20
2283.403646
 30
0.0
  0
VERTEX
  8
HATCH
 10
7996.383455
 20
2300.323624
 30
0.0
  0
VERTEX
  8
HATCH
 10
7986.329483
 20
2300.323624
 30
0.0
  0
VERTEX
  8
HATCH
 10
7974.599848
 20
2294.170905
 30
0.0
  0
VERTEX
  8
HATCH
 10
7976.27551
 20
2290.069092
 30
0.0
  0
VERTEX
  8
HATCH
 10
7983.81599
 20
2273.149114
 30
0.0
  0
VERTEX
  8
HATCH
 10
7990.518638
 20
2260.843675
 30
0.0
  0
VERTEX
  8
HATCH
 10
7995.545624
 20
2256.741862
 30
0.0
  0
SEQEND
  8
HATCH
  0
POLYLINE
  8
HATCH
 66
     1
 10
0.0
 20
0.0
 30
0.0
  0
VERTEX
  8
HATCH
 10
7871.546629
 20
2260.843675
 30
0.0
  0
VERTEX
  8
HATCH
 10
7884.114094
 20
2268.021848
 30
0.0
  0
VERTEX
  8
HATCH
 10
7891.654574
 20
2284.429099
 30
0.0
  0
VERTEX
  8
HATCH
 10
7891.654574
 20
2296.221811
 30
0.0
  0
VERTEX
  8
HATCH
 10
7881.600601
 20
2299.810897
 30
0.0
  0
VERTEX
  8
HATCH
 10
7862.330487
 20
2294.683631
 30
0.0
  0
VERTEX
  8
HATCH
 10
7849.763021
 20
2289.043639
 30
0.0
  0
VERTEX
  8
HATCH
 10
7857.303501
 20
2277.763653
 30
0.0
  0
VERTEX
  8
HATCH
 10
7867.357473
 20
2266.996394
 30
0.0
  0
VERTEX
  8
HATCH
 10
7872.38446
 20
2261.356402
 30
0.0
  0
SEQEND
  8
HATCH
  0
POLYLINE
  8
HATCH
 66
     1
 10
0.0
 20
0.0
 30
0.0
  0
VERTEX
  8
HATCH
 10
7879.924939
 20
2102.92388
 30
0.0
  0
VERTEX
  8
HATCH
 10
7892.492405
 20
2102.92388
 30
0.0
  0
VERTEX
  8
HATCH
 10
7908.411195
 20
2112.665686
 30
0.0
  0
VERTEX
  8
HATCH
 10
7897.519391
 20
2127.022031
 30
0.0
  0
VERTEX
  8
HATCH
 10
7884.951925
 20
2136.25111
 30
0.0
  0
VERTEX
  8
HATCH
 10
7876.573615
 20
2128.560211
 30
0.0
  0
VERTEX
  8
HATCH
 10
7869.870966
 20
2123.945671
 30
0.0
  0
VERTEX
  8
HATCH
 10
7872.38446
 20
2112.665686
 30
0.0
  0
VERTEX
  8
HATCH
 10
7879.087108
 20
2105.487513
 30
0.0
  0
SEQEND
  8
HATCH
  0
POLYLINE
  8
HATCH
 66
     1
 10
0.0
 20
0.0
 30
0.0
  0
VERTEX
  8
HATCH
 10
7756.763774
 20
2101.898427
 30
0.0
  0
VERTEX
  8
HATCH
 10
7771.844733
 20
2104.46206
 30
0.0
  0
VERTEX
  8
HATCH
 10
7780.223044
 20
2118.305678
 30
0.0
  0
VERTEX
  8
HATCH
 10
7769.33124
 20
2128.047484
 30
0.0
  0
VERTEX
  8
HATCH
 10
7756.763774
 20
2136.763836
 30
0.0
  0
VERTEX
  8
HATCH
 10
7748.385464
 20
2128.047484
 30
0.0
  0
VERTEX
  8
HATCH
 10
7746.709802
 20
2122.407491
 30
0.0
  0
VERTEX
  8
HATCH
 10
7747.547633
 20
2111.640233
 30
0.0
  0
VERTEX
  8
HATCH
 10
7754.250281
 20
2101.898427
 30
0.0
  0
SEQEND
  8
HATCH
  0
POLYLINE
  8
HATCH
 66
     1
 10
0.0
 20
0.0
 30
0.0
  0
VERTEX
  8
HATCH
 10
7755.925943
 20
2260.843675
 30
0.0
  0
VERTEX
  8
HATCH
 10
7770.169071
 20
2281.865466
 30
0.0
  0
VERTEX
  8
HATCH
 10
7771.006902
 20
2290.069092
 30
0.0
  0
VERTEX
  8
HATCH
 10
7763.466423
 20
2300.323624
 30
0.0
  0
VERTEX
  8
HATCH
 10
7750.898957
 20
2298.785444
 30
0.0
  0
VERTEX
  8
HATCH
 10
7741.682815
 20
2294.683631
 30
0.0
  0
VERTEX
  8
HATCH
 10
7733.304505
 20
2288.530912
 30
0.0
  0
VERTEX
  8
HATCH
 10
7733.304505
 20
2280.327286
 30
0.0
  0
VERTEX
  8
HATCH
 10
7739.169322
 20
2271.098207
 30
0.0
  0
VERTEX
  8
HATCH
 10
7745.03414
 20
2263.920035
 30
0.0
  0
VERTEX
  8
HATCH
 10
7751.736788
 20
2259.818222
 30
0.0
  0
SEQEND
  8
HATCH
  0
POLYLINE
  8
HATCH
 66
     1
 10
0.0
 20
0.0
 30
0.0
  0
VERTEX
  8
HATCH
 10
7627.737792
 20
2275.20002
 30
0.0
  0
VERTEX
  8
HATCH
 10
7640.305258
 20
2276.225473
 30
0.0
  0
VERTEX
  8
HATCH
 10
7655.386217
 20
2283.403646
 30
0.0
  0
VERTEX
  8
HATCH
 10
7648.683569
 20
2296.221811
 30
0.0
  0
VERTEX
  8
HATCH
 10
7636.953934
 20
2300.323624
 30
0.0
  0
VERTEX
  8
HATCH
 10
7621.872975
 20
2296.221811
 30
0.0
  0
VERTEX
  8
HATCH
 10
7621.035144
 20
2290.069092
 30
0.0
  0
VERTEX
  8
HATCH
 10
7622.710806
 20
2280.840013
 30
0.0
  0
SEQEND
  8
HATCH
  0
POLYLINE
  8
HATCH
 66
     1
 10
0.0
 20
0.0
 30
0.0
  0
VERTEX
  8
HATCH
 10
7636.953934
 20
2102.92388
 30
0.0
  0
VERTEX
  8
HATCH
 10
7654.548386
 20
2111.127506
 30
0.0
  0
VERTEX
  8
HATCH
 10
7659.575372
 20
2121.382038
 30
0.0
  0
VERTEX
  8
HATCH
 10
7646.170076
 20
2132.662023
 30
0.0
  0
VERTEX
  8
HATCH
 10
7626.899961
 20
2143.942009
 30
0.0
  0
VERTEX
  8
HATCH
 10
7619.359482
 20
2137.78929
 30
0.0
  0
VERTEX
  8
HATCH
 10
7612.656833
 20
2124.971124
 30
0.0
  0
VERTEX
  8
HATCH
 10
7623.548637
 20
2108.563873
 30
0.0
  0
VERTEX
  8
HATCH
 10
7630.251286
 20
2103.949333
 30
0.0
  0
VERTEX
  8
HATCH
 10
7634.440441
 20
2103.949333
 30
0.0
  0
SEQEND
  8
HATCH
  0
POLYLINE
  8
HATCH
 66
     1
 10
0.0
 20
0.0
 30
0.0
  0
VERTEX
  8
HATCH
 10
7842.222542
 20
2101.3857
 30
0.0
  0
VERTEX
  8
HATCH
 10
7867.357473
 20
2119.843858
 30
0.0
  0
VERTEX
  8
HATCH
 10
7876.573615
 20
2144.454735
 30
0.0
  0
VERTEX
  8
HATCH
 10
7879.924939
 20
2196.240123
 30
0.0
  0
VERTEX
  8
HATCH
 10
7872.38446
 20
2241.360064
 30
0.0
  0
VERTEX
  8
HATCH
 10
7857.303501
 20
2276.225473
 30
0.0
  0
VERTEX
  8
HATCH
 10
7843.060373
 20
2298.785444
 30
0.0
  0
VERTEX
  8
HATCH
 10
7792.79051
 20
2295.709084
 30
0.0
  0
VERTEX
  8
HATCH
 10
7767.655578
 20
2278.789106
 30
0.0
  0
VERTEX
  8
HATCH
 10
7760.115099
 20
2263.407308
 30
0.0
  0
VERTEX
  8
HATCH
 10
7757.601605
 20
2231.618259
 30
0.0
  0
VERTEX
  8
HATCH
 10
7756.763774
 20
2200.341936
 30
0.0
  0
VERTEX
  8
HATCH
 10
7757.601605
 20
2153.171088
 30
0.0
  0
VERTEX
  8
HATCH
 10
7774.358226
 20
2128.047484
 30
0.0
  0
VERTEX
  8
HATCH
 10
7795.304003
 20
2108.563873
 30
0.0
  0
VERTEX
  8
HATCH
 10
7841.384711
 20
2100.360247
 30
0.0
  0
SEQEND
  8
HATCH
  0
POLYLINE
  8
HATCH
 66
     1
 10
0.0
 20
0.0
 30
0.0
  0
VERTEX
  8
HATCH
 10
7966.221537
 20
2102.92388
 30
0.0
  0
VERTEX
  8
HATCH
 10
7991.356469
 20
2121.382038
 30
0.0
  0
VERTEX
  8
HATCH
 10
8000.572611
 20
2145.992915
 30
0.0
  0
VERTEX
  8
HATCH
 10
8003.923935
 20
2197.778303
 30
0.0
  0
VERTEX
  8
HATCH
 10
7996.383455
 20
2242.898244
 30
0.0
  0
VERTEX
  8
HATCH
 10
7981.302496
 20
2277.763653
 30
0.0
  0
VERTEX
  8
HATCH
 10
7967.059368
 20
2300.323624
 30
0.0
  0
VERTEX
  8
HATCH
 10
7916.789505
 20
2297.247264
 30
0.0
  0
VERTEX
  8
HATCH
 10
7891.654574
 20
2280.327286
 30
0.0
  0
VERTEX
  8
HATCH
 10
7884.114094
 20
2264.945488
 30
0.0
  0
VERTEX
  8
HATCH
 10
7881.600601
 20
2233.156438
 30
0.0
  0
VERTEX
  8
HATCH
 10
7880.76277
 20
2201.880115
 30
0.0
  0
VERTEX
  8
HATCH
 10
7881.600601
 20
2154.709268
 30
0.0
  0
VERTEX
  8
HATCH
 10
7898.357222
 20
2129.585664
 30
0.0
  0
VERTEX
  8
HATCH
 10
7919.302998
 20
2110.102053
 30
0.0
  0
VERTEX
  8
HATCH
 10
7965.383706
 20
2101.898427
 30
0.0
  0
SEQEND
  8
HATCH
  0
POLYLINE
  8
HATCH
 66
     1
 10
0.0
 20
0.0
 30
0.0
  0
VERTEX
  8
HATCH
 10
7153.017098
 20
2101.898427
 30
0.0
  0
VERTEX
  8
HATCH
 10
7137.936139
 20
2104.46206
 30
0.0
  0
VERTEX
  8
HATCH
 10
7129.557829
 20
2118.305678
 30
0.0
  0
VERTEX
  8
HATCH
 10
7140.449633
 20
2128.047484
 30
0.0
  0
VERTEX
  8
HATCH
 10
7153.017098
 20
2136.763836
 30
0.0
  0
VERTEX
  8
HATCH
 10
7161.395409
 20
2128.047484
 30
0.0
  0
VERTEX
  8
HATCH
 10
7163.071071
 20
2122.407491
 30
0.0
  0
VERTEX
  8
HATCH
 10
7162.23324
 20
2111.640233
 30
0.0
  0
VERTEX
  8
HATCH
 10
7155.530591
 20
2101.898427
 30
0.0
  0
SEQEND
  8
HATCH
  0
POLYLINE
  8
HATCH
 66
     1
 10
0.0
 20
0.0
 30
0.0
  0
VERTEX
  8
HATCH
 10
7153.854929
 20
2260.843675
 30
0.0
  0
VERTEX
  8
HATCH
 10
7139.611801
 20
2281.865466
 30
0.0
  0
VERTEX
  8
HATCH
 10
7138.77397
 20
2290.069092
 30
0.0
  0
VERTEX
  8
HATCH
 10
7146.31445
 20
2300.323624
 30
0.0
  0
VERTEX
  8
HATCH
 10
7158.881916
 20
2298.785444
 30
0.0
  0
VERTEX
  8
HATCH
 10
7168.098057
 20
2294.683631
 30
0.0
  0
VERTEX
  8
HATCH
 10
7176.476368
 20
2288.530912
 30
0.0
  0
VERTEX
  8
HATCH
 10
7176.476368
 20
2280.327286
 30
0.0
  0
VERTEX
  8
HATCH
 10
7170.61155
 20
2271.098207
 30
0.0
  0
VERTEX
  8
HATCH
 10
7164.746733
 20
2263.920035
 30
0.0
  0
VERTEX
  8
HATCH
 10
7158.044085
 20
2259.818222
 30
0.0
  0
SEQEND
  8
HATCH
  0
POLYLINE
  8
HATCH
 66
     1
 10
0.0
 20
0.0
 30
0.0
  0
VERTEX
  8
HATCH
 10
7038.234244
 20
2260.843675
 30
0.0
  0
VERTEX
  8
HATCH
 10
7025.666778
 20
2268.021848
 30
0.0
  0
VERTEX
  8
HATCH
 10
7018.126299
 20
2284.429099
 30
0.0
  0
VERTEX
  8
HATCH
 10
7018.126299
 20
2296.221811
 30
0.0
  0
VERTEX
  8
HATCH
 10
7028.180272
 20
2299.810897
 30
0.0
  0
VERTEX
  8
HATCH
 10
7047.450386
 20
2294.683631
 30
0.0
  0
VERTEX
  8
HATCH
 10
7060.017852
 20
2289.043639
 30
0.0
  0
VERTEX
  8
HATCH
 10
7052.477372
 20
2277.763653
 30
0.0
  0
VERTEX
  8
HATCH
 10
7042.423399
 20
2266.996394
 30
0.0
  0
VERTEX
  8
HATCH
 10
7037.396413
 20
2261.356402
 30
0.0
  0
SEQEND
  8
HATCH
  0
POLYLINE
  8
HATCH
 66
     1
 10
0.0
 20
0.0
 30
0.0
  0
VERTEX
  8
HATCH
 10
7029.855934
 20
2102.92388
 30
0.0
  0
VERTEX
  8
HATCH
 10
7017.288468
 20
2102.92388
 30
0.0
  0
VERTEX
  8
HATCH
 10
7001.369678
 20
2112.665686
 30
0.0
  0
VERTEX
  8
HATCH
 10
7012.261482
 20
2127.022031
 30
0.0
  0
VERTEX
  8
HATCH
 10
7024.828947
 20
2136.25111
 30
0.0
  0
VERTEX
  8
HATCH
 10
7033.207258
 20
2128.560211
 30
0.0
  0
VERTEX
  8
HATCH
 10
7039.909906
 20
2123.945671
 30
0.0
  0
VERTEX
  8
HATCH
 10
7037.396413
 20
2112.665686
 30
0.0
  0
VERTEX
  8
HATCH
 10
7030.693765
 20
2105.487513
 30
0.0
  0
SEQEND
  8
HATCH
  0
POLYLINE
  8
HATCH
 66
     1
 10
0.0
 20
0.0
 30
0.0
  0
VERTEX
  8
HATCH
 10
7190.719496
 20
2101.898427
 30
0.0
  0
VERTEX
  8
HATCH
 10
7165.584564
 20
2120.356585
 30
0.0
  0
VERTEX
  8
HATCH
 10
7156.368422
 20
2144.967462
 30
0.0
  0
VERTEX
  8
HATCH
 10
7153.017098
 20
2196.752849
 30
0.0
  0
VERTEX
  8
HATCH
 10
7160.557578
 20
2241.872791
 30
0.0
  0
VERTEX
  8
HATCH
 10
7175.638537
 20
2276.7382
 30
0.0
  0
VERTEX
  8
HATCH
 10
7189.881665
 20
2299.298171
 30
0.0
  0
VERTEX
  8
HATCH
 10
7240.151528
 20
2296.221811
 30
0.0
  0
VERTEX
  8
HATCH
 10
7265.286459
 20
2279.301833
 30
0.0
  0
VERTEX
  8
HATCH
 10
7272.826939
 20
2263.920035
 30
0.0
  0
VERTEX
  8
HATCH
 10
7275.340432
 20
2232.130985
 30
0.0
  0
VERTEX
  8
HATCH
 10
7276.178263
 20
2200.854662
 30
0.0
  0
VERTEX
  8
HATCH
 10
7275.340432
 20
2153.683814
 30
0.0
  0
VERTEX
  8
HATCH
 10
7258.583811
 20
2128.560211
 30
0.0
  0
VERTEX
  8
HATCH
 10
7237.638035
 20
2109.0766
 30
0.0
  0
VERTEX
  8
HATCH
 10
7191.557327
 20
2100.872974
 30
0.0
  0
SEQEND
  8
HATCH
  0
POLYLINE
  8
HATCH
 66
     1
 10
0.0
 20
0.0
 30
0.0
  0
VERTEX
  8
HATCH
 10
7067.558331
 20
2101.3857
 30
0.0
  0
VERTEX
  8
HATCH
 10
7042.423399
 20
2119.843858
 30
0.0
  0
VERTEX
  8
HATCH
 10
7033.207258
 20
2144.454735
 30
0.0
  0
VERTEX
  8
HATCH
 10
7029.855934
 20
2196.240123
 30
0.0
  0
VERTEX
  8
HATCH
 10
7037.396413
 20
2241.360064
 30
0.0
  0
VERTEX
  8
HATCH
 10
7052.477372
 20
2276.225473
 30
0.0
  0
VERTEX
  8
HATCH
 10
7066.7205
 20
2298.785444
 30
0.0
  0
VERTEX
  8
HATCH
 10
7116.990363
 20
2295.709084
 30
0.0
  0
VERTEX
  8
HATCH
 10
7142.125295
 20
2278.789106
 30
0.0
  0
VERTEX
  8
HATCH
 10
7149.665774
 20
2263.407308
 30
0.0
  0
VERTEX
  8
HATCH
 10
7152.179267
 20
2231.618259
 30
0.0
  0
VERTEX
  8
HATCH
 10
7153.017098
 20
2200.341936
 30
0.0
  0
VERTEX
  8
HATCH
 10
7152.179267
 20
2153.171088
 30
0.0
  0
VERTEX
  8
HATCH
 10
7135.422646
 20
2128.047484
 30
0.0
  0
VERTEX
  8
HATCH
 10
7114.47687
 20
2108.563873
 30
0.0
  0
VERTEX
  8
HATCH
 10
7068.396162
 20
2100.360247
 30
0.0
  0
SEQEND
  8
HATCH
  0
POLYLINE
  8
HATCH
 66
     1
 10
0.0
 20
0.0
 30
0.0
  0
VERTEX
  8
HATCH
 10
7153.854929
 20
2260.843675
 30
0.0
  0
VERTEX
  8
HATCH
 10
7139.611801
 20
2281.865466
 30
0.0
  0
VERTEX
  8
HATCH
 10
7138.77397
 20
2290.069092
 30
0.0
  0
VERTEX
  8
HATCH
 10
7146.31445
 20
2300.323624
 30
0.0
  0
VERTEX
  8
HATCH
 10
7158.881916
 20
2298.785444
 30
0.0
  0
VERTEX
  8
HATCH
 10
7168.098057
 20
2294.683631
 30
0.0
  0
VERTEX
  8
HATCH
 10
7176.476368
 20
2288.530912
 30
0.0
  0
VERTEX
  8
HATCH
 10
7176.476368
 20
2280.327286
 30
0.0
  0
VERTEX
  8
HATCH
 10
7170.61155
 20
2271.098207
 30
0.0
  0
VERTEX
  8
HATCH
 10
7164.746733
 20
2263.920035
 30
0.0
  0
VERTEX
  8
HATCH
 10
7158.044085
 20
2259.818222
 30
0.0
  0
SEQEND
  8
HATCH
  0
POLYLINE
  8
HATCH
 66
     1
 10
0.0
 20
0.0
 30
0.0
  0
VERTEX
  8
HATCH
 10
7190.719496
 20
2101.898427
 30
0.0
  0
VERTEX
  8
HATCH
 10
7165.584564
 20
2120.356585
 30
0.0
  0
VERTEX
  8
HATCH
 10
7156.368422
 20
2144.967462
 30
0.0
  0
VERTEX
  8
HATCH
 10
7153.017098
 20
2196.752849
 30
0.0
  0
VERTEX
  8
HATCH
 10
7160.557578
 20
2241.872791
 30
0.0
  0
VERTEX
  8
HATCH
 10
7175.638537
 20
2276.7382
 30
0.0
  0
VERTEX
  8
HATCH
 10
7189.881665
 20
2299.298171
 30
0.0
  0
VERTEX
  8
HATCH
 10
7240.151528
 20
2296.221811
 30
0.0
  0
VERTEX
  8
HATCH
 10
7265.286459
 20
2279.301833
 30
0.0
  0
VERTEX
  8
HATCH
 10
7272.826939
 20
2263.920035
 30
0.0
  0
VERTEX
  8
HATCH
 10
7275.340432
 20
2232.130985
 30
0.0
  0
VERTEX
  8
HATCH
 10
7276.178263
 20
2200.854662
 30
0.0
  0
VERTEX
  8
HATCH
 10
7275.340432
 20
2153.683814
 30
0.0
  0
VERTEX
  8
HATCH
 10
7258.583811
 20
2128.560211
 30
0.0
  0
VERTEX
  8
HATCH
 10
7237.638035
 20
2109.0766
 30
0.0
  0
VERTEX
  8
HATCH
 10
7191.557327
 20
2100.872974
 30
0.0
  0
SEQEND
  8
HATCH
  0
POLYLINE
  8
HATCH
 66
     1
 10
0.0
 20
0.0
 30
0.0
  0
VERTEX
  8
HATCH
 10
7153.017098
 20
2101.898427
 30
0.0
  0
VERTEX
  8
HATCH
 10
7137.936139
 20
2104.46206
 30
0.0
  0
VERTEX
  8
HATCH
 10
7129.557829
 20
2118.305678
 30
0.0
  0
VERTEX
  8
HATCH
 10
7140.449633
 20
2128.047484
 30
0.0
  0
VERTEX
  8
HATCH
 10
7153.017098
 20
2136.763836
 30
0.0
  0
VERTEX
  8
HATCH
 10
7161.395409
 20
2128.047484
 30
0.0
  0
VERTEX
  8
HATCH
 10
7163.071071
 20
2122.407491
 30
0.0
  0
VERTEX
  8
HATCH
 10
7162.23324
 20
2111.640233
 30
0.0
  0
VERTEX
  8
HATCH
 10
7155.530591
 20
2101.898427
 30
0.0
  0
SEQEND
  8
HATCH
  0
POLYLINE
  8
HATCH
 66
     1
 10
0.0
 20
0.0
 30
0.0
  0
VERTEX
  8
HATCH
 10
7153.854929
 20
2260.843675
 30
0.0
  0
VERTEX
  8
HATCH
 10
7139.611801
 20
2281.865466
 30
0.0
  0
VERTEX
  8
HATCH
 10
7138.77397
 20
2290.069092
 30
0.0
  0
VERTEX
  8
HATCH
 10
7146.31445
 20
2300.323624
 30
0.0
  0
VERTEX
  8
HATCH
 10
7158.881916
 20
2298.785444
 30
0.0
  0
VERTEX
  8
HATCH
 10
7168.098057
 20
2294.683631
 30
0.0
  0
VERTEX
  8
HATCH
 10
7176.476368
 20
2288.530912
 30
0.0
  0
VERTEX
  8
HATCH
 10
7176.476368
 20
2280.327286
 30
0.0
  0
VERTEX
  8
HATCH
 10
7170.61155
 20
2271.098207
 30
0.0
  0
VERTEX
  8
HATCH
 10
7164.746733
 20
2263.920035
 30
0.0
  0
VERTEX
  8
HATCH
 10
7158.044085
 20
2259.818222
 30
0.0
  0
SEQEND
  8
HATCH
  0
POLYLINE
  8
HATCH
 66
     1
 10
0.0
 20
0.0
 30
0.0
  0
VERTEX
  8
HATCH
 10
7190.719496
 20
2101.898427
 30
0.0
  0
VERTEX
  8
HATCH
 10
7165.584564
 20
2120.356585
 30
0.0
  0
VERTEX
  8
HATCH
 10
7156.368422
 20
2144.967462
 30
0.0
  0
VERTEX
  8
HATCH
 10
7153.017098
 20
2196.752849
 30
0.0
  0
VERTEX
  8
HATCH
 10
7160.557578
 20
2241.872791
 30
0.0
  0
VERTEX
  8
HATCH
 10
7175.638537
 20
2276.7382
 30
0.0
  0
VERTEX
  8
HATCH
 10
7189.881665
 20
2299.298171
 30
0.0
  0
VERTEX
  8
HATCH
 10
7240.151528
 20
2296.221811
 30
0.0
  0
VERTEX
  8
HATCH
 10
7265.286459
 20
2279.301833
 30
0.0
  0
VERTEX
  8
HATCH
 10
7272.826939
 20
2263.920035
 30
0.0
  0
VERTEX
  8
HATCH
 10
7275.340432
 20
2232.130985
 30
0.0
  0
VERTEX
  8
HATCH
 10
7276.178263
 20
2200.854662
 30
0.0
  0
VERTEX
  8
HATCH
 10
7275.340432
 20
2153.683814
 30
0.0
  0
VERTEX
  8
HATCH
 10
7258.583811
 20
2128.560211
 30
0.0
  0
VERTEX
  8
HATCH
 10
7237.638035
 20
2109.0766
 30
0.0
  0
VERTEX
  8
HATCH
 10
7191.557327
 20
2100.872974
 30
0.0
  0
SEQEND
  8
HATCH
  0
POLYLINE
  8
HATCH
 66
     1
 10
0.0
 20
0.0
 30
0.0
  0
VERTEX
  8
HATCH
 10
7153.017098
 20
2101.898427
 30
0.0
  0
VERTEX
  8
HATCH
 10
7137.936139
 20
2104.46206
 30
0.0
  0
VERTEX
  8
HATCH
 10
7129.557829
 20
2118.305678
 30
0.0
  0
VERTEX
  8
HATCH
 10
7140.449633
 20
2128.047484
 30
0.0
  0
VERTEX
  8
HATCH
 10
7153.017098
 20
2136.763836
 30
0.0
  0
VERTEX
  8
HATCH
 10
7161.395409
 20
2128.047484
 30
0.0
  0
VERTEX
  8
HATCH
 10
7163.071071
 20
2122.407491
 30
0.0
  0
VERTEX
  8
HATCH
 10
7162.23324
 20
2111.640233
 30
0.0
  0
VERTEX
  8
HATCH
 10
7155.530591
 20
2101.898427
 30
0.0
  0
SEQEND
  8
HATCH
  0
POLYLINE
  8
HATCH
 66
     1
 10
0.0
 20
0.0
 30
0.0
  0
VERTEX
  8
HATCH
 10
7277.014929
 20
2260.843675
 30
0.0
  0
VERTEX
  8
HATCH
 10
7262.771801
 20
2281.865466
 30
0.0
  0
VERTEX
  8
HATCH
 10
7261.93397
 20
2290.069092
 30
0.0
  0
VERTEX
  8
HATCH
 10
7269.47445
 20
2300.323624
 30
0.0
  0
VERTEX
  8
HATCH
 10
7282.041916
 20
2298.785444
 30
0.0
  0
VERTEX
  8
HATCH
 10
7291.258057
 20
2294.683631
 30
0.0
  0
VERTEX
  8
HATCH
 10
7299.636368
 20
2288.530912
 30
0.0
  0
VERTEX
  8
HATCH
 10
7299.636368
 20
2280.327286
 30
0.0
  0
VERTEX
  8
HATCH
 10
7293.77155
 20
2271.098207
 30
0.0
  0
VERTEX
  8
HATCH
 10
7287.906733
 20
2263.920035
 30
0.0
  0
VERTEX
  8
HATCH
 10
7281.204085
 20
2259.818222
 30
0.0
  0
SEQEND
  8
HATCH
  0
POLYLINE
  8
HATCH
 66
     1
 10
0.0
 20
0.0
 30
0.0
  0
VERTEX
  8
HATCH
 10
7313.879496
 20
2101.898427
 30
0.0
  0
VERTEX
  8
HATCH
 10
7288.744564
 20
2120.356585
 30
0.0
  0
VERTEX
  8
HATCH
 10
7279.528422
 20
2144.967462
 30
0.0
  0
VERTEX
  8
HATCH
 10
7276.177098
 20
2196.752849
 30
0.0
  0
VERTEX
  8
HATCH
 10
7283.717578
 20
2241.872791
 30
0.0
  0
VERTEX
  8
HATCH
 10
7298.798537
 20
2276.7382
 30
0.0
  0
VERTEX
  8
HATCH
 10
7313.041665
 20
2299.298171
 30
0.0
  0
VERTEX
  8
HATCH
 10
7363.311528
 20
2296.221811
 30
0.0
  0
VERTEX
  8
HATCH
 10
7388.446459
 20
2279.301833
 30
0.0
  0
VERTEX
  8
HATCH
 10
7395.986939
 20
2263.920035
 30
0.0
  0
VERTEX
  8
HATCH
 10
7398.500432
 20
2232.130985
 30
0.0
  0
VERTEX
  8
HATCH
 10
7399.338263
 20
2200.854662
 30
0.0
  0
VERTEX
  8
HATCH
 10
7398.500432
 20
2153.683814
 30
0.0
  0
VERTEX
  8
HATCH
 10
7381.743811
 20
2128.560211
 30
0.0
  0
VERTEX
  8
HATCH
 10
7360.798035
 20
2109.0766
 30
0.0
  0
VERTEX
  8
HATCH
 10
7314.717327
 20
2100.872974
 30
0.0
  0
SEQEND
  8
HATCH
  0
POLYLINE
  8
HATCH
 66
     1
 10
0.0
 20
0.0
 30
0.0
  0
VERTEX
  8
HATCH
 10
7276.177098
 20
2101.898427
 30
0.0
  0
VERTEX
  8
HATCH
 10
7261.096139
 20
2104.46206
 30
0.0
  0
VERTEX
  8
HATCH
 10
7252.717829
 20
2118.305678
 30
0.0
  0
VERTEX
  8
HATCH
 10
7263.609633
 20
2128.047484
 30
0.0
  0
VERTEX
  8
HATCH
 10
7276.177098
 20
2136.763836
 30
0.0
  0
VERTEX
  8
HATCH
 10
7284.555409
 20
2128.047484
 30
0.0
  0
VERTEX
  8
HATCH
 10
7286.231071
 20
2122.407491
 30
0.0
  0
VERTEX
  8
HATCH
 10
7285.39324
 20
2111.640233
 30
0.0
  0
VERTEX
  8
HATCH
 10
7278.690591
 20
2101.898427
 30
0.0
  0
SEQEND
  8
HATCH
  0
POLYLINE
  8
HATCH
 66
     1
 10
0.0
 20
0.0
 30
0.0
  0
VERTEX
  8
HATCH
 10
7400.174929
 20
2260.843675
 30
0.0
  0
VERTEX
  8
HATCH
 10
7385.931801
 20
2281.865466
 30
0.0
  0
VERTEX
  8
HATCH
 10
7385.09397
 20
2290.069092
 30
0.0
  0
VERTEX
  8
HATCH
 10
7392.63445
 20
2300.323624
 30
0.0
  0
VERTEX
  8
HATCH
 10
7405.201916
 20
2298.785444
 30
0.0
  0
VERTEX
  8
HATCH
 10
7414.418057
 20
2294.683631
 30
0.0
  0
VERTEX
  8
HATCH
 10
7422.796368
 20
2288.530912
 30
0.0
  0
VERTEX
  8
HATCH
 10
7422.796368
 20
2280.327286
 30
0.0
  0
VERTEX
  8
HATCH
 10
7416.93155
 20
2271.098207
 30
0.0
  0
VERTEX
  8
HATCH
 10
7411.066733
 20
2263.920035
 30
0.0
  0
VERTEX
  8
HATCH
 10
7404.364085
 20
2259.818222
 30
0.0
  0
SEQEND
  8
HATCH
  0
POLYLINE
  8
HATCH
 66
     1
 10
0.0
 20
0.0
 30
0.0
  0
VERTEX
  8
HATCH
 10
7437.039496
 20
2101.898427
 30
0.0
  0
VERTEX
  8
HATCH
 10
7411.904564
 20
2120.356585
 30
0.0
  0
VERTEX
  8
HATCH
 10
7402.688422
 20
2144.967462
 30
0.0
  0
VERTEX
  8
HATCH
 10
7399.337098
 20
2196.752849
 30
0.0
  0
VERTEX
  8
HATCH
 10
7406.877578
 20
2241.872791
 30
0.0
  0
VERTEX
  8
HATCH
 10
7421.958537
 20
2276.7382
 30
0.0
  0
VERTEX
  8
HATCH
 10
7436.201665
 20
2299.298171
 30
0.0
  0
VERTEX
  8
HATCH
 10
7486.471528
 20
2296.221811
 30
0.0
  0
VERTEX
  8
HATCH
 10
7511.606459
 20
2279.301833
 30
0.0
  0
VERTEX
  8
HATCH
 10
7519.146939
 20
2263.920035
 30
0.0
  0
VERTEX
  8
HATCH
 10
7521.660432
 20
2232.130985
 30
0.0
  0
VERTEX
  8
HATCH
 10
7522.498263
 20
2200.854662
 30
0.0
  0
VERTEX
  8
HATCH
 10
7521.660432
 20
2153.683814
 30
0.0
  0
VERTEX
  8
HATCH
 10
7504.903811
 20
2128.560211
 30
0.0
  0
VERTEX
  8
HATCH
 10
7483.958035
 20
2109.0766
 30
0.0
  0
VERTEX
  8
HATCH
 10
7437.877327
 20
2100.872974
 30
0.0
  0
SEQEND
  8
HATCH
  0
POLYLINE
  8
HATCH
 66
     1
 10
0.0
 20
0.0
 30
0.0
  0
VERTEX
  8
HATCH
 10
7399.337098
 20
2101.898427
 30
0.0
  0
VERTEX
  8
HATCH
 10
7384.256139
 20
2104.46206
 30
0.0
  0
VERTEX
  8
HATCH
 10
7375.877829
 20
2118.305678
 30
0.0
  0
VERTEX
  8
HATCH
 10
7386.769633
 20
2128.047484
 30
0.0
  0
VERTEX
  8
HATCH
 10
7399.337098
 20
2136.763836
 30
0.0
  0
VERTEX
  8
HATCH
 10
7407.715409
 20
2128.047484
 30
0.0
  0
VERTEX
  8
HATCH
 10
7409.391071
 20
2122.407491
 30
0.0
  0
VERTEX
  8
HATCH
 10
7408.55324
 20
2111.640233
 30
0.0
  0
VERTEX
  8
HATCH
 10
7401.850591
 20
2101.898427
 30
0.0
  0
SEQEND
  8
HATCH
  0
POLYLINE
  8
HATCH
 66
     1
 10
0.0
 20
0.0
 30
0.0
  0
VERTEX
  8
HATCH
 10
7523.334929
 20
2260.843675
 30
0.0
  0
VERTEX
  8
HATCH
 10
7509.091801
 20
2281.865466
 30
0.0
  0
VERTEX
  8
HATCH
 10
7508.25397
 20
2290.069092
 30
0.0
  0
VERTEX
  8
HATCH
 10
7515.79445
 20
2300.323624
 30
0.0
  0
VERTEX
  8
HATCH
 10
7528.361916
 20
2298.785444
 30
0.0
  0
VERTEX
  8
HATCH
 10
7537.578057
 20
2294.683631
 30
0.0
  0
VERTEX
  8
HATCH
 10
7545.956368
 20
2288.530912
 30
0.0
  0
VERTEX
  8
HATCH
 10
7545.956368
 20
2280.327286
 30
0.0
  0
VERTEX
  8
HATCH
 10
7540.09155
 20
2271.098207
 30
0.0
  0
VERTEX
  8
HATCH
 10
7534.226733
 20
2263.920035
 30
0.0
  0
VERTEX
  8
HATCH
 10
7527.524085
 20
2259.818222
 30
0.0
  0
SEQEND
  8
HATCH
  0
POLYLINE
  8
HATCH
 66
     1
 10
0.0
 20
0.0
 30
0.0
  0
VERTEX
  8
HATCH
 10
7522.497098
 20
2101.898427
 30
0.0
  0
VERTEX
  8
HATCH
 10
7507.416139
 20
2104.46206
 30
0.0
  0
VERTEX
  8
HATCH
 10
7499.037829
 20
2118.305678
 30
0.0
  0
VERTEX
  8
HATCH
 10
7509.929633
 20
2128.047484
 30
0.0
  0
VERTEX
  8
HATCH
 10
7522.497098
 20
2136.763836
 30
0.0
  0
VERTEX
  8
HATCH
 10
7530.875409
 20
2128.047484
 30
0.0
  0
VERTEX
  8
HATCH
 10
7532.551071
 20
2122.407491
 30
0.0
  0
VERTEX
  8
HATCH
 10
7531.71324
 20
2111.640233
 30
0.0
  0
VERTEX
  8
HATCH
 10
7525.010591
 20
2101.898427
 30
0.0
  0
SEQEND
  8
HATCH
  0
POLYLINE
  8
HATCH
 66
     1
 10
0.0
 20
0.0
 30
0.0
  0
VERTEX
  8
HATCH
 10
7719.061377
 20
2101.898427
 30
0.0
  0
VERTEX
  8
HATCH
 10
7744.196309
 20
2120.356585
 30
0.0
  0
VERTEX
  8
HATCH
 10
7753.41245
 20
2144.967462
 30
0.0
  0
VERTEX
  8
HATCH
 10
7756.763774
 20
2196.752849
 30
0.0
  0
VERTEX
  8
HATCH
 10
7749.223295
 20
2241.872791
 30
0.0
  0
VERTEX
  8
HATCH
 10
7734.142336
 20
2276.7382
 30
0.0
  0
VERTEX
  8
HATCH
 10
7719.899208
 20
2299.298171
 30
0.0
  0
VERTEX
  8
HATCH
 10
7669.629345
 20
2296.221811
 30
0.0
  0
VERTEX
  8
HATCH
 10
7654.136907
 20
2285.79283
 30
0.0
  0
SEQEND
  8
HATCH
  0
POLYLINE
  8
HATCH
 66
     1
 10
0.0
 20
0.0
 30
0.0
  0
VERTEX
  8
HATCH
 10
7647.755859
 20
2133.719689
 30
0.0
  0
VERTEX
  8
HATCH
 10
7651.197062
 20
2128.560211
 30
0.0
  0
VERTEX
  8
HATCH
 10
7672.142838
 20
2109.0766
 30
0.0
  0
VERTEX
  8
HATCH
 10
7718.223546
 20
2100.872974
 30
0.0
  0
SEQEND
  8
HATCH
  0
POLYLINE
  8
HATCH
 66
     1
 10
0.0
 20
0.0
 30
0.0
  0
VERTEX
  8
HATCH
 10
7560.199496
 20
2101.898427
 30
0.0
  0
VERTEX
  8
HATCH
 10
7535.064564
 20
2120.356585
 30
0.0
  0
VERTEX
  8
HATCH
 10
7525.848422
 20
2144.967462
 30
0.0
  0
VERTEX
  8
HATCH
 10
7522.497098
 20
2196.752849
 30
0.0
  0
VERTEX
  8
HATCH
 10
7530.037578
 20
2241.872791
 30
0.0
  0
VERTEX
  8
HATCH
 10
7545.118537
 20
2276.7382
 30
0.0
  0
VERTEX
  8
HATCH
 10
7559.361665
 20
2299.298171
 30
0.0
  0
VERTEX
  8
HATCH
 10
7609.631528
 20
2296.221811
 30
0.0
  0
VERTEX
  8
HATCH
 10
7620.329248
 20
2289.020471
 30
0.0
  0
SEQEND
  8
HATCH
  0
POLYLINE
  8
HATCH
 66
     1
 10
0.0
 20
0.0
 30
0.0
  0
VERTEX
  8
HATCH
 10
7607.118035
 20
2109.0766
 30
0.0
  0
VERTEX
  8
HATCH
 10
7561.037327
 20
2100.872974
 30
0.0
  0
SEQEND
  8
HATCH
  0
LINE
  8
SAISEN
 10
7620.329248
 20
2289.020471
 30
0.0
 11
7627.677414
 21
2256.063592
 31
0.0
  0
LINE
  8
SAISEN
 10
7627.677414
 20
2256.063592
 30
0.0
 11
7636.335654
 21
2228.660864
 31
0.0
  0
LINE
  8
JISSEN
 10
7636.335654
 20
2228.660864
 30
0.0
 11
7635.810912
 21
2197.190543
 31
0.0
  0
LINE
  8
JISSEN
 10
7635.810912
 20
2197.190543
 30
0.0
 11
7632.749918
 21
2151.483648
 31
0.0
  0
LINE
  8
SAISEN
 10
7632.749918
 20
2151.483648
 30
0.0
 11
7619.359482
 21
2137.78929
 31
0.0
  0
LINE
  8
SAISEN
 10
7619.359482
 20
2137.78929
 30
0.0
 11
7612.656833
 21
2124.971124
 31
0.0
  0
LINE
  8
SAISEN
 10
7612.656833
 20
2124.971124
 30
0.0
 11
7607.118035
 21
2109.0766
 31
0.0
  0
LINE
  8
SAISEN
 10
7654.136907
 20
2285.79283
 30
0.0
 11
7638.347165
 21
2258.632598
 31
0.0
  0
LINE
  8
JISSEN
 10
7638.347165
 20
2258.632598
 30
0.0
 11
7636.335654
 21
2228.660864
 31
0.0
  0
LINE
  8
SAISEN
 10
7636.335654
 20
2228.660864
 30
0.0
 11
7635.810912
 21
2197.190543
 31
0.0
  0
LINE
  8
SAISEN
 10
7635.810912
 20
2197.190543
 30
0.0
 11
7632.749918
 21
2151.483648
 31
0.0
  0
LINE
  8
SAISEN
 10
7632.749918
 20
2151.483648
 30
0.0
 11
7646.170076
 21
2132.662023
 31
0.0
  0
LINE
  8
JISSEN
 10
7646.170076
 20
2132.662023
 30
0.0
 11
7659.368216
 21
2120.959461
 31
0.0
  0
LINE
  8
JISSEN
 10
6929.890436
 20
4842.887257
 30
0.0
 11
7007.890436
 21
4842.887257
 31
0.0
  0
LINE
  8
JISSEN
 10
7007.890436
 20
4842.887257
 30
0.0
 11
7013.890436
 21
4827.887257
 31
0.0
  0
LINE
  8
JISSEN
 10
7671.890436
 20
4842.887257
 30
0.0
 11
7665.890436
 21
4827.887257
 31
0.0
  0
LINE
  8
JISSEN
 10
7749.890436
 20
4842.887257
 30
0.0
 11
7671.890436
 21
4842.887257
 31
0.0
  0
LINE
  8
JISSEN
 10
7013.890436
 20
4827.887257
 30
0.0
 11
7339.890436
 21
4827.887257
 31
0.0
  0
LINE
  8
JISSEN
 10
7339.890436
 20
4827.887257
 30
0.0
 11
7665.890436
 21
4827.887257
 31
0.0
  0
LINE
  8
JISSEN
 10
6929.890436
 20
4247.887257
 30
0.0
 11
6970.890436
 21
4247.887257
 31
0.0
  0
LINE
  8
JISSEN
 10
7979.890436
 20
4247.887257
 30
0.0
 11
7938.890436
 21
4247.887257
 31
0.0
  0
LINE
  8
JISSEN
 10
7039.890436
 20
4807.887257
 30
0.0
 11
7004.890436
 21
4224.887257
 31
0.0
  0
LINE
  8
JISSEN
 10
6929.890436
 20
4842.887257
 30
0.0
 11
6929.890436
 21
4247.887257
 31
0.0
  0
LINE
  8
JISSEN
 10
7639.890436
 20
4807.887257
 30
0.0
 11
7904.890436
 21
4224.887257
 31
0.0
  0
LINE
  8
ITTEN
 10
7339.890436
 20
5202.887257
 30
0.0
 11
7339.890436
 21
2002.887257
 31
0.0
  0
LINE
  8
JISSEN
 10
7749.890436
 20
4842.887257
 30
0.0
 11
7979.890436
 21
4307.887257
 31
0.0
  0
LINE
  8
JISSEN
 10
7979.890436
 20
4307.887257
 30
0.0
 11
7979.890436
 21
4247.887257
 31
0.0
  0
LINE
  8
JISSEN
 10
7039.890436
 20
4827.887257
 30
0.0
 11
7039.890436
 21
4807.887257
 31
0.0
  0
LINE
  8
JISSEN
 10
7639.890436
 20
4827.887257
 30
0.0
 11
7639.890436
 21
4807.887257
 31
0.0
  0
ARC
  8
JISSEN
 10
7131.314989
 20
4682.887257
 30
0.0
 40
12.5
 50
270.0
 51
90.0
  0
LINE
  8
JISSEN
 10
7032.344401
 20
4695.387257
 30
0.0
 11
7131.314989
 21
4695.387257
 31
0.0
  0
LINE
  8
JISSEN
 10
7131.314989
 20
4670.387257
 30
0.0
 11
7030.285577
 21
4670.387257
 31
0.0
  0
ARC
  8
JISSEN
 10
7117.243378
 20
4382.887257
 30
0.0
 40
12.5
 50
270.0
 51
90.0
  0
LINE
  8
JISSEN
 10
7018.272789
 20
4395.387257
 30
0.0
 11
7117.243378
 21
4395.387257
 31
0.0
  0
LINE
  8
JISSEN
 10
7117.243378
 20
4370.387257
 30
0.0
 11
7016.213966
 21
4370.387257
 31
0.0
  0
LINE
  8
JISSEN
 10
7004.890436
 20
2984.887257
 30
0.0
 11
6429.890436
 21
2984.887257
 31
0.0
  0
LINE
  8
JISSEN
 10
6429.890436
 20
2952.887257
 30
0.0
 11
7004.890436
 21
2952.887257
 31
0.0
  0
LINE
  8
JISSEN
 10
7004.890436
 20
2602.887257
 30
0.0
 11
6429.890436
 21
2602.887257
 31
0.0
  0
LINE
  8
JISSEN
 10
6429.890436
 20
2570.887257
 30
0.0
 11
7004.890436
 21
2570.887257
 31
0.0
  0
LINE
  8
JISSEN
 10
7904.890436
 20
3004.887257
 30
0.0
 11
8479.890436
 21
3004.887257
 31
0.0
  0
LINE
  8
JISSEN
 10
8479.890436
 20
2972.887257
 30
0.0
 11
7904.890436
 21
2972.887257
 31
0.0
  0
LINE
  8
JISSEN
 10
7904.890436
 20
2622.887257
 30
0.0
 11
8479.890436
 21
2622.887257
 31
0.0
  0
LINE
  8
JISSEN
 10
8479.890436
 20
2590.887257
 30
0.0
 11
7904.890436
 21
2590.887257
 31
0.0
  0
LINE
  8
JISSEN
 10
7004.890436
 20
2602.887257
 30
0.0
 11
7904.890436
 21
2622.887257
 31
0.0
  0
LINE
  8
SAISEN
 10
6429.890436
 20
2877.887257
 30
0.0
 11
6529.890436
 21
2827.887257
 31
0.0
  0
LINE
  8
SAISEN
 10
6529.890436
 20
2827.887257
 30
0.0
 11
6329.890436
 21
2777.887257
 31
0.0
  0
LINE
  8
SAISEN
 10
6329.890436
 20
2777.887257
 30
0.0
 11
6429.890436
 21
2727.887257
 31
0.0
  0
LINE
  8
SAISEN
 10
6429.890436
 20
3109.887257
 30
0.0
 11
6429.890436
 21
2877.887257
 31
0.0
  0
LINE
  8
SAISEN
 10
6429.890436
 20
2727.887257
 30
0.0
 11
6429.890436
 21
2475.887257
 31
0.0
  0
LINE
  8
SAISEN
 10
8479.890436
 20
2742.887257
 30
0.0
 11
8479.890436
 21
2490.887257
 31
0.0
  0
LINE
  8
SAISEN
 10
8479.890436
 20
3124.887257
 30
0.0
 11
8479.890436
 21
2892.887257
 31
0.0
  0
LINE
  8
SAISEN
 10
8379.890436
 20
2792.887257
 30
0.0
 11
8479.890436
 21
2742.887257
 31
0.0
  0
LINE
  8
SAISEN
 10
8579.890436
 20
2842.887257
 30
0.0
 11
8379.890436
 21
2792.887257
 31
0.0
  0
LINE
  8
SAISEN
 10
8479.890436
 20
2892.887257
 30
0.0
 11
8579.890436
 21
2842.887257
 31
0.0
  0
LINE
  8
JISSEN
 10
7004.890436
 20
2984.887257
 30
0.0
 11
7004.890436
 21
2952.887257
 31
0.0
  0
LINE
  8
JISSEN
 10
6929.890436
 20
2570.887257
 30
0.0
 11
6929.890436
 21
2447.887257
 31
0.0
  0
LINE
  8
JISSEN
 10
7004.890436
 20
2602.887257
 30
0.0
 11
7004.890436
 21
2432.887257
 31
0.0
  0
LINE
  8
JISSEN
 10
7904.890436
 20
2622.887257
 30
0.0
 11
7904.890436
 21
2432.887257
 31
0.0
  0
LINE
  8
JISSEN
 10
7979.890436
 20
2590.887257
 30
0.0
 11
7979.890436
 21
2447.887257
 31
0.0
  0
LINE
  8
JISSEN
 10
7754.890436
 20
2432.887257
 30
0.0
 11
7904.890436
 21
2432.887257
 31
0.0
  0
LINE
  8
JISSEN
 10
7754.890436
 20
2432.887257
 30
0.0
 11
7934.890436
 21
2432.887257
 31
0.0
  0
INSERT
  8
HATCH
  2
*X2
 10
0.0
 20
0.0
 30
0.0
  0
INSERT
  8
HATCH
  2
*X3
 10
0.0
 20
0.0
 30
0.0
  0
LINE
  8
JISSEN
 10
6904.890436
 20
2102.887257
 30
0.0
 11
8004.890436
 21
2102.887257
 31
0.0
  0
LINE
  8
JISSEN
 10
8004.890436
 20
2102.887257
 30
0.0
 11
8004.890436
 21
2302.887257
 31
0.0
  0
LINE
  8
JISSEN
 10
8004.890436
 20
2302.887257
 30
0.0
 11
6904.890436
 21
2302.887257
 31
0.0
  0
LINE
  8
JISSEN
 10
7454.890436
 20
2302.887257
 30
0.0
 11
7754.890436
 21
2302.887257
 31
0.0
  0
LINE
  8
JISSEN
 10
6929.890436
 20
4992.887257
 30
0.0
 11
6929.890436
 21
4842.887257
 31
0.0
  0
LINE
  8
JISSEN
 10
6929.890436
 20
4842.887257
 30
0.0
 11
7007.890436
 21
4842.887257
 31
0.0
  0
LINE
  8
JISSEN
 10
6929.890436
 20
4992.887257
 30
0.0
 11
7007.890436
 21
4992.887257
 31
0.0
  0
LINE
  8
JISSEN
 10
7007.890436
 20
4992.887257
 30
0.0
 11
7013.890436
 21
4977.887257
 31
0.0
  0
LINE
  8
JISSEN
 10
7013.890436
 20
4977.887257
 30
0.0
 11
7039.890436
 21
4977.887257
 31
0.0
  0
LINE
  8
JISSEN
 10
7039.890436
 20
4977.887257
 30
0.0
 11
7039.890436
 21
4827.887257
 31
0.0
  0
LINE
  8
JISSEN
 10
7639.890436
 20
4977.887257
 30
0.0
 11
7639.890436
 21
4827.887257
 31
0.0
  0
LINE
  8
JISSEN
 10
7665.890436
 20
4977.887257
 30
0.0
 11
7639.890436
 21
4977.887257
 31
0.0
  0
LINE
  8
JISSEN
 10
7671.890436
 20
4992.887257
 30
0.0
 11
7665.890436
 21
4977.887257
 31
0.0
  0
LINE
  8
JISSEN
 10
7749.890436
 20
4992.887257
 30
0.0
 11
7671.890436
 21
4992.887257
 31
0.0
  0
LINE
  8
JISSEN
 10
7749.890436
 20
4842.887257
 30
0.0
 11
7671.890436
 21
4842.887257
 31
0.0
  0
LINE
  8
JISSEN
 10
7749.890436
 20
4992.887257
 30
0.0
 11
7749.890436
 21
4842.887257
 31
0.0
  0
LINE
  8
JISSEN
 10
7007.890436
 20
4992.887257
 30
0.0
 11
7671.890436
 21
4992.887257
 31
0.0
  0
LINE
  8
JISSEN
 10
7039.890436
 20
4977.887257
 30
0.0
 11
7339.890436
 21
4977.887257
 31
0.0
  0
LINE
  8
JISSEN
 10
7339.890436
 20
4977.887257
 30
0.0
 11
7639.890436
 21
4977.887257
 31
0.0
  0
LINE
  8
JISSEN
 10
6929.890436
 20
4992.887257
 30
0.0
 11
7339.890436
 21
4992.887257
 31
0.0
  0
LINE
  8
JISSEN
 10
6929.890436
 20
4992.887257
 30
0.0
 11
6929.890436
 21
5002.887257
 31
0.0
  0
LINE
  8
JISSEN
 10
6929.890436
 20
5002.887257
 30
0.0
 11
6982.408314
 21
5002.887257
 31
0.0
  0
LINE
  8
JISSEN
 10
6982.408314
 20
5002.887257
 30
0.0
 11
7029.890436
 21
5002.887257
 31
0.0
  0
LINE
  8
JISSEN
 10
7029.890436
 20
5002.887257
 30
0.0
 11
7029.890436
 21
5048.823329
 31
0.0
  0
LINE
  8
JISSEN
 10
7029.890436
 20
5048.823329
 30
0.0
 11
6992.408314
 21
5048.823329
 31
0.0
  0
LINE
  8
JISSEN
 10
6992.408314
 20
5048.823329
 30
0.0
 11
6982.408314
 21
5102.887257
 31
0.0
  0
LINE
  8
JISSEN
 10
6982.408314
 20
5102.887257
 30
0.0
 11
6929.890436
 21
5002.887257
 31
0.0
  0
LINE
  8
JISSEN
 10
6982.408314
 20
5102.887257
 30
0.0
 11
7339.890436
 21
5102.887257
 31
0.0
  0
LINE
  8
JISSEN
 10
6992.408314
 20
5102.887257
 30
0.0
 11
7002.408314
 21
5058.823329
 31
0.0
  0
LINE
  8
JISSEN
 10
7002.408314
 20
5058.823329
 30
0.0
 11
7039.890436
 21
5058.823329
 31
0.0
  0
LINE
  8
JISSEN
 10
7039.890436
 20
5058.823329
 30
0.0
 11
7039.890436
 21
4992.887257
 31
0.0
  0
LINE
  8
JISSEN
 10
7039.890436
 20
5058.823329
 30
0.0
 11
7339.890436
 21
5058.823329
 31
0.0
  0
LINE
  8
JISSEN
 10
7697.372558
 20
5102.887257
 30
0.0
 11
7339.890436
 21
5102.887257
 31
0.0
  0
LINE
  8
JISSEN
 10
7687.372558
 20
5102.887257
 30
0.0
 11
7677.372558
 21
5058.823329
 31
0.0
  0
LINE
  8
JISSEN
 10
7687.372558
 20
5048.823329
 30
0.0
 11
7697.372558
 21
5102.887257
 31
0.0
  0
LINE
  8
JISSEN
 10
7697.372558
 20
5102.887257
 30
0.0
 11
7749.890436
 21
5002.887257
 31
0.0
  0
LINE
  8
JISSEN
 10
7677.372558
 20
5058.823329
 30
0.0
 11
7639.890436
 21
5058.823329
 31
0.0
  0
LINE
  8
JISSEN
 10
7649.890436
 20
5048.823329
 30
0.0
 11
7687.372558
 21
5048.823329
 31
0.0
  0
LINE
  8
JISSEN
 10
7639.890436
 20
5058.823329
 30
0.0
 11
7639.890436
 21
4992.887257
 31
0.0
  0
LINE
  8
JISSEN
 10
7649.890436
 20
5002.887257
 30
0.0
 11
7649.890436
 21
5048.823329
 31
0.0
  0
LINE
  8
JISSEN
 10
7697.372558
 20
5002.887257
 30
0.0
 11
7649.890436
 21
5002.887257
 31
0.0
  0
LINE
  8
JISSEN
 10
7749.890436
 20
5002.887257
 30
0.0
 11
7697.372558
 21
5002.887257
 31
0.0
  0
LINE
  8
JISSEN
 10
7749.890436
 20
4992.887257
 30
0.0
 11
7749.890436
 21
5002.887257
 31
0.0
  0
LINE
  8
JISSEN
 10
7639.890436
 20
5058.823329
 30
0.0
 11
7339.890436
 21
5058.823329
 31
0.0
  0
LINE
  8
JISSEN
 10
7749.890436
 20
4992.887257
 30
0.0
 11
7339.890436
 21
4992.887257
 31
0.0
  0
INSERT
  8
HATCH
  2
STDGX5
 10
0.0
 20
0.0
 30
0.0
  0
LINE
  8
JISSEN
 10
2554.890436
 20
2102.887257
 30
0.0
 11
3356.909086
 21
2102.887257
 31
0.0
  0
LINE
  8
JISSEN
 10
2554.890436
 20
2302.887257
 30
0.0
 11
2554.890436
 21
2102.887257
 31
0.0
  0
POLYLINE
  8
HATCH
 66
     1
 10
0.0
 20
0.0
 30
0.0
  0
VERTEX
  8
HATCH
 10
3222.28062
 20
2108.661112
 30
0.0
  0
VERTEX
  8
HATCH
 10
3207.199661
 20
2111.224745
 30
0.0
  0
VERTEX
  8
HATCH
 10
3198.82135
 20
2125.068363
 30
0.0
  0
VERTEX
  8
HATCH
 10
3209.713154
 20
2134.810169
 30
0.0
  0
VERTEX
  8
HATCH
 10
3222.28062
 20
2143.526521
 30
0.0
  0
VERTEX
  8
HATCH
 10
3230.65893
 20
2134.810169
 30
0.0
  0
VERTEX
  8
HATCH
 10
3232.334592
 20
2129.170176
 30
0.0
  0
VERTEX
  8
HATCH
 10
3231.496761
 20
2118.402917
 30
0.0
  0
VERTEX
  8
HATCH
 10
3224.794113
 20
2108.661112
 30
0.0
  0
SEQEND
  8
HATCH
  0
POLYLINE
  8
HATCH
 66
     1
 10
0.0
 20
0.0
 30
0.0
  0
VERTEX
  8
HATCH
 10
3087.633976
 20
2108.10356
 30
0.0
  0
VERTEX
  8
HATCH
 10
3072.553017
 20
2110.667194
 30
0.0
  0
VERTEX
  8
HATCH
 10
3064.174706
 20
2124.510812
 30
0.0
  0
VERTEX
  8
HATCH
 10
3075.06651
 20
2134.252617
 30
0.0
  0
VERTEX
  8
HATCH
 10
3087.633976
 20
2142.96897
 30
0.0
  0
VERTEX
  8
HATCH
 10
3096.012286
 20
2134.252617
 30
0.0
  0
VERTEX
  8
HATCH
 10
3097.687948
 20
2128.612625
 30
0.0
  0
VERTEX
  8
HATCH
 10
3096.850117
 20
2117.845366
 30
0.0
  0
VERTEX
  8
HATCH
 10
3090.147469
 20
2108.10356
 30
0.0
  0
SEQEND
  8
HATCH
  0
POLYLINE
  8
HATCH
 66
     1
 10
0.0
 20
0.0
 30
0.0
  0
VERTEX
  8
HATCH
 10
3130.241282
 20
2103.489021
 30
0.0
  0
VERTEX
  8
HATCH
 10
3105.10635
 20
2121.947179
 30
0.0
  0
VERTEX
  8
HATCH
 10
3095.890209
 20
2146.558056
 30
0.0
  0
VERTEX
  8
HATCH
 10
3092.538884
 20
2198.343443
 30
0.0
  0
VERTEX
  8
HATCH
 10
3100.079364
 20
2243.463385
 30
0.0
  0
VERTEX
  8
HATCH
 10
3115.160323
 20
2278.328794
 30
0.0
  0
VERTEX
  8
HATCH
 10
3129.403451
 20
2300.888765
 30
0.0
  0
VERTEX
  8
HATCH
 10
3179.673314
 20
2297.812405
 30
0.0
  0
VERTEX
  8
HATCH
 10
3204.808245
 20
2280.892427
 30
0.0
  0
VERTEX
  8
HATCH
 10
3212.348725
 20
2265.510629
 30
0.0
  0
VERTEX
  8
HATCH
 10
3214.862218
 20
2233.721579
 30
0.0
  0
VERTEX
  8
HATCH
 10
3215.700049
 20
2202.445256
 30
0.0
  0
VERTEX
  8
HATCH
 10
3214.862218
 20
2155.274408
 30
0.0
  0
VERTEX
  8
HATCH
 10
3198.105597
 20
2130.150805
 30
0.0
  0
VERTEX
  8
HATCH
 10
3177.159821
 20
2110.667194
 30
0.0
  0
VERTEX
  8
HATCH
 10
3131.079113
 20
2102.463568
 30
0.0
  0
SEQEND
  8
HATCH
  0
POLYLINE
  8
HATCH
 66
     1
 10
0.0
 20
0.0
 30
0.0
  0
VERTEX
  8
HATCH
 10
3086.844976
 20
2260.637369
 30
0.0
  0
VERTEX
  8
HATCH
 10
3072.601848
 20
2281.65916
 30
0.0
  0
VERTEX
  8
HATCH
 10
3071.764017
 20
2289.862786
 30
0.0
  0
VERTEX
  8
HATCH
 10
3079.304496
 20
2300.117318
 30
0.0
  0
VERTEX
  8
HATCH
 10
3091.871962
 20
2298.579138
 30
0.0
  0
VERTEX
  8
HATCH
 10
3101.088104
 20
2294.477325
 30
0.0
  0
VERTEX
  8
HATCH
 10
3109.466414
 20
2288.324606
 30
0.0
  0
VERTEX
  8
HATCH
 10
3109.466414
 20
2280.12098
 30
0.0
  0
VERTEX
  8
HATCH
 10
3103.601597
 20
2270.891901
 30
0.0
  0
VERTEX
  8
HATCH
 10
3097.73678
 20
2263.713729
 30
0.0
  0
VERTEX
  8
HATCH
 10
3091.034131
 20
2259.611916
 30
0.0
  0
SEQEND
  8
HATCH
  0
POLYLINE
  8
HATCH
 66
     1
 10
0.0
 20
0.0
 30
0.0
  0
VERTEX
  8
HATCH
 10
2946.871017
 20
2104.536768
 30
0.0
  0
VERTEX
  8
HATCH
 10
2931.790058
 20
2107.100401
 30
0.0
  0
VERTEX
  8
HATCH
 10
2923.411747
 20
2120.944019
 30
0.0
  0
VERTEX
  8
HATCH
 10
2934.303551
 20
2130.685825
 30
0.0
  0
VERTEX
  8
HATCH
 10
2946.871017
 20
2139.402177
 30
0.0
  0
VERTEX
  8
HATCH
 10
2955.249327
 20
2130.685825
 30
0.0
  0
VERTEX
  8
HATCH
 10
2956.924989
 20
2125.045832
 30
0.0
  0
VERTEX
  8
HATCH
 10
2956.087158
 20
2114.278573
 30
0.0
  0
VERTEX
  8
HATCH
 10
2949.38451
 20
2104.536768
 30
0.0
  0
SEQEND
  8
HATCH
  0
POLYLINE
  8
HATCH
 66
     1
 10
0.0
 20
0.0
 30
0.0
  0
VERTEX
  8
HATCH
 10
2993.178807
 20
2103.489021
 30
0.0
  0
VERTEX
  8
HATCH
 10
2968.043875
 20
2121.947179
 30
0.0
  0
VERTEX
  8
HATCH
 10
2958.827734
 20
2146.558056
 30
0.0
  0
VERTEX
  8
HATCH
 10
2955.47641
 20
2198.343443
 30
0.0
  0
VERTEX
  8
HATCH
 10
2963.016889
 20
2243.463385
 30
0.0
  0
VERTEX
  8
HATCH
 10
2978.097848
 20
2278.328794
 30
0.0
  0
VERTEX
  8
HATCH
 10
2992.340976
 20
2300.888765
 30
0.0
  0
VERTEX
  8
HATCH
 10
3042.610839
 20
2297.812405
 30
0.0
  0
VERTEX
  8
HATCH
 10
3067.745771
 20
2280.892427
 30
0.0
  0
VERTEX
  8
HATCH
 10
3075.28625
 20
2265.510629
 30
0.0
  0
VERTEX
  8
HATCH
 10
3077.799743
 20
2233.721579
 30
0.0
  0
VERTEX
  8
HATCH
 10
3078.637574
 20
2202.445256
 30
0.0
  0
VERTEX
  8
HATCH
 10
3077.799743
 20
2155.274408
 30
0.0
  0
VERTEX
  8
HATCH
 10
3061.043122
 20
2130.150805
 30
0.0
  0
VERTEX
  8
HATCH
 10
3040.097346
 20
2110.667194
 30
0.0
  0
VERTEX
  8
HATCH
 10
2994.016638
 20
2102.463568
 30
0.0
  0
SEQEND
  8
HATCH
  0
POLYLINE
  8
HATCH
 66
     1
 10
0.0
 20
0.0
 30
0.0
  0
VERTEX
  8
HATCH
 10
2951.826688
 20
2260.242038
 30
0.0
  0
VERTEX
  8
HATCH
 10
2937.58356
 20
2281.263829
 30
0.0
  0
VERTEX
  8
HATCH
 10
2936.745729
 20
2289.467454
 30
0.0
  0
VERTEX
  8
HATCH
 10
2944.286208
 20
2299.721987
 30
0.0
  0
VERTEX
  8
HATCH
 10
2956.853674
 20
2298.183807
 30
0.0
  0
VERTEX
  8
HATCH
 10
2966.069816
 20
2294.081994
 30
0.0
  0
VERTEX
  8
HATCH
 10
2974.448126
 20
2287.929275
 30
0.0
  0
VERTEX
  8
HATCH
 10
2974.448126
 20
2279.725649
 30
0.0
  0
VERTEX
  8
HATCH
 10
2968.583309
 20
2270.49657
 30
0.0
  0
VERTEX
  8
HATCH
 10
2962.718491
 20
2263.318398
 30
0.0
  0
VERTEX
  8
HATCH
 10
2956.015843
 20
2259.216585
 30
0.0
  0
SEQEND
  8
HATCH
  0
POLYLINE
  8
HATCH
 66
     1
 10
0.0
 20
0.0
 30
0.0
  0
VERTEX
  8
HATCH
 10
2593.559335
 20
2102.92388
 30
0.0
  0
VERTEX
  8
HATCH
 10
2568.424404
 20
2121.382038
 30
0.0
  0
VERTEX
  8
HATCH
 10
2559.208262
 20
2145.992915
 30
0.0
  0
VERTEX
  8
HATCH
 10
2555.856938
 20
2197.778303
 30
0.0
  0
VERTEX
  8
HATCH
 10
2563.397417
 20
2242.898244
 30
0.0
  0
VERTEX
  8
HATCH
 10
2578.478376
 20
2277.763653
 30
0.0
  0
VERTEX
  8
HATCH
 10
2592.721504
 20
2300.323624
 30
0.0
  0
VERTEX
  8
HATCH
 10
2642.991367
 20
2297.247264
 30
0.0
  0
VERTEX
  8
HATCH
 10
2668.126299
 20
2280.327286
 30
0.0
  0
VERTEX
  8
HATCH
 10
2675.666778
 20
2264.945488
 30
0.0
  0
VERTEX
  8
HATCH
 10
2678.180272
 20
2233.156438
 30
0.0
  0
VERTEX
  8
HATCH
 10
2679.018103
 20
2201.880115
 30
0.0
  0
VERTEX
  8
HATCH
 10
2678.180272
 20
2154.709268
 30
0.0
  0
VERTEX
  8
HATCH
 10
2661.42365
 20
2129.585664
 30
0.0
  0
VERTEX
  8
HATCH
 10
2640.477874
 20
2110.102053
 30
0.0
  0
VERTEX
  8
HATCH
 10
2594.397166
 20
2101.898427
 30
0.0
  0
SEQEND
  8
HATCH
  0
POLYLINE
  8
HATCH
 66
     1
 10
0.0
 20
0.0
 30
0.0
  0
VERTEX
  8
HATCH
 10
2723.594057
 20
2102.968705
 30
0.0
  0
VERTEX
  8
HATCH
 10
2698.459126
 20
2121.426863
 30
0.0
  0
VERTEX
  8
HATCH
 10
2689.242984
 20
2146.03774
 30
0.0
  0
VERTEX
  8
HATCH
 10
2685.89166
 20
2197.823127
 30
0.0
  0
VERTEX
  8
HATCH
 10
2693.432139
 20
2242.943069
 30
0.0
  0
VERTEX
  8
HATCH
 10
2708.513098
 20
2277.808478
 30
0.0
  0
VERTEX
  8
HATCH
 10
2722.756226
 20
2300.368449
 30
0.0
  0
VERTEX
  8
HATCH
 10
2773.026089
 20
2297.292089
 30
0.0
  0
VERTEX
  8
HATCH
 10
2798.161021
 20
2280.372111
 30
0.0
  0
VERTEX
  8
HATCH
 10
2805.7015
 20
2264.990313
 30
0.0
  0
VERTEX
  8
HATCH
 10
2808.214993
 20
2233.201263
 30
0.0
  0
VERTEX
  8
HATCH
 10
2809.052825
 20
2201.92494
 30
0.0
  0
VERTEX
  8
HATCH
 10
2808.214993
 20
2154.754092
 30
0.0
  0
VERTEX
  8
HATCH
 10
2791.458372
 20
2129.630488
 30
0.0
  0
VERTEX
  8
HATCH
 10
2770.512596
 20
2110.146877
 30
0.0
  0
VERTEX
  8
HATCH
 10
2724.431888
 20
2101.943252
 30
0.0
  0
SEQEND
  8
HATCH
  0
POLYLINE
  8
HATCH
 66
     1
 10
0.0
 20
0.0
 30
0.0
  0
VERTEX
  8
HATCH
 10
2858.68163
 20
2103.43705
 30
0.0
  0
VERTEX
  8
HATCH
 10
2833.546698
 20
2121.895208
 30
0.0
  0
VERTEX
  8
HATCH
 10
2824.330556
 20
2146.506085
 30
0.0
  0
VERTEX
  8
HATCH
 10
2820.979232
 20
2198.291472
 30
0.0
  0
VERTEX
  8
HATCH
 10
2828.519712
 20
2243.411414
 30
0.0
  0
VERTEX
  8
HATCH
 10
2843.600671
 20
2278.276823
 30
0.0
  0
VERTEX
  8
HATCH
 10
2857.843798
 20
2300.836794
 30
0.0
  0
VERTEX
  8
HATCH
 10
2908.113662
 20
2297.760434
 30
0.0
  0
VERTEX
  8
HATCH
 10
2933.248593
 20
2280.840456
 30
0.0
  0
VERTEX
  8
HATCH
 10
2940.789073
 20
2265.458658
 30
0.0
  0
VERTEX
  8
HATCH
 10
2943.302566
 20
2233.669608
 30
0.0
  0
VERTEX
  8
HATCH
 10
2944.140397
 20
2202.393285
 30
0.0
  0
VERTEX
  8
HATCH
 10
2943.302566
 20
2155.222437
 30
0.0
  0
VERTEX
  8
HATCH
 10
2926.545945
 20
2130.098834
 30
0.0
  0
VERTEX
  8
HATCH
 10
2905.600168
 20
2110.615223
 30
0.0
  0
VERTEX
  8
HATCH
 10
2859.519461
 20
2102.411597
 30
0.0
  0
SEQEND
  8
HATCH
  0
POLYLINE
  8
HATCH
 66
     1
 10
0.0
 20
0.0
 30
0.0
  0
VERTEX
  8
HATCH
 10
2679.855934
 20
2102.92388
 30
0.0
  0
VERTEX
  8
HATCH
 10
2667.288468
 20
2102.92388
 30
0.0
  0
VERTEX
  8
HATCH
 10
2651.369678
 20
2112.665686
 30
0.0
  0
VERTEX
  8
HATCH
 10
2662.261482
 20
2127.022031
 30
0.0
  0
VERTEX
  8
HATCH
 10
2674.828947
 20
2136.25111
 30
0.0
  0
VERTEX
  8
HATCH
 10
2683.207258
 20
2128.560211
 30
0.0
  0
VERTEX
  8
HATCH
 10
2689.909906
 20
2123.945671
 30
0.0
  0
VERTEX
  8
HATCH
 10
2687.396413
 20
2112.665686
 30
0.0
  0
VERTEX
  8
HATCH
 10
2680.693765
 20
2105.487513
 30
0.0
  0
SEQEND
  8
HATCH
  0
POLYLINE
  8
HATCH
 66
     1
 10
0.0
 20
0.0
 30
0.0
  0
VERTEX
  8
HATCH
 10
2688.234244
 20
2260.843675
 30
0.0
  0
VERTEX
  8
HATCH
 10
2675.666778
 20
2268.021848
 30
0.0
  0
VERTEX
  8
HATCH
 10
2668.126299
 20
2284.429099
 30
0.0
  0
VERTEX
  8
HATCH
 10
2668.126299
 20
2296.221811
 30
0.0
  0
VERTEX
  8
HATCH
 10
2678.180272
 20
2299.810897
 30
0.0
  0
VERTEX
  8
HATCH
 10
2697.450386
 20
2294.683631
 30
0.0
  0
VERTEX
  8
HATCH
 10
2710.017852
 20
2289.043639
 30
0.0
  0
VERTEX
  8
HATCH
 10
2702.477372
 20
2277.763653
 30
0.0
  0
VERTEX
  8
HATCH
 10
2692.423399
 20
2266.996394
 30
0.0
  0
VERTEX
  8
HATCH
 10
2687.396413
 20
2261.356402
 30
0.0
  0
SEQEND
  8
HATCH
  0
POLYLINE
  8
HATCH
 66
     1
 10
0.0
 20
0.0
 30
0.0
  0
VERTEX
  8
HATCH
 10
2564.235248
 20
2256.741862
 30
0.0
  0
VERTEX
  8
HATCH
 10
2560.046093
 20
2268.021848
 30
0.0
  0
VERTEX
  8
HATCH
 10
2555.019107
 20
2283.403646
 30
0.0
  0
VERTEX
  8
HATCH
 10
2563.397417
 20
2300.323624
 30
0.0
  0
VERTEX
  8
HATCH
 10
2573.45139
 20
2300.323624
 30
0.0
  0
VERTEX
  8
HATCH
 10
2585.181025
 20
2294.170905
 30
0.0
  0
VERTEX
  8
HATCH
 10
2583.505363
 20
2290.069092
 30
0.0
  0
VERTEX
  8
HATCH
 10
2575.964883
 20
2273.149114
 30
0.0
  0
VERTEX
  8
HATCH
 10
2569.262235
 20
2260.843675
 30
0.0
  0
VERTEX
  8
HATCH
 10
2564.235248
 20
2256.741862
 30
0.0
  0
SEQEND
  8
HATCH
  0
POLYLINE
  8
HATCH
 66
     1
 10
0.0
 20
0.0
 30
0.0
  0
VERTEX
  8
HATCH
 10
2820.068396
 20
2260.843675
 30
0.0
  0
VERTEX
  8
HATCH
 10
2805.825268
 20
2281.865466
 30
0.0
  0
VERTEX
  8
HATCH
 10
2804.987437
 20
2290.069092
 30
0.0
  0
VERTEX
  8
HATCH
 10
2812.527916
 20
2300.323624
 30
0.0
  0
VERTEX
  8
HATCH
 10
2825.095382
 20
2298.785444
 30
0.0
  0
VERTEX
  8
HATCH
 10
2834.311524
 20
2294.683631
 30
0.0
  0
VERTEX
  8
HATCH
 10
2842.689834
 20
2288.530912
 30
0.0
  0
VERTEX
  8
HATCH
 10
2842.689834
 20
2280.327286
 30
0.0
  0
VERTEX
  8
HATCH
 10
2836.825017
 20
2271.098207
 30
0.0
  0
VERTEX
  8
HATCH
 10
2830.9602
 20
2263.920035
 30
0.0
  0
VERTEX
  8
HATCH
 10
2824.257551
 20
2259.818222
 30
0.0
  0
SEQEND
  8
HATCH
  0
POLYLINE
  8
HATCH
 66
     1
 10
0.0
 20
0.0
 30
0.0
  0
VERTEX
  8
HATCH
 10
2814.943506
 20
2103.979512
 30
0.0
  0
VERTEX
  8
HATCH
 10
2799.862547
 20
2106.543145
 30
0.0
  0
VERTEX
  8
HATCH
 10
2791.484236
 20
2120.386763
 30
0.0
  0
VERTEX
  8
HATCH
 10
2802.37604
 20
2130.128569
 30
0.0
  0
VERTEX
  8
HATCH
 10
2814.943506
 20
2138.844921
 30
0.0
  0
VERTEX
  8
HATCH
 10
2823.321816
 20
2130.128569
 30
0.0
  0
VERTEX
  8
HATCH
 10
2824.997479
 20
2124.488576
 30
0.0
  0
VERTEX
  8
HATCH
 10
2824.159647
 20
2113.721318
 30
0.0
  0
VERTEX
  8
HATCH
 10
2817.456999
 20
2103.979512
 30
0.0
  0
SEQEND
  8
HATCH
  0
POLYLINE
  8
HATCH
 66
     1
 10
0.0
 20
0.0
 30
0.0
  0
VERTEX
  8
HATCH
 10
2582.667532
 20
2102.92388
 30
0.0
  0
VERTEX
  8
HATCH
 10
2555.856938
 20
2102.92388
 30
0.0
  0
VERTEX
  8
HATCH
 10
2555.019107
 20
2112.665686
 30
0.0
  0
VERTEX
  8
HATCH
 10
2563.397417
 20
2126.509304
 30
0.0
  0
VERTEX
  8
HATCH
 10
2568.424404
 20
2119.843858
 30
0.0
  0
VERTEX
  8
HATCH
 10
2580.154038
 20
2108.563873
 30
0.0
  0
VERTEX
  8
HATCH
 10
2580.154038
 20
2102.92388
 30
0.0
  0
SEQEND
  8
HATCH
  0
LINE
  8
SUNPOU
 10
2934.890436
 20
2432.887257
 30
0.0
 11
2949.970241
 21
2432.887257
 31
0.0
  0
LINE
  8
SUNPOU
 10
2774.890436
 20
2432.887257
 30
0.0
 11
2774.890436
 21
2432.887257
 31
0.0
  0
LINE
  8
JISSEN
 10
2654.890436
 20
2432.887257
 30
0.0
 11
3254.890436
 21
2432.887257
 31
0.0
  0
LINE
  8
JISSEN
 10
2954.890436
 20
3324.887257
 30
0.0
 11
3254.890436
 21
3324.887257
 31
0.0
  0
LINE
  8
JISSEN
 10
2654.890436
 20
3324.887257
 30
0.0
 11
2954.890436
 21
3324.887257
 31
0.0
  0
LINE
  8
JISSEN
 10
3329.890436
 20
3347.887257
 30
0.0
 11
3289.890436
 21
3347.887257
 31
0.0
  0
LINE
  8
JISSEN
 10
3289.890436
 20
3347.887257
 30
0.0
 11
3282.890436
 21
3324.887257
 31
0.0
  0
LINE
  8
JISSEN
 10
3282.890436
 20
3324.887257
 30
0.0
 11
3254.890436
 21
3324.887257
 31
0.0
  0
LINE
  8
JISSEN
 10
3329.890436
 20
3347.887257
 30
0.0
 11
3329.890436
 21
2447.887257
 31
0.0
  0
LINE
  8
JISSEN
 10
3329.890436
 20
2447.887257
 30
0.0
 11
3288.890436
 21
2447.887257
 31
0.0
  0
LINE
  8
JISSEN
 10
3279.890436
 20
2432.887257
 30
0.0
 11
3254.890436
 21
2432.887257
 31
0.0
  0
LINE
  8
JISSEN
 10
3254.890436
 20
3324.887257
 30
0.0
 11
3254.890436
 21
2432.887257
 31
0.0
  0
LINE
  8
JISSEN
 10
2654.890436
 20
3324.887257
 30
0.0
 11
2654.890436
 21
2432.887257
 31
0.0
  0
LINE
  8
JISSEN
 10
2629.890436
 20
2432.887257
 30
0.0
 11
2654.890436
 21
2432.887257
 31
0.0
  0
LINE
  8
JISSEN
 10
2579.890436
 20
2447.887257
 30
0.0
 11
2620.890436
 21
2447.887257
 31
0.0
  0
LINE
  8
JISSEN
 10
2579.890436
 20
3347.887257
 30
0.0
 11
2579.890436
 21
2447.887257
 31
0.0
  0
LINE
  8
JISSEN
 10
2626.890436
 20
3324.887257
 30
0.0
 11
2654.890436
 21
3324.887257
 31
0.0
  0
LINE
  8
JISSEN
 10
2619.890436
 20
3347.887257
 30
0.0
 11
2626.890436
 21
3324.887257
 31
0.0
  0
LINE
  8
JISSEN
 10
2579.890436
 20
3347.887257
 30
0.0
 11
2619.890436
 21
3347.887257
 31
0.0
  0
LINE
  8
ITTEN
 10
2954.890436
 20
3447.887257
 30
0.0
 11
2954.890436
 21
2347.887257
 31
0.0
  0
LINE
  8
JISSEN
 10
2954.890436
 20
3170.387257
 30
0.0
 11
2818.390436
 21
3170.387257
 31
0.0
  0
LINE
  8
JISSEN
 10
3091.390436
 20
3170.387257
 30
0.0
 11
2954.890436
 21
3170.387257
 31
0.0
  0
LINE
  8
JISSEN
 10
2954.890436
 20
3195.387257
 30
0.0
 11
3091.390436
 21
3195.387257
 31
0.0
  0
LINE
  8
JISSEN
 10
2818.390436
 20
3195.387257
 30
0.0
 11
2954.890436
 21
3195.387257
 31
0.0
  0
ARC
  8
JISSEN
 10
2818.390436
 20
3182.887257
 30
0.0
 40
12.5
 50
90.0
 51
270.0
  0
ARC
  8
JISSEN
 10
3091.390436
 20
3182.887257
 30
0.0
 40
12.5
 50
270.0
 51
90.0
  0
LINE
  8
ITTEN
 10
2954.890436
 20
2547.887257
 30
0.0
 11
2954.890436
 21
2050.372495
 31
0.0
  0
LINE
  8
JISSEN
 10
3104.890436
 20
2432.887257
 30
0.0
 11
3104.890436
 21
2302.887257
 31
0.0
  0
LINE
  8
JISSEN
 10
2804.890436
 20
2432.887257
 30
0.0
 11
2804.890436
 21
2302.887257
 31
0.0
  0
LINE
  8
JISSEN
 10
2554.890436
 20
2302.887257
 30
0.0
 11
2554.890436
 21
2447.887257
 31
0.0
  0
LINE
  8
JISSEN
 10
3354.890436
 20
2302.887257
 30
0.0
 11
2554.890436
 21
2302.887257
 31
0.0
  0
LINE
  8
JISSEN
 10
3354.890436
 20
2447.887257
 30
0.0
 11
3354.890436
 21
2302.887257
 31
0.0
  0
LINE
  8
JISSEN
 10
3289.890436
 20
2447.887257
 30
0.0
 11
3354.890436
 21
2447.887257
 31
0.0
  0
LINE
  8
JISSEN
 10
3284.890436
 20
2432.887257
 30
0.0
 11
3289.890436
 21
2447.887257
 31
0.0
  0
LINE
  8
JISSEN
 10
2954.890436
 20
2432.887257
 30
0.0
 11
3284.890436
 21
2432.887257
 31
0.0
  0
LINE
  8
JISSEN
 10
2624.890436
 20
2432.887257
 30
0.0
 11
2954.890436
 21
2432.887257
 31
0.0
  0
LINE
  8
JISSEN
 10
2619.890436
 20
2447.887257
 30
0.0
 11
2624.890436
 21
2432.887257
 31
0.0
  0
LINE
  8
JISSEN
 10
2554.890436
 20
2447.887257
 30
0.0
 11
2619.890436
 21
2447.887257
 31
0.0
  0
LINE
  8
JISSEN
 10
3354.890436
 20
2447.887257
 30
0.0
 11
3354.890436
 21
2102.887257
 31
0.0
  0
LINE
  8
JISSEN
 10
3354.890436
 20
2302.887257
 30
0.0
 11
2554.890436
 21
2302.887257
 31
0.0
  0
POLYLINE
  8
HATCH
 66
     1
 10
0.0
 20
0.0
 30
0.0
  0
VERTEX
  8
HATCH
 10
3265.725757
 20
2101.950841
 30
0.0
  0
VERTEX
  8
HATCH
 10
3240.590825
 20
2120.408999
 30
0.0
  0
VERTEX
  8
HATCH
 10
3231.374684
 20
2145.019876
 30
0.0
  0
VERTEX
  8
HATCH
 10
3228.023359
 20
2196.805263
 30
0.0
  0
VERTEX
  8
HATCH
 10
3235.563839
 20
2241.925205
 30
0.0
  0
VERTEX
  8
HATCH
 10
3250.644798
 20
2276.790614
 30
0.0
  0
VERTEX
  8
HATCH
 10
3264.887926
 20
2299.350585
 30
0.0
  0
VERTEX
  8
HATCH
 10
3315.157789
 20
2296.274225
 30
0.0
  0
VERTEX
  8
HATCH
 10
3340.29272
 20
2279.354247
 30
0.0
  0
VERTEX
  8
HATCH
 10
3347.8332
 20
2263.972449
 30
0.0
  0
VERTEX
  8
HATCH
 10
3350.346693
 20
2232.183399
 30
0.0
  0
VERTEX
  8
HATCH
 10
3351.184524
 20
2200.907076
 30
0.0
  0
VERTEX
  8
HATCH
 10
3350.346693
 20
2153.736228
 30
0.0
  0
VERTEX
  8
HATCH
 10
3333.590072
 20
2128.612625
 30
0.0
  0
VERTEX
  8
HATCH
 10
3312.644296
 20
2109.129014
 30
0.0
  0
VERTEX
  8
HATCH
 10
3266.563588
 20
2100.925388
 30
0.0
  0
SEQEND
  8
HATCH
  0
POLYLINE
  8
HATCH
 66
     1
 10
0.0
 20
0.0
 30
0.0
  0
VERTEX
  8
HATCH
 10
3224.916191
 20
2258.451989
 30
0.0
  0
VERTEX
  8
HATCH
 10
3210.673063
 20
2279.47378
 30
0.0
  0
VERTEX
  8
HATCH
 10
3209.835232
 20
2287.677405
 30
0.0
  0
VERTEX
  8
HATCH
 10
3217.375711
 20
2297.931938
 30
0.0
  0
VERTEX
  8
HATCH
 10
3229.943177
 20
2296.393758
 30
0.0
  0
VERTEX
  8
HATCH
 10
3239.159319
 20
2292.291945
 30
0.0
  0
VERTEX
  8
HATCH
 10
3247.537629
 20
2286.139226
 30
0.0
  0
VERTEX
  8
HATCH
 10
3247.537629
 20
2277.9356
 30
0.0
  0
VERTEX
  8
HATCH
 10
3241.672812
 20
2268.706521
 30
0.0
  0
VERTEX
  8
HATCH
 10
3235.807994
 20
2261.528348
 30
0.0
  0
VERTEX
  8
HATCH
 10
3229.105346
 20
2257.426536
 30
0.0
  0
SEQEND
  8
HATCH
  0
LINE
  8
JISSEN
 10
2554.890436
 20
2302.887257
 30
0.0
 11
3354.890436
 21
2302.887257
 31
0.0
  0
LINE
  8
JISSEN
 10
3329.890436
 20
4247.887257
 30
0.0
 11
3289.890436
 21
4247.887257
 31
0.0
  0
LINE
  8
JISSEN
 10
3329.890436
 20
3347.887257
 30
0.0
 11
3289.890436
 21
3347.887257
 31
0.0
  0
LINE
  8
JISSEN
 10
2579.890436
 20
3347.887257
 30
0.0
 11
2619.890436
 21
3347.887257
 31
0.0
  0
LINE
  8
JISSEN
 10
2579.890436
 20
4247.887257
 30
0.0
 11
2619.890436
 21
4247.887257
 31
0.0
  0
LINE
  8
ITTEN
 10
2954.890436
 20
4050.729024
 30
0.0
 11
2954.890436
 21
3250.729024
 31
0.0
  0
LINE
  8
JISSEN
 10
2579.890436
 20
4307.887257
 30
0.0
 11
2579.890436
 21
4247.887257
 31
0.0
  0
LINE
  8
JISSEN
 10
2544.890436
 20
4842.887257
 30
0.0
 11
2544.890436
 21
4782.887257
 31
0.0
  0
LINE
  8
JISSEN
 10
2544.890436
 20
4782.887257
 30
0.0
 11
2579.890436
 21
4307.887257
 31
0.0
  0
LINE
  8
JISSEN
 10
2654.890436
 20
4827.887257
 30
0.0
 11
2654.890436
 21
4224.887257
 31
0.0
  0
LINE
  8
JISSEN
 10
2544.890436
 20
4842.887257
 30
0.0
 11
2622.890436
 21
4842.887257
 31
0.0
  0
LINE
  8
JISSEN
 10
2622.890436
 20
4842.887257
 30
0.0
 11
2628.890436
 21
4827.887257
 31
0.0
  0
LINE
  8
JISSEN
 10
2628.890436
 20
4827.887257
 30
0.0
 11
2654.890436
 21
4827.887257
 31
0.0
  0
ARC
  8
JISSEN
 10
2818.390436
 20
4382.887257
 30
0.0
 40
12.5
 50
90.0
 51
270.0
  0
LINE
  8
JISSEN
 10
2818.390436
 20
4395.387257
 30
0.0
 11
2954.890436
 21
4395.387257
 31
0.0
  0
LINE
  8
JISSEN
 10
2954.890436
 20
4395.387257
 30
0.0
 11
3091.390436
 21
4395.387257
 31
0.0
  0
LINE
  8
JISSEN
 10
3091.390436
 20
4370.387257
 30
0.0
 11
2954.890436
 21
4370.387257
 31
0.0
  0
LINE
  8
JISSEN
 10
2954.890436
 20
4370.387257
 30
0.0
 11
2818.390436
 21
4370.387257
 31
0.0
  0
LINE
  8
JISSEN
 10
2954.890436
 20
4670.387257
 30
0.0
 11
2818.390436
 21
4670.387257
 31
0.0
  0
LINE
  8
JISSEN
 10
3091.390436
 20
4670.387257
 30
0.0
 11
2954.890436
 21
4670.387257
 31
0.0
  0
LINE
  8
JISSEN
 10
2954.890436
 20
4695.387257
 30
0.0
 11
3091.390436
 21
4695.387257
 31
0.0
  0
LINE
  8
JISSEN
 10
2818.390436
 20
4695.387257
 30
0.0
 11
2954.890436
 21
4695.387257
 31
0.0
  0
ARC
  8
JISSEN
 10
2818.390436
 20
4682.887257
 30
0.0
 40
12.5
 50
90.0
 51
270.0
  0
LINE
  8
JISSEN
 10
2954.890436
 20
4827.887257
 30
0.0
 11
2654.890436
 21
4827.887257
 31
0.0
  0
ARC
  8
JISSEN
 10
3091.390436
 20
4682.887257
 30
0.0
 40
12.5
 50
270.0
 51
90.0
  0
ARC
  8
JISSEN
 10
3091.390436
 20
4382.887257
 30
0.0
 40
12.5
 50
270.0
 51
90.0
  0
LINE
  8
JISSEN
 10
3280.890436
 20
4827.887257
 30
0.0
 11
3254.890436
 21
4827.887257
 31
0.0
  0
LINE
  8
JISSEN
 10
3286.890436
 20
4842.887257
 30
0.0
 11
3280.890436
 21
4827.887257
 31
0.0
  0
LINE
  8
JISSEN
 10
3364.890436
 20
4842.887257
 30
0.0
 11
3286.890436
 21
4842.887257
 31
0.0
  0
LINE
  8
JISSEN
 10
3254.890436
 20
4827.887257
 30
0.0
 11
3254.890436
 21
4224.887257
 31
0.0
  0
LINE
  8
JISSEN
 10
3364.890436
 20
4782.887257
 30
0.0
 11
3329.890436
 21
4307.887257
 31
0.0
  0
LINE
  8
JISSEN
 10
3364.890436
 20
4842.887257
 30
0.0
 11
3364.890436
 21
4782.887257
 31
0.0
  0
LINE
  8
JISSEN
 10
3329.890436
 20
4307.887257
 30
0.0
 11
3329.890436
 21
4247.887257
 31
0.0
  0
LINE
  8
JISSEN
 10
3254.890436
 20
4827.887257
 30
0.0
 11
2954.890436
 21
4827.887257
 31
0.0
  0
LINE
  8
ITTEN
 10
2954.890436
 20
5202.887257
 30
0.0
 11
2954.890436
 21
3835.729024
 31
0.0
  0
LINE
  8
JISSEN
 10
3364.890436
 20
4992.887257
 30
0.0
 11
2954.890436
 21
4992.887257
 31
0.0
  0
LINE
  8
JISSEN
 10
3254.890436
 20
5058.823329
 30
0.0
 11
2954.890436
 21
5058.823329
 31
0.0
  0
LINE
  8
JISSEN
 10
3364.890436
 20
4992.887257
 30
0.0
 11
3364.890436
 21
5002.887257
 31
0.0
  0
LINE
  8
JISSEN
 10
3364.890436
 20
5002.887257
 30
0.0
 11
3312.372558
 21
5002.887257
 31
0.0
  0
LINE
  8
JISSEN
 10
3312.372558
 20
5002.887257
 30
0.0
 11
3264.890436
 21
5002.887257
 31
0.0
  0
LINE
  8
JISSEN
 10
3264.890436
 20
5002.887257
 30
0.0
 11
3264.890436
 21
5048.823329
 31
0.0
  0
LINE
  8
JISSEN
 10
3254.890436
 20
5058.823329
 30
0.0
 11
3254.890436
 21
4992.887257
 31
0.0
  0
LINE
  8
JISSEN
 10
3264.890436
 20
5048.823329
 30
0.0
 11
3302.372558
 21
5048.823329
 31
0.0
  0
LINE
  8
JISSEN
 10
3292.372558
 20
5058.823329
 30
0.0
 11
3254.890436
 21
5058.823329
 31
0.0
  0
LINE
  8
JISSEN
 10
3312.372558
 20
5102.887257
 30
0.0
 11
3364.890436
 21
5002.887257
 31
0.0
  0
LINE
  8
JISSEN
 10
3302.372558
 20
5048.823329
 30
0.0
 11
3312.372558
 21
5102.887257
 31
0.0
  0
LINE
  8
JISSEN
 10
3302.372558
 20
5102.887257
 30
0.0
 11
3292.372558
 21
5058.823329
 31
0.0
  0
LINE
  8
JISSEN
 10
3312.372558
 20
5102.887257
 30
0.0
 11
2954.890436
 21
5102.887257
 31
0.0
  0
LINE
  8
JISSEN
 10
2654.890436
 20
5058.823329
 30
0.0
 11
2954.890436
 21
5058.823329
 31
0.0
  0
LINE
  8
JISSEN
 10
2654.890436
 20
5058.823329
 30
0.0
 11
2654.890436
 21
4992.887257
 31
0.0
  0
LINE
  8
JISSEN
 10
2617.408314
 20
5058.823329
 30
0.0
 11
2654.890436
 21
5058.823329
 31
0.0
  0
LINE
  8
JISSEN
 10
2607.408314
 20
5102.887257
 30
0.0
 11
2617.408314
 21
5058.823329
 31
0.0
  0
LINE
  8
JISSEN
 10
2597.408314
 20
5102.887257
 30
0.0
 11
2954.890436
 21
5102.887257
 31
0.0
  0
LINE
  8
JISSEN
 10
2597.408314
 20
5102.887257
 30
0.0
 11
2544.890436
 21
5002.887257
 31
0.0
  0
LINE
  8
JISSEN
 10
2607.408314
 20
5048.823329
 30
0.0
 11
2597.408314
 21
5102.887257
 31
0.0
  0
LINE
  8
JISSEN
 10
2644.890436
 20
5048.823329
 30
0.0
 11
2607.408314
 21
5048.823329
 31
0.0
  0
LINE
  8
JISSEN
 10
2644.890436
 20
5002.887257
 30
0.0
 11
2644.890436
 21
5048.823329
 31
0.0
  0
LINE
  8
JISSEN
 10
2597.408314
 20
5002.887257
 30
0.0
 11
2644.890436
 21
5002.887257
 31
0.0
  0
LINE
  8
JISSEN
 10
2544.890436
 20
5002.887257
 30
0.0
 11
2597.408314
 21
5002.887257
 31
0.0
  0
LINE
  8
JISSEN
 10
2544.890436
 20
4992.887257
 30
0.0
 11
2544.890436
 21
5002.887257
 31
0.0
  0
LINE
  8
JISSEN
 10
2544.890436
 20
4992.887257
 30
0.0
 11
2954.890436
 21
4992.887257
 31
0.0
  0
LINE
  8
JISSEN
 10
2954.890436
 20
4977.887257
 30
0.0
 11
3254.890436
 21
4977.887257
 31
0.0
  0
LINE
  8
JISSEN
 10
2654.890436
 20
4977.887257
 30
0.0
 11
2954.890436
 21
4977.887257
 31
0.0
  0
LINE
  8
JISSEN
 10
2622.890436
 20
4992.887257
 30
0.0
 11
3286.890436
 21
4992.887257
 31
0.0
  0
LINE
  8
JISSEN
 10
3364.890436
 20
4992.887257
 30
0.0
 11
3364.890436
 21
4842.887257
 31
0.0
  0
LINE
  8
JISSEN
 10
3364.890436
 20
4842.887257
 30
0.0
 11
3286.890436
 21
4842.887257
 31
0.0
  0
LINE
  8
JISSEN
 10
3364.890436
 20
4992.887257
 30
0.0
 11
3286.890436
 21
4992.887257
 31
0.0
  0
LINE
  8
JISSEN
 10
3286.890436
 20
4992.887257
 30
0.0
 11
3280.890436
 21
4977.887257
 31
0.0
  0
LINE
  8
JISSEN
 10
3280.890436
 20
4977.887257
 30
0.0
 11
3254.890436
 21
4977.887257
 31
0.0
  0
LINE
  8
JISSEN
 10
3254.890436
 20
4977.887257
 30
0.0
 11
3254.890436
 21
4827.887257
 31
0.0
  0
LINE
  8
JISSEN
 10
2654.890436
 20
4977.887257
 30
0.0
 11
2654.890436
 21
4827.887257
 31
0.0
  0
LINE
  8
JISSEN
 10
2628.890436
 20
4977.887257
 30
0.0
 11
2654.890436
 21
4977.887257
 31
0.0
  0
LINE
  8
JISSEN
 10
2622.890436
 20
4992.887257
 30
0.0
 11
2628.890436
 21
4977.887257
 31
0.0
  0
LINE
  8
JISSEN
 10
2544.890436
 20
4992.887257
 30
0.0
 11
2622.890436
 21
4992.887257
 31
0.0
  0
LINE
  8
JISSEN
 10
2544.890436
 20
4842.887257
 30
0.0
 11
2622.890436
 21
4842.887257
 31
0.0
  0
LINE
  8
JISSEN
 10
2544.890436
 20
4992.887257
 30
0.0
 11
2544.890436
 21
4842.887257
 31
0.0
  0
LINE
  8
JISSEN
 10
2954.890436
 20
4827.887257
 30
0.0
 11
3280.890436
 21
4827.887257
 31
0.0
  0
LINE
  8
JISSEN
 10
2628.890436
 20
4827.887257
 30
0.0
 11
2954.890436
 21
4827.887257
 31
0.0
  0
LINE
  8
JISSEN
 10
3364.890436
 20
4842.887257
 30
0.0
 11
3286.890436
 21
4842.887257
 31
0.0
  0
LINE
  8
JISSEN
 10
3286.890436
 20
4842.887257
 30
0.0
 11
3280.890436
 21
4827.887257
 31
0.0
  0
LINE
  8
JISSEN
 10
2622.890436
 20
4842.887257
 30
0.0
 11
2628.890436
 21
4827.887257
 31
0.0
  0
LINE
  8
JISSEN
 10
2544.890436
 20
4842.887257
 30
0.0
 11
2622.890436
 21
4842.887257
 31
0.0
  0
ARC
  8
JISSEN
 10
3091.390436
 20
4082.887257
 30
0.0
 40
12.5
 50
270.0
 51
90.0
  0
ARC
  8
JISSEN
 10
2818.390436
 20
4082.887257
 30
0.0
 40
12.5
 50
90.0
 51
270.0
  0
LINE
  8
JISSEN
 10
2818.390436
 20
4095.387257
 30
0.0
 11
2954.890436
 21
4095.387257
 31
0.0
  0
LINE
  8
JISSEN
 10
2954.890436
 20
4095.387257
 30
0.0
 11
3091.390436
 21
4095.387257
 31
0.0
  0
LINE
  8
JISSEN
 10
3091.390436
 20
4070.387257
 30
0.0
 11
2954.890436
 21
4070.387257
 31
0.0
  0
LINE
  8
JISSEN
 10
2954.890436
 20
4070.387257
 30
0.0
 11
2818.390436
 21
4070.387257
 31
0.0
  0
ARC
  8
JISSEN
 10
3091.390436
 20
3782.887257
 30
0.0
 40
12.5
 50
270.0
 51
90.0
  0
ARC
  8
JISSEN
 10
2818.390436
 20
3782.887257
 30
0.0
 40
12.5
 50
90.0
 51
270.0
  0
LINE
  8
JISSEN
 10
2818.390436
 20
3795.387257
 30
0.0
 11
2954.890436
 21
3795.387257
 31
0.0
  0
LINE
  8
JISSEN
 10
2954.890436
 20
3795.387257
 30
0.0
 11
3091.390436
 21
3795.387257
 31
0.0
  0
LINE
  8
JISSEN
 10
3091.390436
 20
3770.387257
 30
0.0
 11
2954.890436
 21
3770.387257
 31
0.0
  0
LINE
  8
JISSEN
 10
2954.890436
 20
3770.387257
 30
0.0
 11
2818.390436
 21
3770.387257
 31
0.0
  0
LINE
  8
JISSEN
 10
2954.890436
 20
3470.387257
 30
0.0
 11
2818.390436
 21
3470.387257
 31
0.0
  0
LINE
  8
JISSEN
 10
3091.390436
 20
3470.387257
 30
0.0
 11
2954.890436
 21
3470.387257
 31
0.0
  0
LINE
  8
JISSEN
 10
2954.890436
 20
3495.387257
 30
0.0
 11
3091.390436
 21
3495.387257
 31
0.0
  0
LINE
  8
JISSEN
 10
2818.390436
 20
3495.387257
 30
0.0
 11
2954.890436
 21
3495.387257
 31
0.0
  0
ARC
  8
JISSEN
 10
2818.390436
 20
3482.887257
 30
0.0
 40
12.5
 50
90.0
 51
270.0
  0
ARC
  8
JISSEN
 10
3091.390436
 20
3482.887257
 30
0.0
 40
12.5
 50
270.0
 51
90.0
  0
LINE
  8
ITTEN
 10
2954.890436
 20
4347.887257
 30
0.0
 11
2954.890436
 21
4019.435374
 31
0.0
  0
LINE
  8
JISSEN
 10
2579.890436
 20
4247.887257
 30
0.0
 11
2619.890436
 21
4247.887257
 31
0.0
  0
LINE
  8
JISSEN
 10
2619.890436
 20
4247.887257
 30
0.0
 11
2626.890436
 21
4224.887257
 31
0.0
  0
LINE
  8
JISSEN
 10
2626.890436
 20
4224.887257
 30
0.0
 11
2654.890436
 21
4224.887257
 31
0.0
  0
LINE
  8
JISSEN
 10
2579.890436
 20
4247.887257
 30
0.0
 11
2579.890436
 21
3347.887257
 31
0.0
  0
LINE
  8
JISSEN
 10
2579.890436
 20
3347.887257
 30
0.0
 11
2619.890436
 21
3347.887257
 31
0.0
  0
LINE
  8
JISSEN
 10
2654.890436
 20
4224.887257
 30
0.0
 11
2654.890436
 21
3324.887257
 31
0.0
  0
LINE
  8
JISSEN
 10
3254.890436
 20
4224.887257
 30
0.0
 11
3254.890436
 21
3324.887257
 31
0.0
  0
LINE
  8
JISSEN
 10
3329.890436
 20
3347.887257
 30
0.0
 11
3289.890436
 21
3347.887257
 31
0.0
  0
LINE
  8
JISSEN
 10
3329.890436
 20
4247.887257
 30
0.0
 11
3329.890436
 21
3347.887257
 31
0.0
  0
LINE
  8
JISSEN
 10
3282.890436
 20
4224.887257
 30
0.0
 11
3254.890436
 21
4224.887257
 31
0.0
  0
LINE
  8
JISSEN
 10
3289.890436
 20
4247.887257
 30
0.0
 11
3282.890436
 21
4224.887257
 31
0.0
  0
LINE
  8
JISSEN
 10
3329.890436
 20
4247.887257
 30
0.0
 11
3289.890436
 21
4247.887257
 31
0.0
  0
LINE
  8
JISSEN
 10
2654.890436
 20
4224.887257
 30
0.0
 11
2954.890436
 21
4224.887257
 31
0.0
  0
LINE
  8
JISSEN
 10
2954.890436
 20
4224.887257
 30
0.0
 11
3254.890436
 21
4224.887257
 31
0.0
  0
LINE
  8
JISSEN
 10
2619.890436
 20
4247.887257
 30
0.0
 11
2579.890436
 21
4247.887257
 31
0.0
  0
LINE
  8
JISSEN
 10
3289.890436
 20
4247.887257
 30
0.0
 11
3329.890436
 21
4247.887257
 31
0.0
  0
CIRCLE
  8
JISSEN
 10
2954.890436
 20
2777.887257
 30
0.0
 40
175.0
  0
ARC
  8
JISSEN
 10
2954.890436
 20
2777.887257
 30
0.0
 40
207.0
 50
3.814075
 51
176.185925
  0
LINE
  8
JISSEN
 10
2780.278034
 20
2789.528084
 30
0.0
 11
2654.890436
 21
2797.887257
 31
0.0
  0
LINE
  8
JISSEN
 10
3129.502839
 20
2789.528084
 30
0.0
 11
3254.890436
 21
2797.887257
 31
0.0
  0
LINE
  8
JISSEN
 10
2654.890436
 20
2432.887257
 30
0.0
 11
3254.890436
 21
2432.887257
 31
0.0
  0
LINE
  8
JISSEN
 10
3254.890436
 20
2432.887257
 30
0.0
 11
3254.890436
 21
2797.887257
 31
0.0
  0
LINE
  8
JISSEN
 10
2654.890436
 20
2797.887257
 30
0.0
 11
2654.890436
 21
2432.887257
 31
0.0
  0
INSERT
  8
HATCH
  2
*X5
 10
402.216916
 20
-9914.288146
 30
0.0
  0
ARC
  8
JISSEN
 10
2954.890436
 20
2777.887257
 30
0.0
 40
175.0
 50
176.185925
 51
3.814075
  0
INSERT
  8
HATCH
  2
*X6
 10
-899.551319
 20
-9914.288146
 30
0.0
  0
LINE
  8
ITTEN
 10
3729.890436
 20
2777.887257
 30
0.0
 11
4644.63972
 21
2777.887257
 31
0.0
  0
LINE
  8
JISSEN
 10
4329.890436
 20
2377.887257
 30
0.0
 11
4674.890436
 21
2377.887257
 31
0.0
  0
LINE
  8
JISSEN
 10
4329.890436
 20
3177.887257
 30
0.0
 11
4329.890436
 21
2984.887257
 31
0.0
  0
LINE
  8
JISSEN
 10
4329.890436
 20
3177.887257
 30
0.0
 11
4674.890436
 21
3177.887257
 31
0.0
  0
ARC
  8
JISSEN
 10
5029.890436
 20
2777.887257
 30
0.0
 40
400.0
 50
270.0
 51
328.835295
  0
LINE
  8
ITTEN
 10
4764.890436
 20
2588.160933
 30
0.0
 11
4764.890436
 21
2267.887257
 31
0.0
  0
LINE
  8
ITTEN
 10
4764.890436
 20
2824.411121
 30
0.0
 11
4764.890436
 21
2654.012279
 31
0.0
  0
ARC
  8
JISSEN
 10
4536.184554
 20
2889.387257
 30
0.0
 40
37.5
 50
0.0
 51
90.0
  0
ARC
  8
JISSEN
 10
4536.184554
 20
2889.387257
 30
0.0
 40
12.5
 50
0.0
 51
90.0
  0
ARC
  8
JISSEN
 10
4536.184554
 20
2666.387257
 30
0.0
 40
12.5
 50
270.0
 51
0.0
  0
ARC
  8
JISSEN
 10
4536.184554
 20
2666.387257
 30
0.0
 40
37.5
 50
270.0
 51
0.0
  0
LINE
  8
JISSEN
 10
4548.684554
 20
2889.387257
 30
0.0
 11
4548.684554
 21
2666.387257
 31
0.0
  0
LINE
  8
JISSEN
 10
4491.716499
 20
2901.887257
 30
0.0
 11
4536.184554
 21
2901.887257
 31
0.0
  0
LINE
  8
JISSEN
 10
4491.716499
 20
2653.887257
 30
0.0
 11
4536.184554
 21
2653.887257
 31
0.0
  0
LINE
  8
JISSEN
 10
4536.184554
 20
2628.887257
 30
0.0
 11
4504.508025
 21
2628.887257
 31
0.0
  0
LINE
  8
JISSEN
 10
4573.684554
 20
2889.387257
 30
0.0
 11
4573.684554
 21
2666.387257
 31
0.0
  0
LINE
  8
JISSEN
 10
4504.508025
 20
2926.887257
 30
0.0
 11
4536.184554
 21
2926.887257
 31
0.0
  0
LINE
  8
JISSEN
 10
4930.646281
 20
2402.887257
 30
0.0
 11
5029.890436
 21
2402.887257
 31
0.0
  0
LINE
  8
ITTEN
 10
4764.890436
 20
3287.887257
 30
0.0
 11
4764.890436
 21
2902.742822
 31
0.0
  0
LINE
  8
ITTEN
 10
4764.890436
 20
3187.887257
 30
0.0
 11
4764.890436
 21
3127.887257
 31
0.0
  0
CIRCLE
  8
JISSEN
 10
4764.890436
 20
2777.887257
 30
0.0
 40
300.0
  0
CIRCLE
  8
JISSEN
 10
4764.890436
 20
2777.887257
 30
0.0
 40
410.0
  0
ARC
  8
JISSEN
 10
5029.890436
 20
2777.887257
 30
0.0
 40
375.0
 50
270.0
 51
90.0
  0
LINE
  8
JISSEN
 10
4379.890436
 20
3152.887257
 30
0.0
 11
4599.134592
 21
3152.887257
 31
0.0
  0
LINE
  8
JISSEN
 10
4354.890436
 20
3127.887257
 30
0.0
 11
4354.890436
 21
2427.887257
 31
0.0
  0
LINE
  8
JISSEN
 10
4379.890436
 20
2402.887257
 30
0.0
 11
4599.134592
 21
2402.887257
 31
0.0
  0
ARC
  8
JISSEN
 10
6229.890436
 20
2777.887257
 30
0.0
 40
1800.0
 50
167.975301
 51
167.975301
  0
ARC
  8
JISSEN
 10
6229.890436
 20
2777.887257
 30
0.0
 40
1828.0
 50
168.162175
 51
168.162175
  0
ARC
  8
JISSEN
 10
6229.890436
 20
2777.887257
 30
0.0
 40
1835.0
 50
168.162175
 51
168.207983
  0
ARC
  8
JISSEN
 10
6229.890436
 20
2777.887257
 30
0.0
 40
1835.0
 50
191.792017
 51
191.792017
  0
ARC
  8
JISSEN
 10
4379.890436
 20
3127.887257
 30
0.0
 40
25.0
 50
90.0
 51
180.0
  0
ARC
  8
JISSEN
 10
4379.890436
 20
2427.887257
 30
0.0
 40
25.0
 50
180.0
 51
270.0
  0
LINE
  8
ITTEN
 10
5029.890436
 20
3252.887257
 30
0.0
 11
5029.890436
 21
2302.887257
 31
0.0
  0
LINE
  8
JISSEN
 10
4854.890436
 20
3177.887257
 30
0.0
 11
5029.890436
 21
3177.887257
 31
0.0
  0
LINE
  8
JISSEN
 10
4854.890436
 20
2377.887257
 30
0.0
 11
5029.890436
 21
2377.887257
 31
0.0
  0
LINE
  8
JISSEN
 10
5342.581978
 20
2984.887257
 30
0.0
 11
5929.890436
 21
2984.887257
 31
0.0
  0
LINE
  8
JISSEN
 10
5342.581978
 20
2570.887257
 30
0.0
 11
5929.890436
 21
2570.887257
 31
0.0
  0
LINE
  8
JISSEN
 10
4354.890436
 20
2984.887257
 30
0.0
 11
3829.890436
 21
2984.887257
 31
0.0
  0
LINE
  8
JISSEN
 10
4354.890436
 20
2570.887257
 30
0.0
 11
3829.890436
 21
2570.887257
 31
0.0
  0
LINE
  8
SAISEN
 10
5929.890436
 20
2727.887257
 30
0.0
 11
5929.890436
 21
2475.887257
 31
0.0
  0
LINE
  8
SAISEN
 10
5929.890436
 20
3109.887257
 30
0.0
 11
5929.890436
 21
2877.887257
 31
0.0
  0
LINE
  8
SAISEN
 10
5829.890436
 20
2777.887257
 30
0.0
 11
5929.890436
 21
2727.887257
 31
0.0
  0
LINE
  8
SAISEN
 10
6029.890436
 20
2827.887257
 30
0.0
 11
5829.890436
 21
2777.887257
 31
0.0
  0
LINE
  8
SAISEN
 10
5929.890436
 20
2877.887257
 30
0.0
 11
6029.890436
 21
2827.887257
 31
0.0
  0
LINE
  8
SAISEN
 10
3829.890436
 20
2877.887257
 30
0.0
 11
3929.890436
 21
2827.887257
 31
0.0
  0
LINE
  8
SAISEN
 10
3929.890436
 20
2827.887257
 30
0.0
 11
3729.890436
 21
2777.887257
 31
0.0
  0
LINE
  8
SAISEN
 10
3729.890436
 20
2777.887257
 30
0.0
 11
3829.890436
 21
2727.887257
 31
0.0
  0
LINE
  8
SAISEN
 10
3829.890436
 20
3109.887257
 30
0.0
 11
3829.890436
 21
2877.887257
 31
0.0
  0
LINE
  8
SAISEN
 10
3829.890436
 20
2727.887257
 30
0.0
 11
3829.890436
 21
2475.887257
 31
0.0
  0
ARC
  8
JISSEN
 10
5029.890436
 20
2777.887257
 30
0.0
 40
400.0
 50
31.164705
 51
90.0
  0
LINE
  8
JISSEN
 10
4329.890436
 20
2570.887257
 30
0.0
 11
4329.890436
 21
2377.887257
 31
0.0
  0
LINE
  8
SUNPOU
 10
2544.890436
 20
5032.887257
 30
0.0
 11
2544.890436
 21
5432.887257
 31
0.0
  0
LINE
  8
SUNPOU
 10
3364.890436
 20
5032.887257
 30
0.0
 11
3364.890436
 21
5432.887257
 31
0.0
  0
LINE
  8
SUNPOU
 10
2544.890436
 20
5402.887257
 30
0.0
 11
3364.890436
 21
5402.887257
 31
0.0
  0
INSERT
  8
SUNPOU
  2
ARROWANG
 10
3364.890436
 20
5402.887257
 30
0.0
 41
30.0
 42
30.0
 43
30.0
  0
INSERT
  8
SUNPOU
  2
ARROWANG
 10
2544.890436
 20
5402.887257
 30
0.0
 41
30.0
 42
30.0
 50
180.0
 43
30.0
  0
TEXT
  8
SUNPOU
 10
2890.604722
 20
5447.887257
 30
0.0
 40
45.0
  1
820
  7
K
 72
     1
 11
2954.890436
 21
5447.887257
 31
0.0
  0
LINE
  8
SUNPOU
 10
2544.890436
 20
5222.887257
 30
0.0
 11
2544.890436
 21
5222.887257
 31
0.0
  0
LINE
  8
SUNPOU
 10
2654.890436
 20
5088.823329
 30
0.0
 11
2654.890436
 21
5282.887257
 31
0.0
  0
LINE
  8
SUNPOU
 10
2544.890436
 20
5252.887257
 30
0.0
 11
2654.890436
 21
5252.887257
 31
0.0
  0
INSERT
  8
SUNPOU
  2
ARROWANG
 10
2544.890436
 20
5252.887257
 30
0.0
 41
30.0
 42
30.0
 50
180.0
 43
30.0
  0
INSERT
  8
SUNPOU
  2
ARROWANG
 10
2654.890436
 20
5252.887257
 30
0.0
 41
30.0
 42
30.0
 43
30.0
  0
TEXT
  8
SUNPOU
 10
2532.390451
 20
5297.887257
 30
0.0
 40
45.0
  1
110
  7
K
 72
     1
 11
2599.890451
 21
5297.887257
 31
0.0
  0
LINE
  8
SUNPOU
 10
3254.890436
 20
5088.823329
 30
0.0
 11
3254.890436
 21
5282.887257
 31
0.0
  0
LINE
  8
SUNPOU
 10
3364.890436
 20
5282.887257
 30
0.0
 11
3364.890436
 21
5282.887257
 31
0.0
  0
LINE
  8
SUNPOU
 10
3254.890436
 20
5252.887257
 30
0.0
 11
3364.890436
 21
5252.887257
 31
0.0
  0
INSERT
  8
SUNPOU
  2
ARROWANG
 10
3364.890436
 20
5252.887257
 30
0.0
 41
30.0
 42
30.0
 43
30.0
  0
INSERT
  8
SUNPOU
  2
ARROWANG
 10
3254.890436
 20
5252.887257
 30
0.0
 41
30.0
 42
30.0
 50
180.0
 43
30.0
  0
TEXT
  8
SUNPOU
 10
3242.390436
 20
5297.887257
 30
0.0
 40
45.0
  1
110
  7
K
 72
     1
 11
3309.890436
 21
5297.887257
 31
0.0
  0
LINE
  8
SUNPOU
 10
2654.890436
 20
5222.887257
 30
0.0
 11
2654.890436
 21
5222.887257
 31
0.0
  0
LINE
  8
SUNPOU
 10
3254.890436
 20
5222.887257
 30
0.0
 11
3254.890436
 21
5222.887257
 31
0.0
  0
LINE
  8
SUNPOU
 10
2654.890436
 20
5252.887257
 30
0.0
 11
3254.890436
 21
5252.887257
 31
0.0
  0
INSERT
  8
SUNPOU
  2
ARROWANG
 10
2654.890436
 20
5252.887257
 30
0.0
 41
30.0
 42
30.0
 50
180.0
 43
30.0
  0
INSERT
  8
SUNPOU
  2
ARROWANG
 10
3254.890436
 20
5252.887257
 30
0.0
 41
30.0
 42
30.0
 43
30.0
  0
TEXT
  8
SUNPOU
 10
2889.533308
 20
5297.887257
 30
0.0
 40
45.0
  1
600
  7
K
 72
     1
 11
2954.890451
 21
5297.887257
 31
0.0
  0
LINE
  8
SUNPOU
 10
2579.890436
 20
3950.357523
 30
0.0
 11
2579.890436
 21
3950.357523
 31
0.0
  0
LINE
  8
SUNPOU
 10
2654.890436
 20
3950.357523
 30
0.0
 11
2654.890436
 21
3950.357523
 31
0.0
  0
INSERT
  8
SUNPOU
  2
ARROWANG
 10
2654.890436
 20
3920.357523
 30
0.0
 41
30.0
 42
30.0
 50
180.0
 43
30.0
  0
INSERT
  8
SUNPOU
  2
ARROWANG
 10
2579.890436
 20
3920.357523
 30
0.0
 41
30.0
 42
30.0
 43
30.0
  0
LINE
  8
SUNPOU
 10
2579.890436
 20
3920.357523
 30
0.0
 11
2480.890436
 21
3920.357523
 31
0.0
  0
LINE
  8
SUNPOU
 10
2654.890436
 20
3920.357523
 30
0.0
 11
2714.890436
 21
3920.357523
 31
0.0
  0
TEXT
  8
SUNPOU
 10
2487.533293
 20
3965.357523
 30
0.0
 40
45.0
  1
75
  7
K
 72
     1
 11
2530.390436
 21
3965.357523
 31
0.0
  0
LINE
  8
SUNPOU
 10
2654.890436
 20
3890.357523
 30
0.0
 11
2654.890436
 21
3890.357523
 31
0.0
  0
LINE
  8
SUNPOU
 10
2654.890436
 20
3920.357523
 30
0.0
 11
3254.890436
 21
3920.357523
 31
0.0
  0
INSERT
  8
SUNPOU
  2
ARROWANG
 10
2654.890436
 20
3920.357523
 30
0.0
 41
30.0
 42
30.0
 50
180.0
 43
30.0
  0
INSERT
  8
SUNPOU
  2
ARROWANG
 10
3254.890436
 20
3920.357523
 30
0.0
 41
30.0
 42
30.0
 43
30.0
  0
TEXT
  8
SUNPOU
 10
2889.533308
 20
3965.357523
 30
0.0
 40
45.0
  1
600
  7
K
 72
     1
 11
2954.890451
 21
3965.357523
 31
0.0
  0
LINE
  8
SUNPOU
 10
3329.890436
 20
3950.357523
 30
0.0
 11
3329.890436
 21
3950.357523
 31
0.0
  0
INSERT
  8
SUNPOU
  2
ARROWANG
 10
3329.890436
 20
3920.357523
 30
0.0
 41
30.0
 42
30.0
 50
180.0
 43
30.0
  0
INSERT
  8
SUNPOU
  2
ARROWANG
 10
3254.890436
 20
3920.357523
 30
0.0
 41
30.0
 42
30.0
 43
30.0
  0
LINE
  8
SUNPOU
 10
3329.890436
 20
3920.357523
 30
0.0
 11
3428.890436
 21
3920.357523
 31
0.0
  0
LINE
  8
SUNPOU
 10
3254.890436
 20
3920.357523
 30
0.0
 11
3194.890436
 21
3920.357523
 31
0.0
  0
TEXT
  8
SUNPOU
 10
3336.533293
 20
3965.357523
 30
0.0
 40
45.0
  1
75
  7
K
 72
     1
 11
3379.390436
 21
3965.357523
 31
0.0
  0
LINE
  8
SUNPOU
 10
2554.890436
 20
2072.887257
 30
0.0
 11
2554.890436
 21
1772.887257
 31
0.0
  0
LINE
  8
SUNPOU
 10
3356.909086
 20
2072.887257
 30
0.0
 11
3356.909086
 21
1772.887257
 31
0.0
  0
LINE
  8
SUNPOU
 10
2554.890436
 20
1802.887257
 30
0.0
 11
3356.909086
 21
1802.887257
 31
0.0
  0
INSERT
  8
SUNPOU
  2
ARROWANG
 10
2554.890436
 20
1802.887257
 30
0.0
 41
30.0
 42
30.0
 50
180.0
 43
30.0
  0
INSERT
  8
SUNPOU
  2
ARROWANG
 10
3356.909086
 20
1802.887257
 30
0.0
 41
30.0
 42
30.0
 43
30.0
  0
TEXT
  8
SUNPOU
 10
2891.614062
 20
1847.887257
 30
0.0
 40
45.0
  1
800
  7
K
 72
     1
 11
2955.899776
 21
1847.887257
 31
0.0
  0
LINE
  8
SUNPOU
 10
2554.890436
 20
1922.887257
 30
0.0
 11
2554.890436
 21
1922.887257
 31
0.0
  0
LINE
  8
SUNPOU
 10
2804.890436
 20
2272.887257
 30
0.0
 11
2804.890436
 21
1922.887257
 31
0.0
  0
LINE
  8
SUNPOU
 10
2554.890436
 20
1952.887257
 30
0.0
 11
2804.890436
 21
1952.887257
 31
0.0
  0
INSERT
  8
SUNPOU
  2
ARROWANG
 10
2554.890436
 20
1952.887257
 30
0.0
 41
30.0
 42
30.0
 50
180.0
 43
30.0
  0
INSERT
  8
SUNPOU
  2
ARROWANG
 10
2804.890436
 20
1952.887257
 30
0.0
 41
30.0
 42
30.0
 43
30.0
  0
TEXT
  8
SUNPOU
 10
2615.604737
 20
1997.887257
 30
0.0
 40
45.0
  1
250
  7
K
 72
     1
 11
2679.890451
 21
1997.887257
 31
0.0
  0
LINE
  8
SUNPOU
 10
2804.890436
 20
1922.887257
 30
0.0
 11
2804.890436
 21
1922.887257
 31
0.0
  0
LINE
  8
SUNPOU
 10
3104.890436
 20
2272.887257
 30
0.0
 11
3104.890436
 21
1922.887257
 31
0.0
  0
LINE
  8
SUNPOU
 10
2804.890436
 20
1952.887257
 30
0.0
 11
3104.890436
 21
1952.887257
 31
0.0
  0
INSERT
  8
SUNPOU
  2
ARROWANG
 10
2804.890436
 20
1952.887257
 30
0.0
 41
30.0
 42
30.0
 50
180.0
 43
30.0
  0
INSERT
  8
SUNPOU
  2
ARROWANG
 10
3104.890436
 20
1952.887257
 30
0.0
 41
30.0
 42
30.0
 43
30.0
  0
TEXT
  8
SUNPOU
 10
2890.604737
 20
1997.887257
 30
0.0
 40
45.0
  1
300
  7
K
 72
     1
 11
2954.890451
 21
1997.887257
 31
0.0
  0
LINE
  8
SUNPOU
 10
3104.890436
 20
1922.887257
 30
0.0
 11
3104.890436
 21
1922.887257
 31
0.0
  0
LINE
  8
SUNPOU
 10
3356.909086
 20
1922.887257
 30
0.0
 11
3356.909086
 21
1922.887257
 31
0.0
  0
LINE
  8
SUNPOU
 10
3104.890436
 20
1952.887257
 30
0.0
 11
3356.909086
 21
1952.887257
 31
0.0
  0
INSERT
  8
SUNPOU
  2
ARROWANG
 10
3104.890436
 20
1952.887257
 30
0.0
 41
30.0
 42
30.0
 50
180.0
 43
30.0
  0
INSERT
  8
SUNPOU
  2
ARROWANG
 10
3356.909086
 20
1952.887257
 30
0.0
 41
30.0
 42
30.0
 43
30.0
  0
TEXT
  8
SUNPOU
 10
3166.614062
 20
1997.887257
 30
0.0
 40
45.0
  1
250
  7
K
 72
     1
 11
3230.899776
 21
1997.887257
 31
0.0
  0
LINE
  8
SUNPOU
 10
2924.890436
 20
2602.887257
 30
0.0
 11
2249.890436
 21
2602.887257
 31
0.0
  0
LINE
  8
SUNPOU
 10
2567.408314
 20
5102.887257
 30
0.0
 11
2249.890436
 21
5102.887257
 31
0.0
  0
LINE
  8
SUNPOU
 10
2279.890436
 20
2602.887257
 30
0.0
 11
2279.890436
 21
5102.887257
 31
0.0
  0
INSERT
  8
SUNPOU
  2
ARROWANG
 10
2279.890436
 20
2602.887257
 30
0.0
 41
30.0
 42
30.0
 50
270.0
 43
30.0
  0
INSERT
  8
SUNPOU
  2
ARROWANG
 10
2279.890436
 20
5102.887257
 30
0.0
 41
30.0
 42
30.0
 50
90.0
 43
30.0
  0
TEXT
  8
SUNPOU
 10
2243.142257
 20
3664.014185
 30
0.0
 40
67.5
  1
マンホール深さ
 50
90.0
  7
K
 72
     1
 11
2243.142257
 21
3938.514185
 31
0.0
  0
LINE
  8
SUNPOU
 10
6929.890436
 20
5032.887257
 30
0.0
 11
6929.890436
 21
5432.887257
 31
0.0
  0
LINE
  8
SUNPOU
 10
7749.890436
 20
5032.887257
 30
0.0
 11
7749.890436
 21
5432.887257
 31
0.0
  0
LINE
  8
SUNPOU
 10
6929.890436
 20
5402.887257
 30
0.0
 11
7749.890436
 21
5402.887257
 31
0.0
  0
INSERT
  8
SUNPOU
  2
ARROWANG
 10
6929.890436
 20
5402.887257
 30
0.0
 41
30.0
 42
30.0
 50
180.0
 43
30.0
  0
INSERT
  8
SUNPOU
  2
ARROWANG
 10
7749.890436
 20
5402.887257
 30
0.0
 41
30.0
 42
30.0
 43
30.0
  0
TEXT
  8
SUNPOU
 10
7275.604737
 20
5447.887257
 30
0.0
 40
45.0
  1
820
  7
K
 72
     1
 11
7339.890451
 21
5447.887257
 31
0.0
  0
LINE
  8
SUNPOU
 10
6929.890436
 20
5222.887257
 30
0.0
 11
6929.890436
 21
5222.887257
 31
0.0
  0
LINE
  8
SUNPOU
 10
7039.890436
 20
5088.823329
 30
0.0
 11
7039.890436
 21
5282.887257
 31
0.0
  0
LINE
  8
SUNPOU
 10
6929.890436
 20
5252.887257
 30
0.0
 11
7039.890436
 21
5252.887257
 31
0.0
  0
INSERT
  8
SUNPOU
  2
ARROWANG
 10
6929.890436
 20
5252.887257
 30
0.0
 41
30.0
 42
30.0
 50
180.0
 43
30.0
  0
INSERT
  8
SUNPOU
  2
ARROWANG
 10
7039.890436
 20
5252.887257
 30
0.0
 41
30.0
 42
30.0
 43
30.0
  0
TEXT
  8
SUNPOU
 10
6917.390451
 20
5297.887257
 30
0.0
 40
45.0
  1
110
  7
K
 72
     1
 11
6984.890451
 21
5297.887257
 31
0.0
  0
LINE
  8
SUNPOU
 10
7039.890436
 20
5222.887257
 30
0.0
 11
7039.890436
 21
5222.887257
 31
0.0
  0
LINE
  8
SUNPOU
 10
7639.890436
 20
5088.823329
 30
0.0
 11
7639.890436
 21
5282.887257
 31
0.0
  0
LINE
  8
SUNPOU
 10
7039.890436
 20
5252.887257
 30
0.0
 11
7639.890436
 21
5252.887257
 31
0.0
  0
INSERT
  8
SUNPOU
  2
ARROWANG
 10
7039.890436
 20
5252.887257
 30
0.0
 41
30.0
 42
30.0
 50
180.0
 43
30.0
  0
INSERT
  8
SUNPOU
  2
ARROWANG
 10
7639.890436
 20
5252.887257
 30
0.0
 41
30.0
 42
30.0
 43
30.0
  0
TEXT
  8
SUNPOU
 10
7274.533308
 20
5297.887257
 30
0.0
 40
45.0
  1
600
  7
K
 72
     1
 11
7339.890451
 21
5297.887257
 31
0.0
  0
LINE
  8
SUNPOU
 10
7639.890436
 20
5222.887257
 30
0.0
 11
7639.890436
 21
5222.887257
 31
0.0
  0
LINE
  8
SUNPOU
 10
7749.890436
 20
5222.887257
 30
0.0
 11
7749.890436
 21
5222.887257
 31
0.0
  0
LINE
  8
SUNPOU
 10
7639.890436
 20
5252.887257
 30
0.0
 11
7749.890436
 21
5252.887257
 31
0.0
  0
INSERT
  8
SUNPOU
  2
ARROWANG
 10
7639.890436
 20
5252.887257
 30
0.0
 41
30.0
 42
30.0
 50
180.0
 43
30.0
  0
INSERT
  8
SUNPOU
  2
ARROWANG
 10
7749.890436
 20
5252.887257
 30
0.0
 41
30.0
 42
30.0
 43
30.0
  0
TEXT
  8
SUNPOU
 10
7627.390451
 20
5297.887257
 30
0.0
 40
45.0
  1
110
  7
K
 72
     1
 11
7694.890451
 21
5297.887257
 31
0.0
  0
LINE
  8
SUNPOU
 10
6929.890436
 20
3950.357523
 30
0.0
 11
6929.890436
 21
3950.357523
 31
0.0
  0
LINE
  8
SUNPOU
 10
7004.890436
 20
3950.357523
 30
0.0
 11
7004.890436
 21
3950.357523
 31
0.0
  0
INSERT
  8
SUNPOU
  2
ARROWANG
 10
7004.890436
 20
3920.357523
 30
0.0
 41
30.0
 42
30.0
 50
180.0
 43
30.0
  0
INSERT
  8
SUNPOU
  2
ARROWANG
 10
6929.890436
 20
3920.357523
 30
0.0
 41
30.0
 42
30.0
 43
30.0
  0
LINE
  8
SUNPOU
 10
6929.890436
 20
3920.357523
 30
0.0
 11
6830.890436
 21
3920.357523
 31
0.0
  0
LINE
  8
SUNPOU
 10
7004.890436
 20
3920.357523
 30
0.0
 11
7064.890436
 21
3920.357523
 31
0.0
  0
TEXT
  8
SUNPOU
 10
6837.533293
 20
3965.357523
 30
0.0
 40
45.0
  1
75
  7
K
 72
     1
 11
6880.390436
 21
3965.357523
 31
0.0
  0
LINE
  8
SUNPOU
 10
7004.890436
 20
3890.357523
 30
0.0
 11
7004.890436
 21
3890.357523
 31
0.0
  0
LINE
  8
SUNPOU
 10
7904.890436
 20
3890.357523
 30
0.0
 11
7904.890436
 21
3890.357523
 31
0.0
  0
LINE
  8
SUNPOU
 10
7004.890436
 20
3920.357523
 30
0.0
 11
7904.890436
 21
3920.357523
 31
0.0
  0
INSERT
  8
SUNPOU
  2
ARROWANG
 10
7004.890436
 20
3920.357523
 30
0.0
 41
30.0
 42
30.0
 50
180.0
 43
30.0
  0
INSERT
  8
SUNPOU
  2
ARROWANG
 10
7904.890436
 20
3920.357523
 30
0.0
 41
30.0
 42
30.0
 43
30.0
  0
TEXT
  8
SUNPOU
 10
7390.604737
 20
3965.357523
 30
0.0
 40
45.0
  1
900
  7
K
 72
     1
 11
7454.890451
 21
3965.357523
 31
0.0
  0
LINE
  8
SUNPOU
 10
7904.890436
 20
3950.357523
 30
0.0
 11
7904.890436
 21
3950.357523
 31
0.0
  0
LINE
  8
SUNPOU
 10
7979.890436
 20
3950.357523
 30
0.0
 11
7979.890436
 21
3950.357523
 31
0.0
  0
INSERT
  8
SUNPOU
  2
ARROWANG
 10
7979.890436
 20
3920.357523
 30
0.0
 41
30.0
 42
30.0
 50
180.0
 43
30.0
  0
INSERT
  8
SUNPOU
  2
ARROWANG
 10
7904.890436
 20
3920.357523
 30
0.0
 41
30.0
 42
30.0
 43
30.0
  0
LINE
  8
SUNPOU
 10
7979.890436
 20
3920.357523
 30
0.0
 11
8078.890436
 21
3920.357523
 31
0.0
  0
LINE
  8
SUNPOU
 10
7904.890436
 20
3920.357523
 30
0.0
 11
7844.890436
 21
3920.357523
 31
0.0
  0
TEXT
  8
SUNPOU
 10
7986.533293
 20
3965.357523
 30
0.0
 40
45.0
  1
75
  7
K
 72
     1
 11
8029.390436
 21
3965.357523
 31
0.0
  0
LINE
  8
JISSEN
 10
6904.890436
 20
2302.887257
 30
0.0
 11
6904.890436
 21
2102.887257
 31
0.0
  0
POLYLINE
  8
HATCH
 66
     1
 10
0.0
 20
0.0
 30
0.0
  0
VERTEX
  8
HATCH
 10
6944.420687
 20
2102.228975
 30
0.0
  0
VERTEX
  8
HATCH
 10
6919.285755
 20
2120.687133
 30
0.0
  0
VERTEX
  8
HATCH
 10
6910.069613
 20
2145.29801
 30
0.0
  0
VERTEX
  8
HATCH
 10
6906.718289
 20
2197.083398
 30
0.0
  0
VERTEX
  8
HATCH
 10
6914.258769
 20
2242.203339
 30
0.0
  0
VERTEX
  8
HATCH
 10
6929.339728
 20
2277.068748
 30
0.0
  0
VERTEX
  8
HATCH
 10
6943.582856
 20
2299.628719
 30
0.0
  0
VERTEX
  8
HATCH
 10
6993.852719
 20
2296.552359
 30
0.0
  0
VERTEX
  8
HATCH
 10
7018.98765
 20
2279.632381
 30
0.0
  0
VERTEX
  8
HATCH
 10
7026.52813
 20
2264.250583
 30
0.0
  0
VERTEX
  8
HATCH
 10
7029.041623
 20
2232.461534
 30
0.0
  0
VERTEX
  8
HATCH
 10
7029.879454
 20
2201.185211
 30
0.0
  0
VERTEX
  8
HATCH
 10
7029.041623
 20
2154.014363
 30
0.0
  0
VERTEX
  8
HATCH
 10
7012.285002
 20
2128.890759
 30
0.0
  0
VERTEX
  8
HATCH
 10
6991.339226
 20
2109.407148
 30
0.0
  0
VERTEX
  8
HATCH
 10
6945.258518
 20
2101.203522
 30
0.0
  0
SEQEND
  8
HATCH
  0
LINE
  8
SUNPOU
 10
6399.890436
 20
2602.887257
 30
0.0
 11
6249.890436
 21
2602.887257
 31
0.0
  0
LINE
  8
SUNPOU
 10
6952.408314
 20
5102.887257
 30
0.0
 11
6249.890436
 21
5102.887257
 31
0.0
  0
LINE
  8
SUNPOU
 10
6279.890436
 20
2602.887257
 30
0.0
 11
6279.890436
 21
5102.887257
 31
0.0
  0
INSERT
  8
SUNPOU
  2
ARROWANG
 10
6279.890436
 20
2602.887257
 30
0.0
 41
30.0
 42
30.0
 50
270.0
 43
30.0
  0
INSERT
  8
SUNPOU
  2
ARROWANG
 10
6279.890436
 20
5102.887257
 30
0.0
 41
30.0
 42
30.0
 50
90.0
 43
30.0
  0
TEXT
  8
SUNPOU
 10
6233.832263
 20
3664.649535
 30
0.0
 40
67.5
  1
マンホール深さ
 50
90.0
  7
K
 72
     1
 11
6233.832263
 21
3939.149535
 31
0.0
  0
LINE
  8
SUNPOU
 10
6944.890436
 20
2432.887257
 30
0.0
 11
6249.890436
 21
2432.887257
 31
0.0
  0
LINE
  8
SUNPOU
 10
6249.890436
 20
2602.887257
 30
0.0
 11
6249.890436
 21
2602.887257
 31
0.0
  0
LINE
  8
SUNPOU
 10
6279.890436
 20
2432.887257
 30
0.0
 11
6279.890436
 21
2602.887257
 31
0.0
  0
INSERT
  8
SUNPOU
  2
ARROWANG
 10
6279.890436
 20
2432.887257
 30
0.0
 41
30.0
 42
30.0
 50
270.0
 43
30.0
  0
INSERT
  8
SUNPOU
  2
ARROWANG
 10
6279.890436
 20
2602.887257
 30
0.0
 41
30.0
 42
30.0
 50
90.0
 43
30.0
  0
TEXT
  8
SUNPOU
 10
6234.890436
 20
2450.387257
 30
0.0
 40
45.0
  1
170
 50
90.0
  7
K
 72
     1
 11
6234.890436
 21
2517.887257
 31
0.0
  0
LINE
  8
SUNPOU
 10
6874.890436
 20
2302.887257
 30
0.0
 11
6249.890436
 21
2302.887257
 31
0.0
  0
LINE
  8
SUNPOU
 10
6249.890436
 20
2432.887257
 30
0.0
 11
6249.890436
 21
2432.887257
 31
0.0
  0
LINE
  8
SUNPOU
 10
6279.890436
 20
2302.887257
 30
0.0
 11
6279.890436
 21
2432.887257
 31
0.0
  0
INSERT
  8
SUNPOU
  2
ARROWANG
 10
6279.890436
 20
2302.887257
 30
0.0
 41
30.0
 42
30.0
 50
270.0
 43
30.0
  0
INSERT
  8
SUNPOU
  2
ARROWANG
 10
6279.890436
 20
2432.887257
 30
0.0
 41
30.0
 42
30.0
 50
90.0
 43
30.0
  0
TEXT
  8
SUNPOU
 10
6234.890436
 20
2300.387257
 30
0.0
 40
45.0
  1
130
 50
90.0
  7
K
 72
     1
 11
6234.890436
 21
2367.887257
 31
0.0
  0
LINE
  8
SUNPOU
 10
6874.890436
 20
2102.887257
 30
0.0
 11
6249.890436
 21
2102.887257
 31
0.0
  0
LINE
  8
SUNPOU
 10
6249.890436
 20
2302.887257
 30
0.0
 11
6249.890436
 21
2302.887257
 31
0.0
  0
LINE
  8
SUNPOU
 10
6279.890436
 20
2102.887257
 30
0.0
 11
6279.890436
 21
2302.887257
 31
0.0
  0
INSERT
  8
SUNPOU
  2
ARROWANG
 10
6279.890436
 20
2102.887257
 30
0.0
 41
30.0
 42
30.0
 50
270.0
 43
30.0
  0
INSERT
  8
SUNPOU
  2
ARROWANG
 10
6279.890436
 20
2302.887257
 30
0.0
 41
30.0
 42
30.0
 50
90.0
 43
30.0
  0
TEXT
  8
SUNPOU
 10
6234.890436
 20
2138.601543
 30
0.0
 40
45.0
  1
200
 50
90.0
  7
K
 72
     1
 11
6234.890436
 21
2202.887257
 31
0.0
  0
LINE
  8
SUNPOU
 10
6904.890436
 20
2072.887257
 30
0.0
 11
6904.890436
 21
1772.887257
 31
0.0
  0
LINE
  8
SUNPOU
 10
8003.923935
 20
2072.92388
 30
0.0
 11
8003.923935
 21
1772.887257
 31
0.0
  0
LINE
  8
SUNPOU
 10
6904.890436
 20
1802.887257
 30
0.0
 11
8003.923935
 21
1802.887257
 31
0.0
  0
INSERT
  8
SUNPOU
  2
ARROWANG
 10
8003.923935
 20
1802.887257
 30
0.0
 41
30.0
 42
30.0
 43
30.0
  0
INSERT
  8
SUNPOU
  2
ARROWANG
 10
6904.890436
 20
1802.887257
 30
0.0
 41
30.0
 42
30.0
 50
180.0
 43
30.0
  0
TEXT
  8
SUNPOU
 10
7365.478614
 20
1847.887257
 30
0.0
 40
45.0
  1
1100
  7
K
 72
     1
 11
7454.407186
 21
1847.887257
 31
0.0
  0
LINE
  8
SUNPOU
 10
6904.890436
 20
1922.887257
 30
0.0
 11
6904.890436
 21
1922.887257
 31
0.0
  0
LINE
  8
SUNPOU
 10
7454.890436
 20
2272.887257
 30
0.0
 11
7454.890436
 21
1922.887257
 31
0.0
  0
LINE
  8
SUNPOU
 10
6904.890436
 20
1952.887257
 30
0.0
 11
7454.890436
 21
1952.887257
 31
0.0
  0
INSERT
  8
SUNPOU
  2
ARROWANG
 10
6904.890436
 20
1952.887257
 30
0.0
 41
30.0
 42
30.0
 50
180.0
 43
30.0
  0
INSERT
  8
SUNPOU
  2
ARROWANG
 10
7454.890436
 20
1952.887257
 30
0.0
 41
30.0
 42
30.0
 43
30.0
  0
TEXT
  8
SUNPOU
 10
7115.604737
 20
1997.887257
 30
0.0
 40
45.0
  1
550
  7
K
 72
     1
 11
7179.890451
 21
1997.887257
 31
0.0
  0
LINE
  8
SUNPOU
 10
7454.890436
 20
1922.887257
 30
0.0
 11
7454.890436
 21
1922.887257
 31
0.0
  0
LINE
  8
SUNPOU
 10
7754.890436
 20
2272.887257
 30
0.0
 11
7754.890436
 21
1922.887257
 31
0.0
  0
LINE
  8
SUNPOU
 10
7454.890436
 20
1952.887257
 30
0.0
 11
7754.890436
 21
1952.887257
 31
0.0
  0
INSERT
  8
SUNPOU
  2
ARROWANG
 10
7454.890436
 20
1952.887257
 30
0.0
 41
30.0
 42
30.0
 50
180.0
 43
30.0
  0
INSERT
  8
SUNPOU
  2
ARROWANG
 10
7754.890436
 20
1952.887257
 30
0.0
 41
30.0
 42
30.0
 43
30.0
  0
TEXT
  8
SUNPOU
 10
7540.604737
 20
1997.887257
 30
0.0
 40
45.0
  1
300
  7
K
 72
     1
 11
7604.890451
 21
1997.887257
 31
0.0
  0
LINE
  8
SUNPOU
 10
7754.890436
 20
1922.887257
 30
0.0
 11
7754.890436
 21
1922.887257
 31
0.0
  0
LINE
  8
SUNPOU
 10
8004.890436
 20
2072.887257
 30
0.0
 11
8004.890436
 21
1922.887257
 31
0.0
  0
LINE
  8
SUNPOU
 10
7754.890436
 20
1952.887257
 30
0.0
 11
8004.890436
 21
1952.887257
 31
0.0
  0
INSERT
  8
SUNPOU
  2
ARROWANG
 10
7754.890436
 20
1952.887257
 30
0.0
 41
30.0
 42
30.0
 50
180.0
 43
30.0
  0
INSERT
  8
SUNPOU
  2
ARROWANG
 10
8004.890436
 20
1952.887257
 30
0.0
 41
30.0
 42
30.0
 43
30.0
  0
TEXT
  8
SUNPOU
 10
7815.604737
 20
1997.887257
 30
0.0
 40
45.0
  1
250
  7
K
 72
     1
 11
7879.890451
 21
1997.887257
 31
0.0
  0
INSERT
  8
SUNPOU
  2
ARROWANG
 10
7720.649372
 20
5050.323579
 30
0.0
 41
30.0
 42
30.0
 50
209.952277
 43
30.0
  0
LINE
  8
SUNPOU
 10
7720.649372
 20
5050.323579
 30
0.0
 11
8282.155344
 21
5373.885917
 31
0.0
  0
TEXT
  8
SUNPOU
 10
8282.155344
 20
5396.385917
 30
0.0
 40
67.5
  1
 ふた及び受枠 ( MF1 )
  7
K
  0
LINE
  8
SUNPOU
 10
8282.155344
 20
5373.885917
 30
0.0
 11
9261.848772
 21
5373.885917
 31
0.0
  0
INSERT
  8
SUNPOU
  2
ARROWANG
 10
7841.692576
 20
4620.278882
 30
0.0
 41
30.0
 42
30.0
 50
210.122035
 43
30.0
  0
LINE
  8
SUNPOU
 10
7841.692576
 20
4620.278882
 30
0.0
 11
8278.793033
 21
4873.881795
 31
0.0
  0
TEXT
  8
SUNPOU
 10
8278.793033
 20
4896.381795
 30
0.0
 40
67.5
  1
 斜壁 ( MA1T )
  7
K
  0
LINE
  8
SUNPOU
 10
8278.793033
 20
4873.881795
 30
0.0
 11
9262.269061
 21
4873.881795
 31
0.0
  0
INSERT
  8
SUNPOU
  2
ARROWANG
 10
7981.228491
 20
3777.164936
 30
0.0
 41
30.0
 42
30.0
 50
209.862317
 43
30.0
  0
LINE
  8
SUNPOU
 10
7981.228491
 20
3777.164936
 30
0.0
 11
8280.474188
 21
3948.977052
 31
0.0
  0
TEXT
  8
SUNPOU
 10
8280.474188
 20
3971.477052
 30
0.0
 40
67.5
  1
 直壁 ( MA1S )
  7
K
  0
LINE
  8
SUNPOU
 10
8280.474188
 20
3948.977052
 30
0.0
 11
9261.428483
 21
3946.662218
 31
0.0
  0
INSERT
  8
SUNPOU
  2
ARROWANG
 10
7750.069595
 20
4912.976768
 30
0.0
 41
30.0
 42
30.0
 50
210.38686
 43
30.0
  0
LINE
  8
SUNPOU
 10
7750.069595
 20
4912.976768
 30
0.0
 11
8272.908988
 21
5219.563657
 31
0.0
  0
TEXT
  8
SUNPOU
 10
8272.908988
 20
5242.063657
 30
0.0
 40
67.5
  1
 調整リング ( MR )
  7
K
  0
LINE
  8
SUNPOU
 10
8272.908988
 20
5219.563657
 30
0.0
 11
9268.993683
 21
5219.563657
 31
0.0
  0
INSERT
  8
SUNPOU
  2
ARROWANG
 10
7981.228491
 20
3119.75211
 30
0.0
 41
30.0
 42
30.0
 50
209.862317
 43
30.0
  0
LINE
  8
SUNPOU
 10
7981.228491
 20
3119.75211
 30
0.0
 11
8280.474188
 21
3291.564226
 31
0.0
  0
TEXT
  8
SUNPOU
 10
8280.474188
 20
3314.064226
 30
0.0
 40
67.5
  1
 管取付壁 ( MA1B )
  7
K
  0
LINE
  8
SUNPOU
 10
8280.474188
 20
3291.564226
 30
0.0
 11
9265.211083
 21
3291.564226
 31
0.0
  0
INSERT
  8
SUNPOU
  2
ARROWANG
 10
7996.358891
 20
2402.153602
 30
0.0
 41
30.0
 42
30.0
 50
149.912902
 43
30.0
  0
LINE
  8
SUNPOU
 10
7996.358891
 20
2402.153602
 30
0.0
 11
8280.474188
 21
2237.543192
 31
0.0
  0
TEXT
  8
SUNPOU
 10
8280.474188
 20
2260.043192
 30
0.0
 40
67.5
  1
 底版 ( MA1P )
  7
K
  0
LINE
  8
SUNPOU
 10
8280.474188
 20
2237.543192
 30
0.0
 11
9287.906684
 21
2237.543192
 31
0.0
  0
TEXT
  8
SUNPOU
 10
6257.781678
 20
5115.775859
 30
0.0
 40
45.0
  1
GL
  7
K
  0
TEXT
  8
TEXT
 10
2692.499757
 20
5572.561537
 30
0.0
 40
100.0
  1
横断面図
  7
K
  0
TEXT
  8
TEXT
 10
4663.467907
 20
3391.359287
 30
0.0
 40
100.0
  1
平面図
  7
K
  0
TEXT
  8
TEXT
 10
7114.592777
 20
5571.932817
 30
0.0
 40
100.0
  1
縦断面図
  7
K
  0
LINE
  8
SUNPOU
 10
5064.884881
 20
2749.712885
 30
0.0
 11
5064.884881
 21
2747.887257
 31
0.0
  0
LINE
  8
SUNPOU
 10
5247.273733
 20
2555.270554
 30
0.0
 11
5247.612379
 21
2555.270554
 31
0.0
  0
INSERT
  8
SUNPOU
  2
ARROWANG
 10
5054.564758
 20
3068.040496
 30
0.0
 41
30.0
 42
30.0
 50
225.0
 43
30.0
  0
LINE
  8
SUNPOU
 10
5054.564758
 20
3068.040496
 30
0.0
 11
5237.581941
 21
3251.240465
 31
0.0
  0
TEXT
  8
SUNPOU
 10
5104.824935
 20
3185.043794
 30
0.0
 40
45.0
  1
110
 50
45.0
  7
K
 72
     1
 11
5152.554642
 21
3232.773502
 31
0.0
  0
LINE
  8
SUNPOU
 10
4976.461751
 20
2990.578533
 30
0.0
 11
4553.319122
 21
2565.195981
 31
0.0
  0
INSERT
  8
SUNPOU
  2
ARROWANG
 10
4976.461751
 20
2990.578533
 30
0.0
 41
30.0
 42
30.0
 50
45.151248
 43
30.0
  0
INSERT
  8
SUNPOU
  2
ARROWANG
 10
4553.319122
 20
2565.195981
 30
0.0
 41
30.0
 42
30.0
 50
225.151248
 43
30.0
  0
TEXT
  8
SUNPOU
 10
4675.560245
 20
2751.892465
 30
0.0
 40
45.0
  1
%%C600
 50
45.151248
  7
K
 72
     1
 11
4732.986745
 21
2809.622954
 31
0.0
  0
LINE
  8
ITTEN
 10
4695.157173
 20
2777.887257
 30
0.0
 11
6029.890436
 21
2777.887257
 31
0.0
  0
LINE
  8
SUNPOU
 10
5316.268683
 20
2533.935417
 30
0.0
 11
5316.442981
 21
2534.109715
 31
0.0
  0
LINE
  8
SUNPOU
 10
5333.946352
 20
2516.257748
 30
0.0
 11
5334.12065
 21
2516.432046
 31
0.0
  0
INSERT
  8
SUNPOU
  2
ARROWANG
 10
5312.907447
 20
2495.218842
 30
0.0
 41
30.0
 42
30.0
 50
135.0
 43
30.0
  0
LINE
  8
SUNPOU
 10
5312.907447
 20
2495.218842
 30
0.0
 11
5382.911018
 21
2425.215271
 31
0.0
  0
TEXT
  8
SUNPOU
 10
5349.424461
 20
2522.341438
 30
0.0
 40
45.0
  1
25
 50
315.0
  7
K
 72
     1
 11
5379.729037
 21
2492.036862
 31
0.0
  0
LINE
  8
SUNPOU
 10
5295.837968
 20
2513.507019
 30
0.0
 11
5029.890436
 21
2777.887257
 31
0.0
  0
INSERT
  8
SUNPOU
  2
ARROWANG
 10
5295.837968
 20
2513.507019
 30
0.0
 41
30.0
 42
30.0
 50
315.169328
 43
30.0
  0
TEXT
  8
SUNPOU
 10
5194.280815
 20
2677.408854
 30
0.0
 40
45.0
  1
R375
 50
315.169328
  7
K
 72
     1
 11
5256.588523
 21
2615.468341
 31
0.0
  0
LINE
  8
JISSEN
 10
5302.541944
 20
2520.208678
 30
0.0
 11
5295.055479
 21
2512.722214
 31
0.0
  0
LINE
  8
JISSEN
 10
6676.403454
 20
2733.395429
 30
0.0
 11
6921.028457
 21
2733.395429
 31
0.0
  0
INSERT
  8
JISSEN
  2
ARROWANG
 10
6676.403454
 20
2733.395429
 30
0.0
 41
30.0
 42
30.0
 50
180.0
 43
30.0
  0
INSERT
  8
JISSEN
  2
ARROWANG
 10
8040.091873
 20
2733.395429
 30
0.0
 41
30.0
 42
30.0
 50
180.0
 43
30.0
  0
LINE
  8
JISSEN
 10
8040.091873
 20
2733.395429
 30
0.0
 11
8284.716875
 21
2733.395429
 31
0.0
  0
LINE
  8
JISSEN
 10
4005.0472
 20
2635.14359
 30
0.0
 11
4249.672203
 21
2635.14359
 31
0.0
  0
INSERT
  8
JISSEN
  2
ARROWANG
 10
4005.0472
 20
2635.14359
 30
0.0
 41
30.0
 42
30.0
 50
180.0
 43
30.0
  0
LINE
  8
JISSEN
 10
5539.372913
 20
2635.14359
 30
0.0
 11
5783.997915
 21
2635.14359
 31
0.0
  0
INSERT
  8
JISSEN
  2
ARROWANG
 10
5539.372913
 20
2635.14359
 30
0.0
 41
30.0
 42
30.0
 50
180.0
 43
30.0
  0
LINE
  8
JISSEN
 10
4930.646281
 20
3152.887257
 30
0.0
 11
5029.890436
 21
3152.887257
 31
0.0
  0
TEXT
  8
SUNPOU
 10
2257.471919
 20
5121.94875
 30
0.0
 40
45.0
  1
GL
  7
K
  0
TEXT
  8
JISSEN
 10
2125.698921
 20
7620.129259
 30
0.0
 40
300.0
  1
組立マンホール構造図
  7
K
  0
TEXT
  8
TEXT
 10
6130.544378
 20
7643.024282
 30
0.0
 40
240.0
  1
( 600 x 900 方円形 )
  7
K
  0
TEXT
  8
TEXT
 10
5013.478851
 20
5746.520849
 30
0.0
 40
240.0
  1
構造標準図
  7
K
  0
LINE
  8
ITTEN
 10
2954.890436
 20
3948.200172
 30
0.0
 11
2954.890436
 21
3247.887257
 31
0.0
  0
POLYLINE
  8
WAKU
 66
     1
 10
0.0
 20
0.0
 30
0.0
 70
     1
  0
VERTEX
  8
WAKU
 10
0.0
 20
0.0
 30
0.0
  0
VERTEX
  8
WAKU
 10
11850.0
 20
0.0
 30
0.0
  0
VERTEX
  8
WAKU
 10
11850.0
 20
8190.0
 30
0.0
  0
VERTEX
  8
WAKU
 10
0.0
 20
8190.0
 30
0.0
  0
SEQEND
  8
WAKU
  0
TEXT
  8
SUNPOU
 10
8338.284531
 20
2122.632461
 30
0.0
 40
67.5
  1
( MA1PB,MA1PF )
  7
K
  0
ENDSEC
  0
EOF
