  0
SECTION
  2
HEADER
  9
$ACADVER
  1
AC1009
  9
$INSBASE
 10
0.0
 20
0.0
 30
0.0
  9
$EXTMIN
 10
0.0
 20
-108.817859
 30
0.0
  9
$EXTMAX
 10
11850.0
 20
8190.0
 30
0.0
  9
$LIMMIN
 10
0.0
 20
0.0
  9
$LIMMAX
 10
11850.0
 20
8190.0
  9
$ORTHOMODE
 70
     0
  9
$REGENMODE
 70
     1
  9
$FILLMODE
 70
     1
  9
$QTEXTMODE
 70
     0
  9
$MIRRTEXT
 70
     0
  9
$DRAGMODE
 70
     2
  9
$LTSCALE
 40
150.0
  9
$OSMODE
 70
   289
  9
$ATTMODE
 70
     1
  9
$TEXTSIZE
 40
60.0
  9
$TRACEWID
 40
0.05
  9
$TEXTSTYLE
  7
K
  9
$CLAYER
  8
JISSEN
  9
$CELTYPE
  6
BYLAYER
  9
$CECOLOR
 62
   256
  9
$DIMSCALE
 40
30.0
  9
$DIMASZ
 40
1.5
  9
$DIMEXO
 40
1.0
  9
$DIMDLI
 40
6.0
  9
$DIMRND
 40
0.0
  9
$DIMDLE
 40
0.0
  9
$DIMEXE
 40
1.0
  9
$DIMTP
 40
495.0
  9
$DIMTM
 40
0.0
  9
$DIMTXT
 40
3.0
  9
$DIMCEN
 40
0.0
  9
$DIMTSZ
 40
0.0
  9
$DIMTOL
 70
     0
  9
$DIMLIM
 70
     0
  9
$DIMTIH
 70
     0
  9
$DIMTOH
 70
     0
  9
$DIMSE1
 70
     0
  9
$DIMSE2
 70
     0
  9
$DIMTAD
 70
     1
  9
$DIMZIN
 70
     8
  9
$DIMBLK
  1
ARROW
  9
$DIMASO
 70
     0
  9
$DIMSHO
 70
     0
  9
$DIMPOST
  1

  9
$DIMAPOST
  1

  9
$DIMALT
 70
     0
  9
$DIMALTD
 70
     2
  9
$DIMALTF
 40
25.4
  9
$DIMLFAC
 40
1.0
  9
$DIMTOFL
 70
     1
  9
$DIMTVP
 40
0.0
  9
$DIMTIX
 70
     1
  9
$DIMSOXD
 70
     0
  9
$DIMSAH
 70
     0
  9
$DIMBLK1
  1

  9
$DIMBLK2
  1

  9
$DIMSTYLE
  2
*UNNAMED
  9
$DIMCLRD
 70
     0
  9
$DIMCLRE
 70
     0
  9
$DIMCLRT
 70
     0
  9
$DIMTFAC
 40
1.0
  9
$DIMGAP
 40
0.09
  9
$LUNITS
 70
     2
  9
$LUPREC
 70
     2
  9
$AXISMODE
 70
     0
  9
$AXISUNIT
 10
100.0
 20
100.0
  9
$SKETCHINC
 40
0.1
  9
$FILLETRAD
 40
37.5
  9
$AUNITS
 70
     0
  9
$AUPREC
 70
     2
  9
$MENU
  1
G:STDGX5
  9
$ELEVATION
 40
0.0
  9
$PELEVATION
 40
0.0
  9
$THICKNESS
 40
0.0
  9
$LIMCHECK
 70
     0
  9
$BLIPMODE
 70
     1
  9
$CHAMFERA
 40
0.0
  9
$CHAMFERB
 40
0.0
  9
$SKPOLY
 70
     0
  9
$TDCREATE
 40
2450249.562349536
  9
$TDUPDATE
 40
2450249.567523148
  9
$TDINDWG
 40
0.0028703704
  9
$TDUSRTIMER
 40
0.0028703704
  9
$USRTIMER
 70
     1
  9
$ANGBASE
 50
0.0
  9
$ANGDIR
 70
     0
  9
$PDMODE
 70
     0
  9
$PDSIZE
 40
0.0
  9
$PLINEWID
 40
0.0
  9
$COORDS
 70
     2
  9
$SPLFRAME
 70
     0
  9
$SPLINETYPE
 70
     6
  9
$SPLINESEGS
 70
     8
  9
$ATTDIA
 70
     0
  9
$ATTREQ
 70
     1
  9
$HANDLING
 70
     0
  9
$HANDSEED
  5
0
  9
$SURFTAB1
 70
     6
  9
$SURFTAB2
 70
     6
  9
$SURFTYPE
 70
     6
  9
$SURFU
 70
     6
  9
$SURFV
 70
     6
  9
$UCSNAME
  2

  9
$UCSORG
 10
0.0
 20
0.0
 30
0.0
  9
$UCSXDIR
 10
1.0
 20
0.0
 30
0.0
  9
$UCSYDIR
 10
0.0
 20
1.0
 30
0.0
  9
$PUCSNAME
  2

  9
$PUCSORG
 10
0.0
 20
0.0
 30
0.0
  9
$PUCSXDIR
 10
1.0
 20
0.0
 30
0.0
  9
$PUCSYDIR
 10
0.0
 20
1.0
 30
0.0
  9
$USERI1
 70
     3
  9
$USERI2
 70
   289
  9
$USERI3
 70
     0
  9
$USERI4
 70
     1
  9
$USERI5
 70
     0
  9
$USERR1
 40
30.0
  9
$USERR2
 40
3.0
  9
$USERR3
 40
3.0
  9
$USERR4
 40
1.5
  9
$USERR5
 40
10.0
  9
$WORLDVIEW
 70
     1
  9
$SHADEDGE
 70
     3
  9
$SHADEDIF
 70
    70
  9
$TILEMODE
 70
     1
  9
$MAXACTVP
 70
    16
  9
$PINSBASE
 10
0.0
 20
0.0
 30
0.0
  9
$PLIMCHECK
 70
     0
  9
$PEXTMIN
 10
1.000000E+20
 20
1.000000E+20
 30
1.000000E+20
  9
$PEXTMAX
 10
-1.000000E+20
 20
-1.000000E+20
 30
-1.000000E+20
  9
$PLIMMIN
 10
0.0
 20
0.0
  9
$PLIMMAX
 10
12.0
 20
9.0
  9
$UNITMODE
 70
     0
  9
$VISRETAIN
 70
     0
  0
ENDSEC
  0
SECTION
  2
TABLES
  0
TABLE
  2
VPORT
 70
    10
  0
VPORT
  2
*ACTIVE
 70
     0
 10
0.0
 20
0.0
 11
1.0
 21
1.0
 12
6691.515737
 22
4095.0
 13
0.0
 23
0.0
 14
1.0
 24
1.0
 15
10.0
 25
10.0
 16
0.0
 26
0.0
 36
1.0
 17
0.0
 27
0.0
 37
0.0
 40
8190.0
 41
1.63407
 42
50.0
 43
0.0
 44
0.0
 50
0.0
 51
0.0
 71
     0
 72
   500
 73
     1
 74
     0
 75
     0
 76
     0
 77
     0
 78
     0
  0
VPORT
  2
2
 70
     0
 10
0.5
 20
0.0
 11
1.0
 21
1.0
 12
0.924031
 22
1.052651
 13
0.0
 23
0.0
 14
1.0
 24
1.0
 15
10.0
 25
10.0
 16
0.0
 26
0.0
 36
1.0
 17
0.0
 27
0.0
 37
0.0
 40
2.105302
 41
0.877814
 42
50.0
 43
0.0
 44
0.0
 50
0.0
 51
0.0
 71
     0
 72
   500
 73
     1
 74
     1
 75
     0
 76
     0
 77
     0
 78
     0
  0
VPORT
  2
2
 70
     0
 10
0.0
 20
0.0
 11
0.5
 21
1.0
 12
0.924031
 22
1.052651
 13
0.0
 23
0.0
 14
1.0
 24
1.0
 15
10.0
 25
10.0
 16
0.0
 26
0.0
 36
1.0
 17
0.0
 27
0.0
 37
0.0
 40
2.105302
 41
0.877814
 42
50.0
 43
0.0
 44
0.0
 50
0.0
 51
0.0
 71
     0
 72
   500
 73
     1
 74
     1
 75
     0
 76
     0
 77
     0
 78
     0
  0
VPORT
  2
3
 70
     0
 10
0.0
 20
0.5
 11
1.0
 21
1.0
 12
2.83217
 22
1.052651
 13
0.0
 23
0.0
 14
1.0
 24
1.0
 15
10.0
 25
10.0
 16
0.0
 26
0.0
 36
1.0
 17
0.0
 27
0.0
 37
0.0
 40
2.105302
 41
3.571429
 42
50.0
 43
0.0
 44
0.0
 50
0.0
 51
0.0
 71
     0
 72
   500
 73
     1
 74
     1
 75
     0
 76
     0
 77
     0
 78
     0
  0
VPORT
  2
3
 70
     0
 10
0.0
 20
0.0
 11
1.0
 21
0.5
 12
2.856742
 22
1.052651
 13
0.0
 23
0.0
 14
1.0
 24
1.0
 15
10.0
 25
10.0
 16
0.0
 26
0.0
 36
1.0
 17
0.0
 27
0.0
 37
0.0
 40
2.105302
 41
3.594771
 42
50.0
 43
0.0
 44
0.0
 50
0.0
 51
0.0
 71
     0
 72
   500
 73
     1
 74
     1
 75
     0
 76
     0
 77
     0
 78
     0
  0
VPORT
  2
4
 70
     0
 10
0.5
 20
0.0
 11
1.0
 21
0.5
 12
2.886858
 22
1.052651
 13
0.0
 23
0.0
 14
1.0
 24
1.0
 15
10.0
 25
10.0
 16
0.0
 26
0.0
 36
1.0
 17
0.0
 27
0.0
 37
0.0
 40
4.275207
 41
1.784314
 42
50.0
 43
0.0
 44
0.0
 50
0.0
 51
0.0
 71
     0
 72
   500
 73
     1
 74
     1
 75
     0
 76
     0
 77
     0
 78
     0
  0
VPORT
  2
4
 70
     0
 10
0.5
 20
0.5
 11
1.0
 21
1.0
 12
2.86209
 22
1.052651
 13
0.0
 23
0.0
 14
1.0
 24
1.0
 15
10.0
 25
10.0
 16
0.0
 26
0.0
 36
1.0
 17
0.0
 27
0.0
 37
0.0
 40
4.275207
 41
1.772727
 42
50.0
 43
0.0
 44
0.0
 50
0.0
 51
0.0
 71
     0
 72
   500
 73
     1
 74
     1
 75
     0
 76
     0
 77
     0
 78
     0
  0
VPORT
  2
4
 70
     0
 10
0.0
 20
0.5
 11
0.5
 21
1.0
 12
2.86209
 22
1.052651
 13
0.0
 23
0.0
 14
1.0
 24
1.0
 15
10.0
 25
10.0
 16
0.0
 26
0.0
 36
1.0
 17
0.0
 27
0.0
 37
0.0
 40
4.275207
 41
1.772727
 42
50.0
 43
0.0
 44
0.0
 50
0.0
 51
0.0
 71
     0
 72
   500
 73
     1
 74
     1
 75
     0
 76
     0
 77
     0
 78
     0
  0
VPORT
  2
4
 70
     0
 10
0.0
 20
0.0
 11
0.5
 21
0.5
 12
2.886858
 22
1.052651
 13
0.0
 23
0.0
 14
1.0
 24
1.0
 15
10.0
 25
10.0
 16
0.0
 26
0.0
 36
1.0
 17
0.0
 27
0.0
 37
0.0
 40
4.275207
 41
1.784314
 42
50.0
 43
0.0
 44
0.0
 50
0.0
 51
0.0
 71
     0
 72
   500
 73
     1
 74
     1
 75
     0
 76
     0
 77
     0
 78
     0
  0
ENDTAB
  0
TABLE
  2
LTYPE
 70
     5
  0
LTYPE
  2
CONTINUOUS
 70
    64
  3
実線
 72
    65
 73
     0
 40
0.0
  0
LTYPE
  2
DASHED
 70
    64
  3
__ __ __ __ __ __ __ __ __ __ __ __ __ __ __
 72
    65
 73
     2
 40
0.75
 49
0.5
 49
-0.25
  0
LTYPE
  2
CENTER
 70
    64
  3
____ _ ____ _ ____ _ ____ _ ____ _ ____ _ ____
 72
    65
 73
     4
 40
2.0
 49
1.25
 49
-0.25
 49
0.25
 49
-0.25
  0
LTYPE
  2
PHANTOM
 70
    64
  3
_____ _ _ _____ _ _ _____ _ _ _____ _ _ ____
 72
    65
 73
     6
 40
2.5
 49
1.25
 49
-0.25
 49
0.25
 49
-0.25
 49
0.25
 49
-0.25
  0
LTYPE
  2
HIDDEN
 70
    64
  3
_ _ _ _ _ _ _ _ _ _ _ _ _ _ _ _ _ _ _ _ _ _ _
 72
    65
 73
     2
 40
0.375
 49
0.25
 49
-0.125
  0
ENDTAB
  0
TABLE
  2
LAYER
 70
    14
  0
LAYER
  2
0
 70
    64
 62
     7
  6
CONTINUOUS
  0
LAYER
  2
ITTEN
 70
    64
 62
     1
  6
CENTER
  0
LAYER
  2
HATCH
 70
    64
 62
     4
  6
CONTINUOUS
  0
LAYER
  2
SUNPOU
 70
    64
 62
     3
  6
CONTINUOUS
  0
LAYER
  2
TEXT
 70
    64
 62
     3
  6
CONTINUOUS
  0
LAYER
  2
JISSEN
 70
    64
 62
     7
  6
CONTINUOUS
  0
LAYER
  2
TENSEN
 70
    64
 62
     2
  6
HIDDEN
  0
LAYER
  2
WAKU
 70
    64
 62
    -5
  6
CONTINUOUS
  0
ENDTAB
  0
TABLE
  2
STYLE
 70
     2
  0
STYLE
  2
STANDARD
 70
     0
 40
0.0
 41
1.0
 50
0.0
 71
     0
 42
0.2
  3
ROMANS
  4
EXTFONT
  0
STYLE
  2
K
 70
    64
 40
0.0
 41
1.0
 50
0.0
 71
     0
 42
60.0
  3
ROMANS
  4
EXTFONT
  0
ENDTAB
  0
TABLE
  2
VIEW
 70
     0
  0
ENDTAB
  0
TABLE
  2
UCS
 70
     0
  0
ENDTAB
  0
TABLE
  2
APPID
 70
     1
  0
APPID
  2
ACAD
 70
    64
  0
ENDTAB
  0
TABLE
  2
DIMSTYLE
 70
     0
  0
ENDTAB
  0
ENDSEC
  0
SECTION
  2
BLOCKS
  0
BLOCK
  8
SUNPOU
  2
ARROWANG
 70
    64
 10
0.0
 20
0.0
 30
0.0
  3
ARROWANG
  0
LINE
  8
SUNPOU
 10
0.0
 20
0.0
 30
0.0
 11
-1.5
 21
0.401924
 31
0.0
  0
LINE
  8
SUNPOU
 10
0.0
 20
0.0
 30
0.0
 11
-1.5
 21
-0.401924
 31
0.0
  0
ENDBLK
  8
SUNPOU
  0
BLOCK
  8
HATCH
  2
*X2
 70
    65
 10
0.0
 20
0.0
 30
0.0
  3
*X
  0
ENDBLK
  8
HATCH
  0
BLOCK
  8
HATCH
  2
*X3
 70
    65
 10
0.0
 20
0.0
 30
0.0
  3
*X
  0
ENDBLK
  8
HATCH
  0
BLOCK
  8
HATCH
  2
STDGX5
 70
    64
 10
0.0
 20
0.0
 30
0.0
  3
STDGX5
  0
ENDBLK
  8
HATCH
  0
ENDSEC
  0
SECTION
  2
ENTITIES
  0
LINE
  8
JISSEN
 10
1227.61078
 20
4608.771287
 30
0.0
 11
1292.61078
 21
4608.771287
 31
0.0
  0
LINE
  8
JISSEN
 10
1292.61078
 20
4608.771287
 30
0.0
 11
1297.61078
 21
4593.771287
 31
0.0
  0
LINE
  8
JISSEN
 10
1297.61078
 20
4593.771287
 30
0.0
 11
1927.61078
 21
4593.771287
 31
0.0
  0
LINE
  8
TENSEN
 10
2257.61078
 20
4593.771287
 30
0.0
 11
2262.61078
 21
4608.771287
 31
0.0
  0
LINE
  8
JISSEN
 10
2262.61078
 20
4608.771287
 30
0.0
 11
2327.61078
 21
4608.771287
 31
0.0
  0
LINE
  8
JISSEN
 10
2327.61078
 20
4608.771287
 30
0.0
 11
2327.61078
 21
4463.771287
 31
0.0
  0
LINE
  8
JISSEN
 10
2327.61078
 20
4463.771287
 30
0.0
 11
1227.61078
 21
4463.771287
 31
0.0
  0
LINE
  8
JISSEN
 10
1227.61078
 20
4463.771287
 30
0.0
 11
1227.61078
 21
4608.771287
 31
0.0
  0
LINE
  8
JISSEN
 10
1292.61078
 20
4608.771287
 30
0.0
 11
2262.61078
 21
4608.771287
 31
0.0
  0
LINE
  8
JISSEN
 10
1777.61078
 20
4593.771287
 30
0.0
 11
1777.61078
 21
4463.771287
 31
0.0
  0
LINE
  8
TENSEN
 10
2077.61078
 20
4463.771287
 30
0.0
 11
2077.61078
 21
4593.771287
 31
0.0
  0
LINE
  8
TENSEN
 10
1927.61078
 20
4593.771287
 30
0.0
 11
2257.61078
 21
4593.771287
 31
0.0
  0
LINE
  8
ITTEN
 10
1927.61078
 20
4708.771287
 30
0.0
 11
1927.61078
 21
4363.771287
 31
0.0
  0
CIRCLE
  8
JISSEN
 10
1692.61078
 20
4528.771287
 30
0.0
 40
10.0
  0
LINE
  8
ITTEN
 10
1692.61078
 20
4568.771287
 30
0.0
 11
1692.61078
 21
4488.771287
 31
0.0
  0
LINE
  8
ITTEN
 10
1732.61078
 20
4528.771287
 30
0.0
 11
1652.61078
 21
4528.771287
 31
0.0
  0
ARC
  8
JISSEN
 10
1927.61078
 20
3608.771287
 30
0.0
 40
400.0
 50
270.0
 51
90.0
  0
ARC
  8
JISSEN
 10
1927.61078
 20
3608.771287
 30
0.0
 40
335.0
 50
270.0
 51
90.0
  0
ARC
  8
JISSEN
 10
1927.61078
 20
3608.771287
 30
0.0
 40
330.0
 50
270.0
 51
90.0
  0
CIRCLE
  8
JISSEN
 10
1927.61078
 20
3608.771287
 30
0.0
 40
150.0
  0
LINE
  8
JISSEN
 10
1227.61078
 20
4008.771287
 30
0.0
 11
1927.61078
 21
4008.771287
 31
0.0
  0
LINE
  8
JISSEN
 10
1927.61078
 20
3943.771287
 30
0.0
 11
1404.241986
 21
3943.771287
 31
0.0
  0
LINE
  8
JISSEN
 10
1927.61078
 20
3938.771287
 30
0.0
 11
1404.241986
 21
3938.771287
 31
0.0
  0
LINE
  8
JISSEN
 10
1227.61078
 20
4008.771287
 30
0.0
 11
1227.61078
 21
3208.771287
 31
0.0
  0
LINE
  8
JISSEN
 10
1227.61078
 20
3208.771287
 30
0.0
 11
1927.61078
 21
3208.771287
 31
0.0
  0
LINE
  8
JISSEN
 10
1927.61078
 20
3273.771287
 30
0.0
 11
1404.241986
 21
3273.771287
 31
0.0
  0
LINE
  8
JISSEN
 10
1404.241986
 20
3278.771287
 30
0.0
 11
1927.61078
 21
3278.771287
 31
0.0
  0
ARC
  8
JISSEN
 10
3127.61078
 20
3608.771287
 30
0.0
 40
1835.0
 50
172.071858
 51
187.928142
  0
ARC
  8
JISSEN
 10
3127.61078
 20
3608.771287
 30
0.0
 40
1830.0
 50
172.071858
 51
187.928142
  0
ARC
  8
JISSEN
 10
1404.241986
 20
3848.771287
 30
0.0
 40
90.0
 50
90.0
 51
172.071858
  0
ARC
  8
JISSEN
 10
1404.241986
 20
3848.771287
 30
0.0
 40
95.0
 50
90.0
 51
172.071858
  0
ARC
  8
JISSEN
 10
1404.241986
 20
3368.771287
 30
0.0
 40
95.0
 50
187.928142
 51
270.0
  0
ARC
  8
JISSEN
 10
1404.241986
 20
3368.771287
 30
0.0
 40
90.0
 50
187.928142
 51
270.0
  0
LINE
  8
TENSEN
 10
1682.61078
 20
4008.771287
 30
0.0
 11
1682.61078
 21
3958.771287
 31
0.0
  0
LINE
  8
TENSEN
 10
1682.61078
 20
3958.771287
 30
0.0
 11
1702.61078
 21
3958.771287
 31
0.0
  0
LINE
  8
TENSEN
 10
1702.61078
 20
4008.771287
 30
0.0
 11
1702.61078
 21
3958.771287
 31
0.0
  0
LINE
  8
TENSEN
 10
1682.61078
 20
3208.771287
 30
0.0
 11
1682.61078
 21
3258.771287
 31
0.0
  0
LINE
  8
TENSEN
 10
1682.61078
 20
3258.771287
 30
0.0
 11
1702.61078
 21
3258.771287
 31
0.0
  0
LINE
  8
TENSEN
 10
1702.61078
 20
3258.771287
 30
0.0
 11
1702.61078
 21
3208.771287
 31
0.0
  0
LINE
  8
ITTEN
 10
1692.61078
 20
4058.771287
 30
0.0
 11
1692.61078
 21
3908.771287
 31
0.0
  0
LINE
  8
ITTEN
 10
1692.61078
 20
3308.771287
 30
0.0
 11
1692.61078
 21
3158.771287
 31
0.0
  0
LINE
  8
ITTEN
 10
1927.61078
 20
4108.771287
 30
0.0
 11
1927.61078
 21
3158.771287
 31
0.0
  0
LINE
  8
ITTEN
 10
1127.61078
 20
3608.771287
 30
0.0
 11
2427.61078
 21
3608.771287
 31
0.0
  0
LINE
  8
SUNPOU
 10
1227.61078
 20
4638.771287
 30
0.0
 11
1227.61078
 21
4938.771287
 31
0.0
  0
LINE
  8
SUNPOU
 10
2327.61078
 20
4638.771287
 30
0.0
 11
2327.61078
 21
4938.771287
 31
0.0
  0
LINE
  8
SUNPOU
 10
1227.61078
 20
4908.771287
 30
0.0
 11
2327.61078
 21
4908.771287
 31
0.0
  0
INSERT
  8
SUNPOU
  2
ARROWANG
 10
1227.61078
 20
4908.771287
 30
0.0
 41
30.0
 42
30.0
 50
180.0
 43
30.0
  0
INSERT
  8
SUNPOU
  2
ARROWANG
 10
2327.61078
 20
4908.771287
 30
0.0
 41
30.0
 42
30.0
 43
30.0
  0
TEXT
  8
SUNPOU
 10
1688.682223
 20
4953.771287
 30
0.0
 40
45.0
  1
1100
  7
K
 72
     1
 11
1777.610794
 21
4953.771287
 31
0.0
  0
LINE
  8
SUNPOU
 10
1227.61078
 20
4788.771287
 30
0.0
 11
1227.61078
 21
4788.771287
 31
0.0
  0
LINE
  8
SUNPOU
 10
1292.61078
 20
4638.771287
 30
0.0
 11
1292.61078
 21
4788.771287
 31
0.0
  0
LINE
  8
SUNPOU
 10
1227.61078
 20
4758.771287
 30
0.0
 11
1292.61078
 21
4758.771287
 31
0.0
  0
INSERT
  8
SUNPOU
  2
ARROWANG
 10
1292.61078
 20
4758.771287
 30
0.0
 41
30.0
 42
30.0
 50
180.0
 43
30.0
  0
INSERT
  8
SUNPOU
  2
ARROWANG
 10
1227.61078
 20
4758.771287
 30
0.0
 41
30.0
 42
30.0
 43
30.0
  0
LINE
  8
SUNPOU
 10
1227.61078
 20
4758.771287
 30
0.0
 11
1128.61078
 21
4758.771287
 31
0.0
  0
LINE
  8
SUNPOU
 10
1292.61078
 20
4758.771287
 30
0.0
 11
1352.61078
 21
4758.771287
 31
0.0
  0
TEXT
  8
SUNPOU
 10
1134.182208
 20
4803.771287
 30
0.0
 40
45.0
  1
65
  7
K
 72
     1
 11
1178.11078
 21
4803.771287
 31
0.0
  0
LINE
  8
SUNPOU
 10
1292.61078
 20
4788.771287
 30
0.0
 11
1292.61078
 21
4788.771287
 31
0.0
  0
LINE
  8
SUNPOU
 10
1927.61078
 20
4738.771287
 30
0.0
 11
1927.61078
 21
4788.771287
 31
0.0
  0
LINE
  8
SUNPOU
 10
1292.61078
 20
4758.771287
 30
0.0
 11
1927.61078
 21
4758.771287
 31
0.0
  0
INSERT
  8
SUNPOU
  2
ARROWANG
 10
1927.61078
 20
4758.771287
 30
0.0
 41
30.0
 42
30.0
 43
30.0
  0
INSERT
  8
SUNPOU
  2
ARROWANG
 10
1292.61078
 20
4758.771287
 30
0.0
 41
30.0
 42
30.0
 50
180.0
 43
30.0
  0
TEXT
  8
SUNPOU
 10
1544.753637
 20
4803.771287
 30
0.0
 40
45.0
  1
635
  7
K
 72
     1
 11
1610.11078
 21
4803.771287
 31
0.0
  0
LINE
  8
SUNPOU
 10
1927.61078
 20
4728.771287
 30
0.0
 11
1927.61078
 21
4728.771287
 31
0.0
  0
LINE
  8
SUNPOU
 10
2262.61078
 20
4638.771287
 30
0.0
 11
2262.61078
 21
4788.771287
 31
0.0
  0
LINE
  8
SUNPOU
 10
1927.61078
 20
4758.771287
 30
0.0
 11
2262.61078
 21
4758.771287
 31
0.0
  0
INSERT
  8
SUNPOU
  2
ARROWANG
 10
1927.61078
 20
4758.771287
 30
0.0
 41
30.0
 42
30.0
 50
180.0
 43
30.0
  0
INSERT
  8
SUNPOU
  2
ARROWANG
 10
2262.61078
 20
4758.771287
 30
0.0
 41
30.0
 42
30.0
 43
30.0
  0
TEXT
  8
SUNPOU
 10
2030.82508
 20
4803.771287
 30
0.0
 40
45.0
  1
335
  7
K
 72
     1
 11
2095.110794
 21
4803.771287
 31
0.0
  0
LINE
  8
SUNPOU
 10
2262.61078
 20
4788.771287
 30
0.0
 11
2262.61078
 21
4788.771287
 31
0.0
  0
LINE
  8
SUNPOU
 10
2327.61078
 20
4788.771287
 30
0.0
 11
2327.61078
 21
4788.771287
 31
0.0
  0
LINE
  8
SUNPOU
 10
2262.61078
 20
4758.771287
 30
0.0
 11
2327.61078
 21
4758.771287
 31
0.0
  0
INSERT
  8
SUNPOU
  2
ARROWANG
 10
2327.61078
 20
4758.771287
 30
0.0
 41
30.0
 42
30.0
 50
180.0
 43
30.0
  0
INSERT
  8
SUNPOU
  2
ARROWANG
 10
2262.61078
 20
4758.771287
 30
0.0
 41
30.0
 42
30.0
 43
30.0
  0
LINE
  8
SUNPOU
 10
2327.61078
 20
4758.771287
 30
0.0
 11
2426.61078
 21
4758.771287
 31
0.0
  0
LINE
  8
SUNPOU
 10
2262.61078
 20
4758.771287
 30
0.0
 11
2202.61078
 21
4758.771287
 31
0.0
  0
TEXT
  8
SUNPOU
 10
2333.182208
 20
4803.771287
 30
0.0
 40
45.0
  1
65
  7
K
 72
     1
 11
2377.11078
 21
4803.771287
 31
0.0
  0
LINE
  8
SUNPOU
 10
1197.61078
 20
4463.771287
 30
0.0
 11
897.61078
 21
4463.771287
 31
0.0
  0
LINE
  8
SUNPOU
 10
1197.61078
 20
4608.771287
 30
0.0
 11
897.61078
 21
4608.771287
 31
0.0
  0
LINE
  8
SUNPOU
 10
927.61078
 20
4463.771287
 30
0.0
 11
927.61078
 21
4608.771287
 31
0.0
  0
INSERT
  8
SUNPOU
  2
ARROWANG
 10
927.61078
 20
4463.771287
 30
0.0
 41
30.0
 42
30.0
 50
270.0
 43
30.0
  0
INSERT
  8
SUNPOU
  2
ARROWANG
 10
927.61078
 20
4608.771287
 30
0.0
 41
30.0
 42
30.0
 50
90.0
 43
30.0
  0
TEXT
  8
SUNPOU
 10
882.61078
 20
4468.771287
 30
0.0
 40
45.0
  1
145
 50
90.0
  7
K
 72
     1
 11
882.61078
 21
4536.271287
 31
0.0
  0
LINE
  8
SUNPOU
 10
1267.61078
 20
4593.771287
 30
0.0
 11
1047.61078
 21
4593.771287
 31
0.0
  0
LINE
  8
SUNPOU
 10
1107.61078
 20
4608.771287
 30
0.0
 11
1107.61078
 21
4608.771287
 31
0.0
  0
INSERT
  8
SUNPOU
  2
ARROWANG
 10
1077.61078
 20
4593.771287
 30
0.0
 41
30.0
 42
30.0
 50
90.0
 43
30.0
  0
INSERT
  8
SUNPOU
  2
ARROWANG
 10
1077.61078
 20
4608.771287
 30
0.0
 41
30.0
 42
30.0
 50
270.0
 43
30.0
  0
LINE
  8
SUNPOU
 10
1077.61078
 20
4593.771287
 30
0.0
 11
1077.61078
 21
4494.771287
 31
0.0
  0
LINE
  8
SUNPOU
 10
1077.61078
 20
4608.771287
 30
0.0
 11
1077.61078
 21
4668.771287
 31
0.0
  0
TEXT
  8
SUNPOU
 10
1032.61078
 20
4498.199859
 30
0.0
 40
45.0
  1
15
 50
90.0
  7
K
 72
     1
 11
1032.61078
 21
4544.271287
 31
0.0
  0
LINE
  8
JISSEN
 10
2927.61078
 20
4608.771287
 30
0.0
 11
2992.61078
 21
4608.771287
 31
0.0
  0
LINE
  8
JISSEN
 10
2992.61078
 20
4608.771287
 30
0.0
 11
2997.61078
 21
4593.771287
 31
0.0
  0
LINE
  8
JISSEN
 10
2997.61078
 20
4593.771287
 30
0.0
 11
3327.61078
 21
4593.771287
 31
0.0
  0
LINE
  8
TENSEN
 10
3327.61078
 20
4593.771287
 30
0.0
 11
3657.61078
 21
4593.771287
 31
0.0
  0
LINE
  8
TENSEN
 10
3657.61078
 20
4593.771287
 30
0.0
 11
3662.61078
 21
4608.771287
 31
0.0
  0
LINE
  8
JISSEN
 10
3662.61078
 20
4608.771287
 30
0.0
 11
3727.61078
 21
4608.771287
 31
0.0
  0
LINE
  8
JISSEN
 10
3727.61078
 20
4608.771287
 30
0.0
 11
3727.61078
 21
4463.771287
 31
0.0
  0
LINE
  8
JISSEN
 10
3727.61078
 20
4463.771287
 30
0.0
 11
2927.61078
 21
4463.771287
 31
0.0
  0
LINE
  8
JISSEN
 10
2927.61078
 20
4463.771287
 30
0.0
 11
2927.61078
 21
4608.771287
 31
0.0
  0
LINE
  8
JISSEN
 10
2992.61078
 20
4608.771287
 30
0.0
 11
3662.61078
 21
4608.771287
 31
0.0
  0
LINE
  8
JISSEN
 10
3177.61078
 20
4593.771287
 30
0.0
 11
3177.61078
 21
4463.771287
 31
0.0
  0
LINE
  8
TENSEN
 10
3477.61078
 20
4593.771287
 30
0.0
 11
3477.61078
 21
4463.771287
 31
0.0
  0
LINE
  8
ITTEN
 10
3327.61078
 20
4708.771287
 30
0.0
 11
3327.61078
 21
4363.771287
 31
0.0
  0
LINE
  8
TENSEN
 10
2927.61078
 20
4538.771287
 30
0.0
 11
2977.61078
 21
4538.771287
 31
0.0
  0
LINE
  8
TENSEN
 10
2977.61078
 20
4538.771287
 30
0.0
 11
2977.61078
 21
4518.771287
 31
0.0
  0
LINE
  8
TENSEN
 10
2977.61078
 20
4518.771287
 30
0.0
 11
2927.61078
 21
4518.771287
 31
0.0
  0
LINE
  8
TENSEN
 10
3727.61078
 20
4538.771287
 30
0.0
 11
3677.61078
 21
4538.771287
 31
0.0
  0
LINE
  8
TENSEN
 10
3677.61078
 20
4518.771287
 30
0.0
 11
3677.61078
 21
4518.771287
 31
0.0
  0
LINE
  8
TENSEN
 10
3677.61078
 20
4538.771287
 30
0.0
 11
3677.61078
 21
4518.771287
 31
0.0
  0
LINE
  8
TENSEN
 10
3677.61078
 20
4518.771287
 30
0.0
 11
3727.61078
 21
4518.771287
 31
0.0
  0
LINE
  8
ITTEN
 10
2877.61078
 20
4528.771287
 30
0.0
 11
3027.61078
 21
4528.771287
 31
0.0
  0
LINE
  8
ITTEN
 10
3627.61078
 20
4528.771287
 30
0.0
 11
3777.61078
 21
4528.771287
 31
0.0
  0
LINE
  8
SUNPOU
 10
2927.61078
 20
4638.771287
 30
0.0
 11
2927.61078
 21
4938.771287
 31
0.0
  0
LINE
  8
SUNPOU
 10
3727.61078
 20
4638.771287
 30
0.0
 11
3727.61078
 21
4938.771287
 31
0.0
  0
LINE
  8
SUNPOU
 10
2927.61078
 20
4908.771287
 30
0.0
 11
3727.61078
 21
4908.771287
 31
0.0
  0
INSERT
  8
SUNPOU
  2
ARROWANG
 10
2927.61078
 20
4908.771287
 30
0.0
 41
30.0
 42
30.0
 50
180.0
 43
30.0
  0
INSERT
  8
SUNPOU
  2
ARROWANG
 10
3727.61078
 20
4908.771287
 30
0.0
 41
30.0
 42
30.0
 43
30.0
  0
TEXT
  8
SUNPOU
 10
3263.32508
 20
4953.771287
 30
0.0
 40
45.0
  1
800
  7
K
 72
     1
 11
3327.610794
 21
4953.771287
 31
0.0
  0
LINE
  8
SUNPOU
 10
2927.61078
 20
4788.771287
 30
0.0
 11
2927.61078
 21
4788.771287
 31
0.0
  0
LINE
  8
SUNPOU
 10
2992.61078
 20
4638.771287
 30
0.0
 11
2992.61078
 21
4788.771287
 31
0.0
  0
LINE
  8
SUNPOU
 10
2927.61078
 20
4758.771287
 30
0.0
 11
2992.61078
 21
4758.771287
 31
0.0
  0
INSERT
  8
SUNPOU
  2
ARROWANG
 10
2992.61078
 20
4758.771287
 30
0.0
 41
30.0
 42
30.0
 50
180.0
 43
30.0
  0
INSERT
  8
SUNPOU
  2
ARROWANG
 10
2927.61078
 20
4758.771287
 30
0.0
 41
30.0
 42
30.0
 43
30.0
  0
LINE
  8
SUNPOU
 10
2927.61078
 20
4758.771287
 30
0.0
 11
2828.61078
 21
4758.771287
 31
0.0
  0
LINE
  8
SUNPOU
 10
2992.61078
 20
4758.771287
 30
0.0
 11
3052.61078
 21
4758.771287
 31
0.0
  0
TEXT
  8
SUNPOU
 10
2834.182208
 20
4803.771287
 30
0.0
 40
45.0
  1
65
  7
K
 72
     1
 11
2878.11078
 21
4803.771287
 31
0.0
  0
LINE
  8
SUNPOU
 10
2992.61078
 20
4728.771287
 30
0.0
 11
2992.61078
 21
4728.771287
 31
0.0
  0
LINE
  8
SUNPOU
 10
3662.61078
 20
4638.771287
 30
0.0
 11
3662.61078
 21
4788.771287
 31
0.0
  0
LINE
  8
SUNPOU
 10
2992.61078
 20
4758.771287
 30
0.0
 11
3662.61078
 21
4758.771287
 31
0.0
  0
INSERT
  8
SUNPOU
  2
ARROWANG
 10
2992.61078
 20
4758.771287
 30
0.0
 41
30.0
 42
30.0
 50
180.0
 43
30.0
  0
INSERT
  8
SUNPOU
  2
ARROWANG
 10
3662.61078
 20
4758.771287
 30
0.0
 41
30.0
 42
30.0
 43
30.0
  0
TEXT
  8
SUNPOU
 10
3262.253652
 20
4803.771287
 30
0.0
 40
45.0
  1
670
  7
K
 72
     1
 11
3327.610794
 21
4803.771287
 31
0.0
  0
LINE
  8
SUNPOU
 10
3662.61078
 20
4788.771287
 30
0.0
 11
3662.61078
 21
4788.771287
 31
0.0
  0
LINE
  8
SUNPOU
 10
3727.61078
 20
4788.771287
 30
0.0
 11
3727.61078
 21
4788.771287
 31
0.0
  0
LINE
  8
SUNPOU
 10
3662.61078
 20
4758.771287
 30
0.0
 11
3727.61078
 21
4758.771287
 31
0.0
  0
INSERT
  8
SUNPOU
  2
ARROWANG
 10
3727.61078
 20
4758.771287
 30
0.0
 41
30.0
 42
30.0
 50
180.0
 43
30.0
  0
INSERT
  8
SUNPOU
  2
ARROWANG
 10
3662.61078
 20
4758.771287
 30
0.0
 41
30.0
 42
30.0
 43
30.0
  0
LINE
  8
SUNPOU
 10
3727.61078
 20
4758.771287
 30
0.0
 11
3826.61078
 21
4758.771287
 31
0.0
  0
LINE
  8
SUNPOU
 10
3662.61078
 20
4758.771287
 30
0.0
 11
3602.61078
 21
4758.771287
 31
0.0
  0
TEXT
  8
SUNPOU
 10
3733.182208
 20
4803.771287
 30
0.0
 40
45.0
  1
65
  7
K
 72
     1
 11
3777.11078
 21
4803.771287
 31
0.0
  0
LINE
  8
SUNPOU
 10
1622.61078
 20
4528.771287
 30
0.0
 11
1502.61078
 21
4528.771287
 31
0.0
  0
LINE
  8
SUNPOU
 10
1562.61078
 20
4608.771287
 30
0.0
 11
1562.61078
 21
4608.771287
 31
0.0
  0
INSERT
  8
SUNPOU
  2
ARROWANG
 10
1532.61078
 20
4528.771287
 30
0.0
 41
30.0
 42
30.0
 50
90.0
 43
30.0
  0
INSERT
  8
SUNPOU
  2
ARROWANG
 10
1532.61078
 20
4608.771287
 30
0.0
 41
30.0
 42
30.0
 50
270.0
 43
30.0
  0
LINE
  8
SUNPOU
 10
1532.61078
 20
4608.771287
 30
0.0
 11
1532.61078
 21
4707.771287
 31
0.0
  0
LINE
  8
SUNPOU
 10
1532.61078
 20
4528.771287
 30
0.0
 11
1532.610781
 21
4468.771287
 31
0.0
  0
TEXT
  8
SUNPOU
 10
1487.61078
 20
4615.414144
 30
0.0
 40
45.0
  1
80
 50
90.0
  7
K
 72
     1
 11
1487.61078
 21
4658.271287
 31
0.0
  0
LINE
  8
SUNPOU
 10
1197.61078
 20
3208.771287
 30
0.0
 11
1047.61078
 21
3208.771287
 31
0.0
  0
LINE
  8
SUNPOU
 10
1197.61078
 20
4008.771287
 30
0.0
 11
1047.61078
 21
4008.771287
 31
0.0
  0
LINE
  8
SUNPOU
 10
1077.61078
 20
3208.771287
 30
0.0
 11
1077.61078
 21
4008.771287
 31
0.0
  0
INSERT
  8
SUNPOU
  2
ARROWANG
 10
1077.61078
 20
3208.771287
 30
0.0
 41
30.0
 42
30.0
 50
270.0
 43
30.0
  0
INSERT
  8
SUNPOU
  2
ARROWANG
 10
1077.61078
 20
4008.771287
 30
0.0
 41
30.0
 42
30.0
 50
90.0
 43
30.0
  0
TEXT
  8
SUNPOU
 10
1032.61078
 20
3544.485573
 30
0.0
 40
45.0
  1
800
 50
90.0
  7
K
 72
     1
 11
1032.61078
 21
3608.771287
 31
0.0
  0
LINE
  8
SUNPOU
 10
1227.61078
 20
3178.771287
 30
0.0
 11
1227.61078
 21
2878.771287
 31
0.0
  0
LINE
  8
SUNPOU
 10
2327.61078
 20
3578.771287
 30
0.0
 11
2327.61078
 21
2878.771287
 31
0.0
  0
LINE
  8
SUNPOU
 10
1227.61078
 20
2908.771287
 30
0.0
 11
2327.61078
 21
2908.771287
 31
0.0
  0
INSERT
  8
SUNPOU
  2
ARROWANG
 10
2327.61078
 20
2908.771287
 30
0.0
 41
30.0
 42
30.0
 43
30.0
  0
INSERT
  8
SUNPOU
  2
ARROWANG
 10
1227.61078
 20
2908.771287
 30
0.0
 41
30.0
 42
30.0
 50
180.0
 43
30.0
  0
TEXT
  8
SUNPOU
 10
1688.682208
 20
2953.771287
 30
0.0
 40
45.0
  1
1100
  7
K
 72
     1
 11
1777.61078
 21
2953.771287
 31
0.0
  0
LINE
  8
SUNPOU
 10
1227.61078
 20
3028.771287
 30
0.0
 11
1227.61078
 21
3028.771287
 31
0.0
  0
LINE
  8
SUNPOU
 10
1927.61078
 20
3128.771287
 30
0.0
 11
1927.61078
 21
3028.771287
 31
0.0
  0
LINE
  8
SUNPOU
 10
1227.61078
 20
3058.771287
 30
0.0
 11
1927.61078
 21
3058.771287
 31
0.0
  0
INSERT
  8
SUNPOU
  2
ARROWANG
 10
1227.61078
 20
3058.771287
 30
0.0
 41
30.0
 42
30.0
 50
180.0
 43
30.0
  0
INSERT
  8
SUNPOU
  2
ARROWANG
 10
1927.61078
 20
3058.771287
 30
0.0
 41
30.0
 42
30.0
 43
30.0
  0
TEXT
  8
SUNPOU
 10
1513.32508
 20
3103.771287
 30
0.0
 40
45.0
  1
700
  7
K
 72
     1
 11
1577.610794
 21
3103.771287
 31
0.0
  0
LINE
  8
SUNPOU
 10
1927.61078
 20
3028.771287
 30
0.0
 11
1927.61078
 21
3028.771287
 31
0.0
  0
LINE
  8
SUNPOU
 10
2327.61078
 20
3028.771287
 30
0.0
 11
2327.61078
 21
3028.771287
 31
0.0
  0
LINE
  8
SUNPOU
 10
1927.61078
 20
3058.771287
 30
0.0
 11
2327.61078
 21
3058.771287
 31
0.0
  0
INSERT
  8
SUNPOU
  2
ARROWANG
 10
1927.61078
 20
3058.771287
 30
0.0
 41
30.0
 42
30.0
 50
180.0
 43
30.0
  0
INSERT
  8
SUNPOU
  2
ARROWANG
 10
2327.61078
 20
3058.771287
 30
0.0
 41
30.0
 42
30.0
 43
30.0
  0
TEXT
  8
SUNPOU
 10
2063.32508
 20
3103.771287
 30
0.0
 40
45.0
  1
400
  7
K
 72
     1
 11
2127.610794
 21
3103.771287
 31
0.0
  0
LINE
  8
SUNPOU
 10
2034.780051
 20
3713.722454
 30
0.0
 11
1820.441509
 21
3503.820121
 31
0.0
  0
INSERT
  8
SUNPOU
  2
ARROWANG
 10
2034.780051
 20
3713.722454
 30
0.0
 41
30.0
 42
30.0
 50
44.40089
 43
30.0
  0
INSERT
  8
SUNPOU
  2
ARROWANG
 10
1820.441509
 20
3503.820121
 30
0.0
 41
30.0
 42
30.0
 50
224.40089
 43
30.0
  0
TEXT
  8
SUNPOU
 10
1837.947825
 20
3583.948578
 30
0.0
 40
45.0
  1
%%C300
 50
44.40089
  7
K
 72
     1
 11
1896.12543
 21
3640.922069
 31
0.0
  0
LINE
  8
SUNPOU
 10
2171.2814
 20
3386.229991
 30
0.0
 11
1927.61078
 21
3608.771287
 31
0.0
  0
INSERT
  8
SUNPOU
  2
ARROWANG
 10
2171.2814
 20
3386.229991
 30
0.0
 41
30.0
 42
30.0
 50
317.594943
 43
30.0
  0
TEXT
  8
SUNPOU
 10
2061.123422
 20
3541.13696
 30
0.0
 40
45.0
  1
R330
 50
317.594943
  7
K
 72
     1
 11
2125.996769
 21
3481.888953
 31
0.0
  0
TEXT
  8
SUNPOU
 10
5763.891136
 20
3541.13696
 30
0.0
 40
45.0
  1
R330
 50
317.594943
  7
K
 72
     1
 11
5828.764483
 21
3481.888953
 31
0.0
  0
INSERT
  8
SUNPOU
  2
ARROWANG
 10
5874.049115
 20
3386.229991
 30
0.0
 41
30.0
 42
30.0
 50
317.594943
 43
30.0
  0
LINE
  8
SUNPOU
 10
5874.049115
 20
3386.229991
 30
0.0
 11
5630.378494
 21
3608.771287
 31
0.0
  0
TEXT
  8
SUNPOU
 10
5540.71554
 20
3583.948578
 30
0.0
 40
45.0
  1
%%C300
 50
44.40089
  7
K
 72
     1
 11
5598.893144
 21
3640.922069
 31
0.0
  0
INSERT
  8
SUNPOU
  2
ARROWANG
 10
5523.209223
 20
3503.820121
 30
0.0
 41
30.0
 42
30.0
 50
224.40089
 43
30.0
  0
INSERT
  8
SUNPOU
  2
ARROWANG
 10
5737.547765
 20
3713.722454
 30
0.0
 41
30.0
 42
30.0
 50
44.40089
 43
30.0
  0
LINE
  8
SUNPOU
 10
5737.547765
 20
3713.722454
 30
0.0
 11
5523.209223
 21
3503.820121
 31
0.0
  0
TEXT
  8
SUNPOU
 10
5766.092795
 20
3103.771287
 30
0.0
 40
45.0
  1
400
  7
K
 72
     1
 11
5830.378509
 21
3103.771287
 31
0.0
  0
INSERT
  8
SUNPOU
  2
ARROWANG
 10
6030.378494
 20
3058.771287
 30
0.0
 41
30.0
 42
30.0
 43
30.0
  0
INSERT
  8
SUNPOU
  2
ARROWANG
 10
5630.378494
 20
3058.771287
 30
0.0
 41
30.0
 42
30.0
 50
180.0
 43
30.0
  0
LINE
  8
SUNPOU
 10
5630.378494
 20
3058.771287
 30
0.0
 11
6030.378494
 21
3058.771287
 31
0.0
  0
LINE
  8
SUNPOU
 10
6030.378494
 20
3028.771287
 30
0.0
 11
6030.378494
 21
3028.771287
 31
0.0
  0
LINE
  8
SUNPOU
 10
5630.378494
 20
3028.771287
 30
0.0
 11
5630.378494
 21
3028.771287
 31
0.0
  0
TEXT
  8
SUNPOU
 10
5216.092795
 20
3103.771287
 30
0.0
 40
45.0
  1
700
  7
K
 72
     1
 11
5280.378509
 21
3103.771287
 31
0.0
  0
INSERT
  8
SUNPOU
  2
ARROWANG
 10
5630.378494
 20
3058.771287
 30
0.0
 41
30.0
 42
30.0
 43
30.0
  0
INSERT
  8
SUNPOU
  2
ARROWANG
 10
4930.378494
 20
3058.771287
 30
0.0
 41
30.0
 42
30.0
 50
180.0
 43
30.0
  0
LINE
  8
SUNPOU
 10
4930.378494
 20
3058.771287
 30
0.0
 11
5630.378494
 21
3058.771287
 31
0.0
  0
LINE
  8
SUNPOU
 10
5630.378494
 20
3128.771287
 30
0.0
 11
5630.378494
 21
3028.771287
 31
0.0
  0
LINE
  8
SUNPOU
 10
4930.378494
 20
3028.771287
 30
0.0
 11
4930.378494
 21
3028.771287
 31
0.0
  0
TEXT
  8
SUNPOU
 10
5391.449923
 20
2953.771287
 30
0.0
 40
45.0
  1
1100
  7
K
 72
     1
 11
5480.378494
 21
2953.771287
 31
0.0
  0
INSERT
  8
SUNPOU
  2
ARROWANG
 10
4930.378494
 20
2908.771287
 30
0.0
 41
30.0
 42
30.0
 50
180.0
 43
30.0
  0
INSERT
  8
SUNPOU
  2
ARROWANG
 10
6030.378494
 20
2908.771287
 30
0.0
 41
30.0
 42
30.0
 43
30.0
  0
LINE
  8
SUNPOU
 10
4930.378494
 20
2908.771287
 30
0.0
 11
6030.378494
 21
2908.771287
 31
0.0
  0
LINE
  8
SUNPOU
 10
6030.378494
 20
3578.771287
 30
0.0
 11
6030.378494
 21
2878.771287
 31
0.0
  0
LINE
  8
SUNPOU
 10
4930.378494
 20
3178.771287
 30
0.0
 11
4930.378494
 21
2878.771287
 31
0.0
  0
TEXT
  8
SUNPOU
 10
4735.378494
 20
3544.485573
 30
0.0
 40
45.0
  1
800
 50
90.0
  7
K
 72
     1
 11
4735.378494
 21
3608.771287
 31
0.0
  0
INSERT
  8
SUNPOU
  2
ARROWANG
 10
4780.378494
 20
4008.771287
 30
0.0
 41
30.0
 42
30.0
 50
90.0
 43
30.0
  0
INSERT
  8
SUNPOU
  2
ARROWANG
 10
4780.378494
 20
3208.771287
 30
0.0
 41
30.0
 42
30.0
 50
270.0
 43
30.0
  0
LINE
  8
SUNPOU
 10
4780.378494
 20
3208.771287
 30
0.0
 11
4780.378494
 21
4008.771287
 31
0.0
  0
LINE
  8
SUNPOU
 10
4900.378494
 20
4008.771287
 30
0.0
 11
4750.378494
 21
4008.771287
 31
0.0
  0
LINE
  8
SUNPOU
 10
4900.378494
 20
3208.771287
 30
0.0
 11
4750.378494
 21
3208.771287
 31
0.0
  0
TEXT
  8
SUNPOU
 10
5190.378494
 20
4615.414144
 30
0.0
 40
45.0
  1
80
 50
90.0
  7
K
 72
     1
 11
5190.378494
 21
4658.271287
 31
0.0
  0
LINE
  8
SUNPOU
 10
5235.378494
 20
4528.771287
 30
0.0
 11
5235.378495
 21
4468.771287
 31
0.0
  0
LINE
  8
SUNPOU
 10
5235.378494
 20
4608.771287
 30
0.0
 11
5235.378494
 21
4707.771287
 31
0.0
  0
INSERT
  8
SUNPOU
  2
ARROWANG
 10
5235.378494
 20
4608.771287
 30
0.0
 41
30.0
 42
30.0
 50
270.0
 43
30.0
  0
INSERT
  8
SUNPOU
  2
ARROWANG
 10
5235.378494
 20
4528.771287
 30
0.0
 41
30.0
 42
30.0
 50
90.0
 43
30.0
  0
LINE
  8
SUNPOU
 10
5265.378494
 20
4608.771287
 30
0.0
 11
5265.378494
 21
4608.771287
 31
0.0
  0
LINE
  8
SUNPOU
 10
5325.378494
 20
4528.771287
 30
0.0
 11
5205.378494
 21
4528.771287
 31
0.0
  0
TEXT
  8
SUNPOU
 10
7435.949923
 20
4803.771287
 30
0.0
 40
45.0
  1
65
  7
K
 72
     1
 11
7479.878494
 21
4803.771287
 31
0.0
  0
LINE
  8
SUNPOU
 10
7365.378494
 20
4758.771287
 30
0.0
 11
7305.378494
 21
4758.771287
 31
0.0
  0
LINE
  8
SUNPOU
 10
7430.378494
 20
4758.771287
 30
0.0
 11
7529.378494
 21
4758.771287
 31
0.0
  0
INSERT
  8
SUNPOU
  2
ARROWANG
 10
7365.378494
 20
4758.771287
 30
0.0
 41
30.0
 42
30.0
 43
30.0
  0
INSERT
  8
SUNPOU
  2
ARROWANG
 10
7430.378494
 20
4758.771287
 30
0.0
 41
30.0
 42
30.0
 50
180.0
 43
30.0
  0
LINE
  8
SUNPOU
 10
7365.378494
 20
4758.771287
 30
0.0
 11
7430.378494
 21
4758.771287
 31
0.0
  0
LINE
  8
SUNPOU
 10
7430.378494
 20
4788.771287
 30
0.0
 11
7430.378494
 21
4788.771287
 31
0.0
  0
LINE
  8
SUNPOU
 10
7365.378494
 20
4788.771287
 30
0.0
 11
7365.378494
 21
4788.771287
 31
0.0
  0
TEXT
  8
SUNPOU
 10
6965.021366
 20
4803.771287
 30
0.0
 40
45.0
  1
670
  7
K
 72
     1
 11
7030.378509
 21
4803.771287
 31
0.0
  0
INSERT
  8
SUNPOU
  2
ARROWANG
 10
7365.378494
 20
4758.771287
 30
0.0
 41
30.0
 42
30.0
 43
30.0
  0
INSERT
  8
SUNPOU
  2
ARROWANG
 10
6695.378494
 20
4758.771287
 30
0.0
 41
30.0
 42
30.0
 50
180.0
 43
30.0
  0
LINE
  8
SUNPOU
 10
6695.378494
 20
4758.771287
 30
0.0
 11
7365.378494
 21
4758.771287
 31
0.0
  0
LINE
  8
SUNPOU
 10
7365.378494
 20
4638.771287
 30
0.0
 11
7365.378494
 21
4788.771287
 31
0.0
  0
LINE
  8
SUNPOU
 10
6695.378494
 20
4728.771287
 30
0.0
 11
6695.378494
 21
4728.771287
 31
0.0
  0
TEXT
  8
SUNPOU
 10
6536.949923
 20
4803.771287
 30
0.0
 40
45.0
  1
65
  7
K
 72
     1
 11
6580.878494
 21
4803.771287
 31
0.0
  0
LINE
  8
SUNPOU
 10
6695.378494
 20
4758.771287
 30
0.0
 11
6755.378494
 21
4758.771287
 31
0.0
  0
LINE
  8
SUNPOU
 10
6630.378494
 20
4758.771287
 30
0.0
 11
6531.378494
 21
4758.771287
 31
0.0
  0
INSERT
  8
SUNPOU
  2
ARROWANG
 10
6630.378494
 20
4758.771287
 30
0.0
 41
30.0
 42
30.0
 43
30.0
  0
INSERT
  8
SUNPOU
  2
ARROWANG
 10
6695.378494
 20
4758.771287
 30
0.0
 41
30.0
 42
30.0
 50
180.0
 43
30.0
  0
LINE
  8
SUNPOU
 10
6630.378494
 20
4758.771287
 30
0.0
 11
6695.378494
 21
4758.771287
 31
0.0
  0
LINE
  8
SUNPOU
 10
6695.378494
 20
4638.771287
 30
0.0
 11
6695.378494
 21
4788.771287
 31
0.0
  0
LINE
  8
SUNPOU
 10
6630.378494
 20
4788.771287
 30
0.0
 11
6630.378494
 21
4788.771287
 31
0.0
  0
TEXT
  8
SUNPOU
 10
6966.092795
 20
4953.771287
 30
0.0
 40
45.0
  1
800
  7
K
 72
     1
 11
7030.378509
 21
4953.771287
 31
0.0
  0
INSERT
  8
SUNPOU
  2
ARROWANG
 10
7430.378494
 20
4908.771287
 30
0.0
 41
30.0
 42
30.0
 43
30.0
  0
INSERT
  8
SUNPOU
  2
ARROWANG
 10
6630.378494
 20
4908.771287
 30
0.0
 41
30.0
 42
30.0
 50
180.0
 43
30.0
  0
LINE
  8
SUNPOU
 10
6630.378494
 20
4908.771287
 30
0.0
 11
7430.378494
 21
4908.771287
 31
0.0
  0
LINE
  8
SUNPOU
 10
7430.378494
 20
4638.771287
 30
0.0
 11
7430.378494
 21
4938.771287
 31
0.0
  0
LINE
  8
SUNPOU
 10
6630.378494
 20
4638.771287
 30
0.0
 11
6630.378494
 21
4938.771287
 31
0.0
  0
LINE
  8
ITTEN
 10
7330.378494
 20
4528.771287
 30
0.0
 11
7480.378494
 21
4528.771287
 31
0.0
  0
LINE
  8
ITTEN
 10
6580.378494
 20
4528.771287
 30
0.0
 11
6730.378494
 21
4528.771287
 31
0.0
  0
LINE
  8
TENSEN
 10
7380.378494
 20
4518.771287
 30
0.0
 11
7430.378494
 21
4518.771287
 31
0.0
  0
LINE
  8
TENSEN
 10
7380.378494
 20
4538.771287
 30
0.0
 11
7380.378494
 21
4518.771287
 31
0.0
  0
LINE
  8
TENSEN
 10
7380.378494
 20
4518.771287
 30
0.0
 11
7380.378494
 21
4518.771287
 31
0.0
  0
LINE
  8
TENSEN
 10
7430.378494
 20
4538.771287
 30
0.0
 11
7380.378494
 21
4538.771287
 31
0.0
  0
LINE
  8
TENSEN
 10
6680.378494
 20
4518.771287
 30
0.0
 11
6630.378494
 21
4518.771287
 31
0.0
  0
LINE
  8
TENSEN
 10
6680.378494
 20
4538.771287
 30
0.0
 11
6680.378494
 21
4518.771287
 31
0.0
  0
LINE
  8
TENSEN
 10
6630.378494
 20
4538.771287
 30
0.0
 11
6680.378494
 21
4538.771287
 31
0.0
  0
LINE
  8
ITTEN
 10
7030.378494
 20
4708.771287
 30
0.0
 11
7030.378494
 21
4363.771287
 31
0.0
  0
LINE
  8
TENSEN
 10
7180.378494
 20
4593.771287
 30
0.0
 11
7180.378494
 21
4493.771287
 31
0.0
  0
LINE
  8
JISSEN
 10
6880.378494
 20
4593.771287
 30
0.0
 11
6880.378494
 21
4493.771287
 31
0.0
  0
LINE
  8
JISSEN
 10
6695.378494
 20
4608.771287
 30
0.0
 11
7365.378494
 21
4608.771287
 31
0.0
  0
LINE
  8
JISSEN
 10
6630.378494
 20
4463.771287
 30
0.0
 11
6630.378494
 21
4608.771287
 31
0.0
  0
LINE
  8
JISSEN
 10
7430.378494
 20
4463.771287
 30
0.0
 11
6630.378494
 21
4463.771287
 31
0.0
  0
LINE
  8
JISSEN
 10
7430.378494
 20
4608.771287
 30
0.0
 11
7430.378494
 21
4463.771287
 31
0.0
  0
LINE
  8
JISSEN
 10
7365.378494
 20
4608.771287
 30
0.0
 11
7430.378494
 21
4608.771287
 31
0.0
  0
LINE
  8
TENSEN
 10
7360.378494
 20
4593.771287
 30
0.0
 11
7365.378494
 21
4608.771287
 31
0.0
  0
LINE
  8
TENSEN
 10
7030.378494
 20
4593.771287
 30
0.0
 11
7360.378494
 21
4593.771287
 31
0.0
  0
LINE
  8
JISSEN
 10
6700.378494
 20
4593.771287
 30
0.0
 11
7030.378494
 21
4593.771287
 31
0.0
  0
LINE
  8
JISSEN
 10
6695.378494
 20
4608.771287
 30
0.0
 11
6700.378494
 21
4593.771287
 31
0.0
  0
LINE
  8
JISSEN
 10
6630.378494
 20
4608.771287
 30
0.0
 11
6695.378494
 21
4608.771287
 31
0.0
  0
TEXT
  8
SUNPOU
 10
4735.378494
 20
4498.199859
 30
0.0
 40
45.0
  1
15
 50
90.0
  7
K
 72
     1
 11
4735.378494
 21
4544.271287
 31
0.0
  0
LINE
  8
SUNPOU
 10
4780.378494
 20
4608.771287
 30
0.0
 11
4780.378494
 21
4668.771287
 31
0.0
  0
LINE
  8
SUNPOU
 10
4780.378494
 20
4593.771287
 30
0.0
 11
4780.378494
 21
4494.771287
 31
0.0
  0
INSERT
  8
SUNPOU
  2
ARROWANG
 10
4780.378494
 20
4608.771287
 30
0.0
 41
30.0
 42
30.0
 50
270.0
 43
30.0
  0
INSERT
  8
SUNPOU
  2
ARROWANG
 10
4780.378494
 20
4593.771287
 30
0.0
 41
30.0
 42
30.0
 50
90.0
 43
30.0
  0
LINE
  8
SUNPOU
 10
4810.378494
 20
4608.771287
 30
0.0
 11
4810.378494
 21
4608.771287
 31
0.0
  0
LINE
  8
SUNPOU
 10
4970.378494
 20
4593.771287
 30
0.0
 11
4750.378494
 21
4593.771287
 31
0.0
  0
TEXT
  8
SUNPOU
 10
4585.378494
 20
4468.771287
 30
0.0
 40
45.0
  1
145
 50
90.0
  7
K
 72
     1
 11
4585.378494
 21
4536.271287
 31
0.0
  0
INSERT
  8
SUNPOU
  2
ARROWANG
 10
4630.378494
 20
4608.771287
 30
0.0
 41
30.0
 42
30.0
 50
90.0
 43
30.0
  0
INSERT
  8
SUNPOU
  2
ARROWANG
 10
4630.378494
 20
4463.771287
 30
0.0
 41
30.0
 42
30.0
 50
270.0
 43
30.0
  0
LINE
  8
SUNPOU
 10
4630.378494
 20
4463.771287
 30
0.0
 11
4630.378494
 21
4608.771287
 31
0.0
  0
LINE
  8
SUNPOU
 10
4900.378494
 20
4608.771287
 30
0.0
 11
4600.378494
 21
4608.771287
 31
0.0
  0
LINE
  8
SUNPOU
 10
4900.378494
 20
4463.771287
 30
0.0
 11
4600.378494
 21
4463.771287
 31
0.0
  0
TEXT
  8
SUNPOU
 10
6035.949923
 20
4803.771287
 30
0.0
 40
45.0
  1
65
  7
K
 72
     1
 11
6079.878494
 21
4803.771287
 31
0.0
  0
LINE
  8
SUNPOU
 10
5965.378494
 20
4758.771287
 30
0.0
 11
5905.378494
 21
4758.771287
 31
0.0
  0
LINE
  8
SUNPOU
 10
6030.378494
 20
4758.771287
 30
0.0
 11
6129.378494
 21
4758.771287
 31
0.0
  0
INSERT
  8
SUNPOU
  2
ARROWANG
 10
5965.378494
 20
4758.771287
 30
0.0
 41
30.0
 42
30.0
 43
30.0
  0
INSERT
  8
SUNPOU
  2
ARROWANG
 10
6030.378494
 20
4758.771287
 30
0.0
 41
30.0
 42
30.0
 50
180.0
 43
30.0
  0
LINE
  8
SUNPOU
 10
5965.378494
 20
4758.771287
 30
0.0
 11
6030.378494
 21
4758.771287
 31
0.0
  0
LINE
  8
SUNPOU
 10
6030.378494
 20
4788.771287
 30
0.0
 11
6030.378494
 21
4788.771287
 31
0.0
  0
LINE
  8
SUNPOU
 10
5965.378494
 20
4788.771287
 30
0.0
 11
5965.378494
 21
4788.771287
 31
0.0
  0
TEXT
  8
SUNPOU
 10
5733.592795
 20
4803.771287
 30
0.0
 40
45.0
  1
335
  7
K
 72
     1
 11
5797.878509
 21
4803.771287
 31
0.0
  0
INSERT
  8
SUNPOU
  2
ARROWANG
 10
5965.378494
 20
4758.771287
 30
0.0
 41
30.0
 42
30.0
 43
30.0
  0
INSERT
  8
SUNPOU
  2
ARROWANG
 10
5630.378494
 20
4758.771287
 30
0.0
 41
30.0
 42
30.0
 50
180.0
 43
30.0
  0
LINE
  8
SUNPOU
 10
5630.378494
 20
4758.771287
 30
0.0
 11
5965.378494
 21
4758.771287
 31
0.0
  0
LINE
  8
SUNPOU
 10
5965.378494
 20
4638.771287
 30
0.0
 11
5965.378494
 21
4788.771287
 31
0.0
  0
LINE
  8
SUNPOU
 10
5630.378494
 20
4728.771287
 30
0.0
 11
5630.378494
 21
4728.771287
 31
0.0
  0
TEXT
  8
SUNPOU
 10
5247.521351
 20
4803.771287
 30
0.0
 40
45.0
  1
635
  7
K
 72
     1
 11
5312.878494
 21
4803.771287
 31
0.0
  0
INSERT
  8
SUNPOU
  2
ARROWANG
 10
4995.378494
 20
4758.771287
 30
0.0
 41
30.0
 42
30.0
 50
180.0
 43
30.0
  0
INSERT
  8
SUNPOU
  2
ARROWANG
 10
5630.378494
 20
4758.771287
 30
0.0
 41
30.0
 42
30.0
 43
30.0
  0
LINE
  8
SUNPOU
 10
4995.378494
 20
4758.771287
 30
0.0
 11
5630.378494
 21
4758.771287
 31
0.0
  0
LINE
  8
SUNPOU
 10
5630.378494
 20
4738.771287
 30
0.0
 11
5630.378494
 21
4788.771287
 31
0.0
  0
LINE
  8
SUNPOU
 10
4995.378494
 20
4788.771287
 30
0.0
 11
4995.378494
 21
4788.771287
 31
0.0
  0
TEXT
  8
SUNPOU
 10
4836.949923
 20
4803.771287
 30
0.0
 40
45.0
  1
65
  7
K
 72
     1
 11
4880.878494
 21
4803.771287
 31
0.0
  0
LINE
  8
SUNPOU
 10
4995.378494
 20
4758.771287
 30
0.0
 11
5055.378494
 21
4758.771287
 31
0.0
  0
LINE
  8
SUNPOU
 10
4930.378494
 20
4758.771287
 30
0.0
 11
4831.378494
 21
4758.771287
 31
0.0
  0
INSERT
  8
SUNPOU
  2
ARROWANG
 10
4930.378494
 20
4758.771287
 30
0.0
 41
30.0
 42
30.0
 43
30.0
  0
INSERT
  8
SUNPOU
  2
ARROWANG
 10
4995.378494
 20
4758.771287
 30
0.0
 41
30.0
 42
30.0
 50
180.0
 43
30.0
  0
LINE
  8
SUNPOU
 10
4930.378494
 20
4758.771287
 30
0.0
 11
4995.378494
 21
4758.771287
 31
0.0
  0
LINE
  8
SUNPOU
 10
4995.378494
 20
4638.771287
 30
0.0
 11
4995.378494
 21
4788.771287
 31
0.0
  0
LINE
  8
SUNPOU
 10
4930.378494
 20
4788.771287
 30
0.0
 11
4930.378494
 21
4788.771287
 31
0.0
  0
TEXT
  8
SUNPOU
 10
5391.449938
 20
4953.771287
 30
0.0
 40
45.0
  1
1100
  7
K
 72
     1
 11
5480.378509
 21
4953.771287
 31
0.0
  0
INSERT
  8
SUNPOU
  2
ARROWANG
 10
6030.378494
 20
4908.771287
 30
0.0
 41
30.0
 42
30.0
 43
30.0
  0
INSERT
  8
SUNPOU
  2
ARROWANG
 10
4930.378494
 20
4908.771287
 30
0.0
 41
30.0
 42
30.0
 50
180.0
 43
30.0
  0
LINE
  8
SUNPOU
 10
4930.378494
 20
4908.771287
 30
0.0
 11
6030.378494
 21
4908.771287
 31
0.0
  0
LINE
  8
SUNPOU
 10
6030.378494
 20
4638.771287
 30
0.0
 11
6030.378494
 21
4938.771287
 31
0.0
  0
LINE
  8
SUNPOU
 10
4930.378494
 20
4638.771287
 30
0.0
 11
4930.378494
 21
4938.771287
 31
0.0
  0
LINE
  8
ITTEN
 10
4830.378494
 20
3608.771287
 30
0.0
 11
6130.378494
 21
3608.771287
 31
0.0
  0
LINE
  8
ITTEN
 10
5630.378494
 20
4108.771287
 30
0.0
 11
5630.378494
 21
3158.771287
 31
0.0
  0
LINE
  8
ITTEN
 10
5395.378494
 20
3308.771287
 30
0.0
 11
5395.378494
 21
3158.771287
 31
0.0
  0
LINE
  8
ITTEN
 10
5395.378494
 20
4058.771287
 30
0.0
 11
5395.378494
 21
3908.771287
 31
0.0
  0
LINE
  8
TENSEN
 10
5405.378494
 20
3258.771287
 30
0.0
 11
5405.378494
 21
3208.771287
 31
0.0
  0
LINE
  8
TENSEN
 10
5385.378494
 20
3258.771287
 30
0.0
 11
5405.378494
 21
3258.771287
 31
0.0
  0
LINE
  8
TENSEN
 10
5385.378494
 20
3208.771287
 30
0.0
 11
5385.378494
 21
3258.771287
 31
0.0
  0
LINE
  8
TENSEN
 10
5405.378494
 20
4008.771287
 30
0.0
 11
5405.378494
 21
3958.771287
 31
0.0
  0
LINE
  8
TENSEN
 10
5385.378494
 20
3958.771287
 30
0.0
 11
5405.378494
 21
3958.771287
 31
0.0
  0
LINE
  8
TENSEN
 10
5385.378494
 20
4008.771287
 30
0.0
 11
5385.378494
 21
3958.771287
 31
0.0
  0
ARC
  8
JISSEN
 10
5107.0097
 20
3368.771287
 30
0.0
 40
90.0
 50
187.928142
 51
270.0
  0
ARC
  8
JISSEN
 10
5107.0097
 20
3368.771287
 30
0.0
 40
95.0
 50
187.928142
 51
270.0
  0
ARC
  8
JISSEN
 10
5107.0097
 20
3848.771287
 30
0.0
 40
95.0
 50
90.0
 51
172.071858
  0
ARC
  8
JISSEN
 10
5107.0097
 20
3848.771287
 30
0.0
 40
90.0
 50
90.0
 51
172.071858
  0
ARC
  8
JISSEN
 10
6830.378494
 20
3608.771287
 30
0.0
 40
1830.0
 50
172.071858
 51
187.928142
  0
ARC
  8
JISSEN
 10
6830.378494
 20
3608.771287
 30
0.0
 40
1835.0
 50
172.071858
 51
187.928142
  0
LINE
  8
JISSEN
 10
5107.0097
 20
3278.771287
 30
0.0
 11
5630.378494
 21
3278.771287
 31
0.0
  0
LINE
  8
JISSEN
 10
5630.378494
 20
3273.771287
 30
0.0
 11
5107.0097
 21
3273.771287
 31
0.0
  0
LINE
  8
JISSEN
 10
4930.378494
 20
3208.771287
 30
0.0
 11
5630.378494
 21
3208.771287
 31
0.0
  0
LINE
  8
JISSEN
 10
4930.378494
 20
4008.771287
 30
0.0
 11
4930.378494
 21
3208.771287
 31
0.0
  0
LINE
  8
JISSEN
 10
5630.378494
 20
3938.771287
 30
0.0
 11
5107.0097
 21
3938.771287
 31
0.0
  0
LINE
  8
JISSEN
 10
5630.378494
 20
3943.771287
 30
0.0
 11
5107.0097
 21
3943.771287
 31
0.0
  0
LINE
  8
JISSEN
 10
4930.378494
 20
4008.771287
 30
0.0
 11
5630.378494
 21
4008.771287
 31
0.0
  0
CIRCLE
  8
JISSEN
 10
5630.378494
 20
3608.771287
 30
0.0
 40
150.0
  0
ARC
  8
JISSEN
 10
5630.378494
 20
3608.771287
 30
0.0
 40
330.0
 50
270.0
 51
90.0
  0
ARC
  8
JISSEN
 10
5630.378494
 20
3608.771287
 30
0.0
 40
335.0
 50
270.0
 51
90.0
  0
ARC
  8
JISSEN
 10
5630.378494
 20
3608.771287
 30
0.0
 40
400.0
 50
270.0
 51
90.0
  0
LINE
  8
ITTEN
 10
5435.378494
 20
4528.771287
 30
0.0
 11
5355.378494
 21
4528.771287
 31
0.0
  0
LINE
  8
ITTEN
 10
5395.378494
 20
4568.771287
 30
0.0
 11
5395.378494
 21
4488.771287
 31
0.0
  0
CIRCLE
  8
JISSEN
 10
5395.378494
 20
4528.771287
 30
0.0
 40
10.0
  0
LINE
  8
ITTEN
 10
5630.378494
 20
4708.771287
 30
0.0
 11
5630.378494
 21
4363.771287
 31
0.0
  0
LINE
  8
TENSEN
 10
5630.378494
 20
4593.771287
 30
0.0
 11
5960.378494
 21
4593.771287
 31
0.0
  0
LINE
  8
JISSEN
 10
5480.378494
 20
4593.771287
 30
0.0
 11
5480.378494
 21
4493.771287
 31
0.0
  0
LINE
  8
JISSEN
 10
4995.378494
 20
4608.771287
 30
0.0
 11
5965.378494
 21
4608.771287
 31
0.0
  0
LINE
  8
JISSEN
 10
4930.378494
 20
4463.771287
 30
0.0
 11
4930.378494
 21
4608.771287
 31
0.0
  0
LINE
  8
JISSEN
 10
6030.378494
 20
4463.771287
 30
0.0
 11
4930.378494
 21
4463.771287
 31
0.0
  0
LINE
  8
JISSEN
 10
6030.378494
 20
4608.771287
 30
0.0
 11
6030.378494
 21
4463.771287
 31
0.0
  0
LINE
  8
JISSEN
 10
5965.378494
 20
4608.771287
 30
0.0
 11
6030.378494
 21
4608.771287
 31
0.0
  0
LINE
  8
TENSEN
 10
5960.378494
 20
4593.771287
 30
0.0
 11
5965.378494
 21
4608.771287
 31
0.0
  0
LINE
  8
JISSEN
 10
5000.378494
 20
4593.771287
 30
0.0
 11
5630.378494
 21
4593.771287
 31
0.0
  0
LINE
  8
JISSEN
 10
4995.378494
 20
4608.771287
 30
0.0
 11
5000.378494
 21
4593.771287
 31
0.0
  0
LINE
  8
JISSEN
 10
4930.378494
 20
4608.771287
 30
0.0
 11
4995.378494
 21
4608.771287
 31
0.0
  0
LINE
  8
JISSEN
 10
5480.378494
 20
4493.771287
 30
0.0
 11
5630.378494
 21
4493.771287
 31
0.0
  0
LINE
  8
TENSEN
 10
5630.378494
 20
4493.771287
 30
0.0
 11
5780.378494
 21
4493.771287
 31
0.0
  0
LINE
  8
TENSEN
 10
5780.378494
 20
4493.771287
 30
0.0
 11
5780.378494
 21
4593.771287
 31
0.0
  0
LINE
  8
JISSEN
 10
6880.378494
 20
4493.771287
 30
0.0
 11
7030.378494
 21
4493.771287
 31
0.0
  0
LINE
  8
TENSEN
 10
7030.378494
 20
4493.771287
 30
0.0
 11
7180.378494
 21
4493.771287
 31
0.0
  0
LINE
  8
TENSEN
 10
7180.378494
 20
4463.771287
 30
0.0
 11
7180.378494
 21
4463.771287
 31
0.0
  0
LINE
  8
SUNPOU
 10
5960.378494
 20
4463.771287
 30
0.0
 11
5960.378494
 21
4463.771287
 31
0.0
  0
LINE
  8
SUNPOU
 10
5810.378494
 20
4493.771287
 30
0.0
 11
5960.378494
 21
4493.771287
 31
0.0
  0
INSERT
  8
SUNPOU
  2
ARROWANG
 10
5930.378494
 20
4463.771287
 30
0.0
 41
30.0
 42
30.0
 50
90.0
 43
30.0
  0
INSERT
  8
SUNPOU
  2
ARROWANG
 10
5930.378494
 20
4493.771287
 30
0.0
 41
30.0
 42
30.0
 50
270.0
 43
30.0
  0
LINE
  8
SUNPOU
 10
5930.378494
 20
4463.771287
 30
0.0
 11
5930.378494
 21
4364.771287
 31
0.0
  0
LINE
  8
SUNPOU
 10
5930.378494
 20
4493.771287
 30
0.0
 11
5930.378494
 21
4553.771287
 31
0.0
  0
TEXT
  8
SUNPOU
 10
5885.378494
 20
4371.414144
 30
0.0
 40
45.0
  1
30
 50
90.0
  7
K
 72
     1
 11
5885.378494
 21
4414.271287
 31
0.0
  0
TEXT
  8
SUNPOU
 10
9241.189602
 20
3541.13696
 30
0.0
 40
45.0
  1
R330
 50
317.594943
  7
K
 72
     1
 11
9306.062949
 21
3481.888953
 31
0.0
  0
INSERT
  8
SUNPOU
  2
ARROWANG
 10
9351.347581
 20
3386.229991
 30
0.0
 41
30.0
 42
30.0
 50
317.594943
 43
30.0
  0
LINE
  8
SUNPOU
 10
9351.347581
 20
3386.229991
 30
0.0
 11
9107.67696
 21
3608.771287
 31
0.0
  0
TEXT
  8
SUNPOU
 10
9243.391261
 20
3103.771287
 30
0.0
 40
45.0
  1
400
  7
K
 72
     1
 11
9307.676975
 21
3103.771287
 31
0.0
  0
INSERT
  8
SUNPOU
  2
ARROWANG
 10
9507.67696
 20
3058.771287
 30
0.0
 41
30.0
 42
30.0
 43
30.0
  0
INSERT
  8
SUNPOU
  2
ARROWANG
 10
9107.67696
 20
3058.771287
 30
0.0
 41
30.0
 42
30.0
 50
180.0
 43
30.0
  0
LINE
  8
SUNPOU
 10
9107.67696
 20
3058.771287
 30
0.0
 11
9507.67696
 21
3058.771287
 31
0.0
  0
LINE
  8
SUNPOU
 10
9507.67696
 20
3028.771287
 30
0.0
 11
9507.67696
 21
3028.771287
 31
0.0
  0
LINE
  8
SUNPOU
 10
9107.67696
 20
3028.771287
 30
0.0
 11
9107.67696
 21
3028.771287
 31
0.0
  0
TEXT
  8
SUNPOU
 10
8693.391261
 20
3103.771287
 30
0.0
 40
45.0
  1
700
  7
K
 72
     1
 11
8757.676975
 21
3103.771287
 31
0.0
  0
INSERT
  8
SUNPOU
  2
ARROWANG
 10
9107.67696
 20
3058.771287
 30
0.0
 41
30.0
 42
30.0
 43
30.0
  0
INSERT
  8
SUNPOU
  2
ARROWANG
 10
8407.67696
 20
3058.771287
 30
0.0
 41
30.0
 42
30.0
 50
180.0
 43
30.0
  0
LINE
  8
SUNPOU
 10
8407.67696
 20
3058.771287
 30
0.0
 11
9107.67696
 21
3058.771287
 31
0.0
  0
LINE
  8
SUNPOU
 10
9107.67696
 20
3128.771287
 30
0.0
 11
9107.67696
 21
3028.771287
 31
0.0
  0
LINE
  8
SUNPOU
 10
8407.67696
 20
3028.771287
 30
0.0
 11
8407.67696
 21
3028.771287
 31
0.0
  0
TEXT
  8
SUNPOU
 10
8868.748389
 20
2953.771287
 30
0.0
 40
45.0
  1
1100
  7
K
 72
     1
 11
8957.67696
 21
2953.771287
 31
0.0
  0
INSERT
  8
SUNPOU
  2
ARROWANG
 10
8407.67696
 20
2908.771287
 30
0.0
 41
30.0
 42
30.0
 50
180.0
 43
30.0
  0
INSERT
  8
SUNPOU
  2
ARROWANG
 10
9507.67696
 20
2908.771287
 30
0.0
 41
30.0
 42
30.0
 43
30.0
  0
LINE
  8
SUNPOU
 10
8407.67696
 20
2908.771287
 30
0.0
 11
9507.67696
 21
2908.771287
 31
0.0
  0
LINE
  8
SUNPOU
 10
9507.67696
 20
3578.771287
 30
0.0
 11
9507.67696
 21
2878.771287
 31
0.0
  0
LINE
  8
SUNPOU
 10
8407.67696
 20
3178.771287
 30
0.0
 11
8407.67696
 21
2878.771287
 31
0.0
  0
TEXT
  8
SUNPOU
 10
8212.67696
 20
3544.485573
 30
0.0
 40
45.0
  1
800
 50
90.0
  7
K
 72
     1
 11
8212.67696
 21
3608.771287
 31
0.0
  0
INSERT
  8
SUNPOU
  2
ARROWANG
 10
8257.67696
 20
4008.771287
 30
0.0
 41
30.0
 42
30.0
 50
90.0
 43
30.0
  0
INSERT
  8
SUNPOU
  2
ARROWANG
 10
8257.67696
 20
3208.771287
 30
0.0
 41
30.0
 42
30.0
 50
270.0
 43
30.0
  0
LINE
  8
SUNPOU
 10
8257.67696
 20
3208.771287
 30
0.0
 11
8257.67696
 21
4008.771287
 31
0.0
  0
LINE
  8
SUNPOU
 10
8377.67696
 20
4008.771287
 30
0.0
 11
8227.67696
 21
4008.771287
 31
0.0
  0
LINE
  8
SUNPOU
 10
8377.67696
 20
3208.771287
 30
0.0
 11
8227.67696
 21
3208.771287
 31
0.0
  0
TEXT
  8
SUNPOU
 10
8667.67696
 20
4615.414144
 30
0.0
 40
45.0
  1
80
 50
90.0
  7
K
 72
     1
 11
8667.67696
 21
4658.271287
 31
0.0
  0
LINE
  8
SUNPOU
 10
8712.67696
 20
4528.771287
 30
0.0
 11
8712.676961
 21
4468.771287
 31
0.0
  0
LINE
  8
SUNPOU
 10
8712.67696
 20
4608.771287
 30
0.0
 11
8712.67696
 21
4707.771287
 31
0.0
  0
INSERT
  8
SUNPOU
  2
ARROWANG
 10
8712.67696
 20
4608.771287
 30
0.0
 41
30.0
 42
30.0
 50
270.0
 43
30.0
  0
INSERT
  8
SUNPOU
  2
ARROWANG
 10
8712.67696
 20
4528.771287
 30
0.0
 41
30.0
 42
30.0
 50
90.0
 43
30.0
  0
LINE
  8
SUNPOU
 10
8742.67696
 20
4608.771287
 30
0.0
 11
8742.67696
 21
4608.771287
 31
0.0
  0
LINE
  8
SUNPOU
 10
8802.67696
 20
4528.771287
 30
0.0
 11
8682.67696
 21
4528.771287
 31
0.0
  0
TEXT
  8
SUNPOU
 10
11013.248389
 20
4803.771287
 30
0.0
 40
45.0
  1
65
  7
K
 72
     1
 11
11057.17696
 21
4803.771287
 31
0.0
  0
LINE
  8
SUNPOU
 10
10942.67696
 20
4758.771287
 30
0.0
 11
10882.67696
 21
4758.771287
 31
0.0
  0
LINE
  8
SUNPOU
 10
11007.67696
 20
4758.771287
 30
0.0
 11
11106.67696
 21
4758.771287
 31
0.0
  0
INSERT
  8
SUNPOU
  2
ARROWANG
 10
10942.67696
 20
4758.771287
 30
0.0
 41
30.0
 42
30.0
 43
30.0
  0
INSERT
  8
SUNPOU
  2
ARROWANG
 10
11007.67696
 20
4758.771287
 30
0.0
 41
30.0
 42
30.0
 50
180.0
 43
30.0
  0
LINE
  8
SUNPOU
 10
10942.67696
 20
4758.771287
 30
0.0
 11
11007.67696
 21
4758.771287
 31
0.0
  0
LINE
  8
SUNPOU
 10
11007.67696
 20
4788.771287
 30
0.0
 11
11007.67696
 21
4788.771287
 31
0.0
  0
LINE
  8
SUNPOU
 10
10942.67696
 20
4788.771287
 30
0.0
 11
10942.67696
 21
4788.771287
 31
0.0
  0
TEXT
  8
SUNPOU
 10
10542.319832
 20
4803.771287
 30
0.0
 40
45.0
  1
670
  7
K
 72
     1
 11
10607.676975
 21
4803.771287
 31
0.0
  0
INSERT
  8
SUNPOU
  2
ARROWANG
 10
10942.67696
 20
4758.771287
 30
0.0
 41
30.0
 42
30.0
 43
30.0
  0
INSERT
  8
SUNPOU
  2
ARROWANG
 10
10272.67696
 20
4758.771287
 30
0.0
 41
30.0
 42
30.0
 50
180.0
 43
30.0
  0
LINE
  8
SUNPOU
 10
10272.67696
 20
4758.771287
 30
0.0
 11
10942.67696
 21
4758.771287
 31
0.0
  0
LINE
  8
SUNPOU
 10
10942.67696
 20
4638.771287
 30
0.0
 11
10942.67696
 21
4788.771287
 31
0.0
  0
LINE
  8
SUNPOU
 10
10272.67696
 20
4728.771287
 30
0.0
 11
10272.67696
 21
4728.771287
 31
0.0
  0
TEXT
  8
SUNPOU
 10
10114.248389
 20
4803.771287
 30
0.0
 40
45.0
  1
65
  7
K
 72
     1
 11
10158.17696
 21
4803.771287
 31
0.0
  0
LINE
  8
SUNPOU
 10
10272.67696
 20
4758.771287
 30
0.0
 11
10332.67696
 21
4758.771287
 31
0.0
  0
LINE
  8
SUNPOU
 10
10207.67696
 20
4758.771287
 30
0.0
 11
10108.67696
 21
4758.771287
 31
0.0
  0
INSERT
  8
SUNPOU
  2
ARROWANG
 10
10207.67696
 20
4758.771287
 30
0.0
 41
30.0
 42
30.0
 43
30.0
  0
INSERT
  8
SUNPOU
  2
ARROWANG
 10
10272.67696
 20
4758.771287
 30
0.0
 41
30.0
 42
30.0
 50
180.0
 43
30.0
  0
LINE
  8
SUNPOU
 10
10207.67696
 20
4758.771287
 30
0.0
 11
10272.67696
 21
4758.771287
 31
0.0
  0
LINE
  8
SUNPOU
 10
10272.67696
 20
4638.771287
 30
0.0
 11
10272.67696
 21
4788.771287
 31
0.0
  0
LINE
  8
SUNPOU
 10
10207.67696
 20
4788.771287
 30
0.0
 11
10207.67696
 21
4788.771287
 31
0.0
  0
TEXT
  8
SUNPOU
 10
10543.391261
 20
4953.771287
 30
0.0
 40
45.0
  1
800
  7
K
 72
     1
 11
10607.676975
 21
4953.771287
 31
0.0
  0
INSERT
  8
SUNPOU
  2
ARROWANG
 10
11007.67696
 20
4908.771287
 30
0.0
 41
30.0
 42
30.0
 43
30.0
  0
INSERT
  8
SUNPOU
  2
ARROWANG
 10
10207.67696
 20
4908.771287
 30
0.0
 41
30.0
 42
30.0
 50
180.0
 43
30.0
  0
LINE
  8
SUNPOU
 10
10207.67696
 20
4908.771287
 30
0.0
 11
11007.67696
 21
4908.771287
 31
0.0
  0
LINE
  8
SUNPOU
 10
11007.67696
 20
4638.771287
 30
0.0
 11
11007.67696
 21
4938.771287
 31
0.0
  0
LINE
  8
SUNPOU
 10
10207.67696
 20
4638.771287
 30
0.0
 11
10207.67696
 21
4938.771287
 31
0.0
  0
LINE
  8
ITTEN
 10
10907.67696
 20
4528.771287
 30
0.0
 11
11057.67696
 21
4528.771287
 31
0.0
  0
LINE
  8
ITTEN
 10
10157.67696
 20
4528.771287
 30
0.0
 11
10307.67696
 21
4528.771287
 31
0.0
  0
LINE
  8
TENSEN
 10
10957.67696
 20
4518.771287
 30
0.0
 11
11007.67696
 21
4518.771287
 31
0.0
  0
LINE
  8
TENSEN
 10
10957.67696
 20
4538.771287
 30
0.0
 11
10957.67696
 21
4518.771287
 31
0.0
  0
LINE
  8
TENSEN
 10
10957.67696
 20
4518.771287
 30
0.0
 11
10957.67696
 21
4518.771287
 31
0.0
  0
LINE
  8
TENSEN
 10
11007.67696
 20
4538.771287
 30
0.0
 11
10957.67696
 21
4538.771287
 31
0.0
  0
LINE
  8
TENSEN
 10
10257.67696
 20
4518.771287
 30
0.0
 11
10207.67696
 21
4518.771287
 31
0.0
  0
LINE
  8
TENSEN
 10
10257.67696
 20
4538.771287
 30
0.0
 11
10257.67696
 21
4518.771287
 31
0.0
  0
LINE
  8
TENSEN
 10
10207.67696
 20
4538.771287
 30
0.0
 11
10257.67696
 21
4538.771287
 31
0.0
  0
LINE
  8
ITTEN
 10
10607.67696
 20
4708.771287
 30
0.0
 11
10607.67696
 21
4363.771287
 31
0.0
  0
LINE
  8
JISSEN
 10
10272.67696
 20
4608.771287
 30
0.0
 11
10942.67696
 21
4608.771287
 31
0.0
  0
LINE
  8
JISSEN
 10
10207.67696
 20
4463.771287
 30
0.0
 11
10207.67696
 21
4608.771287
 31
0.0
  0
LINE
  8
JISSEN
 10
11007.67696
 20
4463.771287
 30
0.0
 11
10207.67696
 21
4463.771287
 31
0.0
  0
LINE
  8
JISSEN
 10
11007.67696
 20
4608.771287
 30
0.0
 11
11007.67696
 21
4463.771287
 31
0.0
  0
LINE
  8
JISSEN
 10
10942.67696
 20
4608.771287
 30
0.0
 11
11007.67696
 21
4608.771287
 31
0.0
  0
LINE
  8
JISSEN
 10
10937.67696
 20
4593.771287
 30
0.0
 11
10942.67696
 21
4608.771287
 31
0.0
  0
LINE
  8
JISSEN
 10
10607.67696
 20
4593.771287
 30
0.0
 11
10937.67696
 21
4593.771287
 31
0.0
  0
LINE
  8
JISSEN
 10
10277.67696
 20
4593.771287
 30
0.0
 11
10607.67696
 21
4593.771287
 31
0.0
  0
LINE
  8
JISSEN
 10
10272.67696
 20
4608.771287
 30
0.0
 11
10277.67696
 21
4593.771287
 31
0.0
  0
LINE
  8
JISSEN
 10
10207.67696
 20
4608.771287
 30
0.0
 11
10272.67696
 21
4608.771287
 31
0.0
  0
TEXT
  8
SUNPOU
 10
8212.67696
 20
4498.199859
 30
0.0
 40
45.0
  1
15
 50
90.0
  7
K
 72
     1
 11
8212.67696
 21
4544.271287
 31
0.0
  0
LINE
  8
SUNPOU
 10
8257.67696
 20
4608.771287
 30
0.0
 11
8257.67696
 21
4668.771287
 31
0.0
  0
LINE
  8
SUNPOU
 10
8257.67696
 20
4593.771287
 30
0.0
 11
8257.67696
 21
4494.771287
 31
0.0
  0
INSERT
  8
SUNPOU
  2
ARROWANG
 10
8257.67696
 20
4608.771287
 30
0.0
 41
30.0
 42
30.0
 50
270.0
 43
30.0
  0
INSERT
  8
SUNPOU
  2
ARROWANG
 10
8257.67696
 20
4593.771287
 30
0.0
 41
30.0
 42
30.0
 50
90.0
 43
30.0
  0
LINE
  8
SUNPOU
 10
8287.67696
 20
4608.771287
 30
0.0
 11
8287.67696
 21
4608.771287
 31
0.0
  0
LINE
  8
SUNPOU
 10
8447.67696
 20
4593.771287
 30
0.0
 11
8227.67696
 21
4593.771287
 31
0.0
  0
TEXT
  8
SUNPOU
 10
8062.67696
 20
4468.771287
 30
0.0
 40
45.0
  1
145
 50
90.0
  7
K
 72
     1
 11
8062.67696
 21
4536.271287
 31
0.0
  0
INSERT
  8
SUNPOU
  2
ARROWANG
 10
8107.67696
 20
4608.771287
 30
0.0
 41
30.0
 42
30.0
 50
90.0
 43
30.0
  0
INSERT
  8
SUNPOU
  2
ARROWANG
 10
8107.67696
 20
4463.771287
 30
0.0
 41
30.0
 42
30.0
 50
270.0
 43
30.0
  0
LINE
  8
SUNPOU
 10
8107.67696
 20
4463.771287
 30
0.0
 11
8107.67696
 21
4608.771287
 31
0.0
  0
LINE
  8
SUNPOU
 10
8377.67696
 20
4608.771287
 30
0.0
 11
8077.67696
 21
4608.771287
 31
0.0
  0
LINE
  8
SUNPOU
 10
8377.67696
 20
4463.771287
 30
0.0
 11
8077.67696
 21
4463.771287
 31
0.0
  0
TEXT
  8
SUNPOU
 10
9513.248389
 20
4803.771287
 30
0.0
 40
45.0
  1
65
  7
K
 72
     1
 11
9557.17696
 21
4803.771287
 31
0.0
  0
LINE
  8
SUNPOU
 10
9507.67696
 20
4758.771287
 30
0.0
 11
9606.67696
 21
4758.771287
 31
0.0
  0
INSERT
  8
SUNPOU
  2
ARROWANG
 10
9507.67696
 20
4758.771287
 30
0.0
 41
30.0
 42
30.0
 50
180.0
 43
30.0
  0
LINE
  8
SUNPOU
 10
9442.67696
 20
4758.771287
 30
0.0
 11
9507.67696
 21
4758.771287
 31
0.0
  0
LINE
  8
SUNPOU
 10
9507.67696
 20
4788.771287
 30
0.0
 11
9507.67696
 21
4788.771287
 31
0.0
  0
LINE
  8
SUNPOU
 10
9442.67696
 20
4788.771287
 30
0.0
 11
9442.67696
 21
4788.771287
 31
0.0
  0
LINE
  8
SUNPOU
 10
9442.67696
 20
4638.771287
 30
0.0
 11
9442.67696
 21
4788.771287
 31
0.0
  0
LINE
  8
SUNPOU
 10
9107.67696
 20
4728.771287
 30
0.0
 11
9107.67696
 21
4728.771287
 31
0.0
  0
INSERT
  8
SUNPOU
  2
ARROWANG
 10
8472.67696
 20
4758.771287
 30
0.0
 41
30.0
 42
30.0
 50
180.0
 43
30.0
  0
LINE
  8
SUNPOU
 10
9107.67696
 20
4738.771287
 30
0.0
 11
9107.67696
 21
4744.017118
 31
0.0
  0
LINE
  8
SUNPOU
 10
8472.67696
 20
4788.771287
 30
0.0
 11
8472.67696
 21
4788.771287
 31
0.0
  0
TEXT
  8
SUNPOU
 10
8314.248389
 20
4803.771287
 30
0.0
 40
45.0
  1
65
  7
K
 72
     1
 11
8358.17696
 21
4803.771287
 31
0.0
  0
LINE
  8
SUNPOU
 10
8407.67696
 20
4758.771287
 30
0.0
 11
8308.67696
 21
4758.771287
 31
0.0
  0
INSERT
  8
SUNPOU
  2
ARROWANG
 10
8407.67696
 20
4758.771287
 30
0.0
 41
30.0
 42
30.0
 43
30.0
  0
LINE
  8
SUNPOU
 10
8407.67696
 20
4758.771287
 30
0.0
 11
8472.67696
 21
4758.771287
 31
0.0
  0
LINE
  8
SUNPOU
 10
8472.67696
 20
4638.771287
 30
0.0
 11
8472.67696
 21
4788.771287
 31
0.0
  0
LINE
  8
SUNPOU
 10
8407.67696
 20
4788.771287
 30
0.0
 11
8407.67696
 21
4788.771287
 31
0.0
  0
TEXT
  8
SUNPOU
 10
8868.748404
 20
4953.771287
 30
0.0
 40
45.0
  1
1100
  7
K
 72
     1
 11
8957.676975
 21
4953.771287
 31
0.0
  0
INSERT
  8
SUNPOU
  2
ARROWANG
 10
9507.67696
 20
4908.771287
 30
0.0
 41
30.0
 42
30.0
 43
30.0
  0
INSERT
  8
SUNPOU
  2
ARROWANG
 10
8407.67696
 20
4908.771287
 30
0.0
 41
30.0
 42
30.0
 50
180.0
 43
30.0
  0
LINE
  8
SUNPOU
 10
8407.67696
 20
4908.771287
 30
0.0
 11
9507.67696
 21
4908.771287
 31
0.0
  0
LINE
  8
SUNPOU
 10
9507.67696
 20
4638.771287
 30
0.0
 11
9507.67696
 21
4938.771287
 31
0.0
  0
LINE
  8
SUNPOU
 10
8407.67696
 20
4638.771287
 30
0.0
 11
8407.67696
 21
4938.771287
 31
0.0
  0
LINE
  8
ITTEN
 10
8307.67696
 20
3608.771287
 30
0.0
 11
9607.67696
 21
3608.771287
 31
0.0
  0
LINE
  8
ITTEN
 10
9107.67696
 20
4108.771287
 30
0.0
 11
9107.67696
 21
3158.771287
 31
0.0
  0
LINE
  8
ITTEN
 10
8872.67696
 20
3308.771287
 30
0.0
 11
8872.67696
 21
3158.771287
 31
0.0
  0
LINE
  8
ITTEN
 10
8872.67696
 20
4058.771287
 30
0.0
 11
8872.67696
 21
3908.771287
 31
0.0
  0
LINE
  8
TENSEN
 10
8882.67696
 20
3258.771287
 30
0.0
 11
8882.67696
 21
3208.771287
 31
0.0
  0
LINE
  8
TENSEN
 10
8862.67696
 20
3258.771287
 30
0.0
 11
8882.67696
 21
3258.771287
 31
0.0
  0
LINE
  8
TENSEN
 10
8862.67696
 20
3208.771287
 30
0.0
 11
8862.67696
 21
3258.771287
 31
0.0
  0
LINE
  8
TENSEN
 10
8882.67696
 20
4008.771287
 30
0.0
 11
8882.67696
 21
3958.771287
 31
0.0
  0
LINE
  8
TENSEN
 10
8862.67696
 20
3958.771287
 30
0.0
 11
8882.67696
 21
3958.771287
 31
0.0
  0
LINE
  8
TENSEN
 10
8862.67696
 20
4008.771287
 30
0.0
 11
8862.67696
 21
3958.771287
 31
0.0
  0
ARC
  8
JISSEN
 10
8584.308166
 20
3368.771287
 30
0.0
 40
90.0
 50
187.928142
 51
270.0
  0
ARC
  8
JISSEN
 10
8584.308166
 20
3368.771287
 30
0.0
 40
95.0
 50
187.928142
 51
270.0
  0
ARC
  8
JISSEN
 10
8584.308166
 20
3848.771287
 30
0.0
 40
95.0
 50
90.0
 51
172.071858
  0
ARC
  8
JISSEN
 10
8584.308166
 20
3848.771287
 30
0.0
 40
90.0
 50
90.0
 51
172.071858
  0
ARC
  8
JISSEN
 10
10307.67696
 20
3608.771287
 30
0.0
 40
1830.0
 50
172.071858
 51
187.928142
  0
ARC
  8
JISSEN
 10
10307.67696
 20
3608.771287
 30
0.0
 40
1835.0
 50
172.071858
 51
187.928142
  0
LINE
  8
JISSEN
 10
8584.308166
 20
3278.771287
 30
0.0
 11
9107.67696
 21
3278.771287
 31
0.0
  0
LINE
  8
JISSEN
 10
9107.67696
 20
3273.771287
 30
0.0
 11
8584.308166
 21
3273.771287
 31
0.0
  0
LINE
  8
JISSEN
 10
8407.67696
 20
3208.771287
 30
0.0
 11
9107.67696
 21
3208.771287
 31
0.0
  0
LINE
  8
JISSEN
 10
8407.67696
 20
4008.771287
 30
0.0
 11
8407.67696
 21
3208.771287
 31
0.0
  0
LINE
  8
JISSEN
 10
9107.67696
 20
3938.771287
 30
0.0
 11
8584.308166
 21
3938.771287
 31
0.0
  0
LINE
  8
JISSEN
 10
9107.67696
 20
3943.771287
 30
0.0
 11
8584.308166
 21
3943.771287
 31
0.0
  0
LINE
  8
JISSEN
 10
8407.67696
 20
4008.771287
 30
0.0
 11
9107.67696
 21
4008.771287
 31
0.0
  0
ARC
  8
JISSEN
 10
9107.67696
 20
3608.771287
 30
0.0
 40
330.0
 50
270.0
 51
90.0
  0
ARC
  8
JISSEN
 10
9107.67696
 20
3608.771287
 30
0.0
 40
335.0
 50
270.0
 51
90.0
  0
ARC
  8
JISSEN
 10
9107.67696
 20
3608.771287
 30
0.0
 40
400.0
 50
270.0
 51
90.0
  0
LINE
  8
ITTEN
 10
8912.67696
 20
4528.771287
 30
0.0
 11
8832.67696
 21
4528.771287
 31
0.0
  0
LINE
  8
ITTEN
 10
8872.67696
 20
4568.771287
 30
0.0
 11
8872.67696
 21
4488.771287
 31
0.0
  0
CIRCLE
  8
JISSEN
 10
8872.67696
 20
4528.771287
 30
0.0
 40
10.0
  0
LINE
  8
ITTEN
 10
9107.67696
 20
4708.771287
 30
0.0
 11
9107.67696
 21
4363.771287
 31
0.0
  0
LINE
  8
JISSEN
 10
9107.67696
 20
4593.771287
 30
0.0
 11
9437.67696
 21
4593.771287
 31
0.0
  0
LINE
  8
JISSEN
 10
8472.67696
 20
4608.771287
 30
0.0
 11
9442.67696
 21
4608.771287
 31
0.0
  0
LINE
  8
JISSEN
 10
8407.67696
 20
4463.771287
 30
0.0
 11
8407.67696
 21
4608.771287
 31
0.0
  0
LINE
  8
JISSEN
 10
9507.67696
 20
4463.771287
 30
0.0
 11
8407.67696
 21
4463.771287
 31
0.0
  0
LINE
  8
JISSEN
 10
9507.67696
 20
4608.771287
 30
0.0
 11
9507.67696
 21
4463.771287
 31
0.0
  0
LINE
  8
JISSEN
 10
9442.67696
 20
4608.771287
 30
0.0
 11
9507.67696
 21
4608.771287
 31
0.0
  0
LINE
  8
JISSEN
 10
9437.67696
 20
4593.771287
 30
0.0
 11
9442.67696
 21
4608.771287
 31
0.0
  0
LINE
  8
JISSEN
 10
8477.67696
 20
4593.771287
 30
0.0
 11
9107.67696
 21
4593.771287
 31
0.0
  0
LINE
  8
JISSEN
 10
8472.67696
 20
4608.771287
 30
0.0
 11
8477.67696
 21
4593.771287
 31
0.0
  0
LINE
  8
JISSEN
 10
8407.67696
 20
4608.771287
 30
0.0
 11
8472.67696
 21
4608.771287
 31
0.0
  0
LINE
  8
SUNPOU
 10
8472.67696
 20
4728.771287
 30
0.0
 11
8472.67696
 21
4728.508515
 31
0.0
  0
LINE
  8
SUNPOU
 10
9442.67696
 20
4728.771287
 30
0.0
 11
9442.67696
 21
4728.508515
 31
0.0
  0
LINE
  8
SUNPOU
 10
8472.67696
 20
4758.508515
 30
0.0
 11
9442.67696
 21
4758.508515
 31
0.0
  0
INSERT
  8
SUNPOU
  2
ARROWANG
 10
8472.67696
 20
4758.508515
 30
0.0
 41
30.0
 42
30.0
 50
180.0
 43
30.0
  0
INSERT
  8
SUNPOU
  2
ARROWANG
 10
9442.67696
 20
4758.508515
 30
0.0
 41
30.0
 42
30.0
 43
30.0
  0
TEXT
  8
SUNPOU
 10
8893.391261
 20
4803.508515
 30
0.0
 40
45.0
  1
970
  7
K
 72
     1
 11
8957.676975
 21
4803.508515
 31
0.0
  0
INSERT
  8
HATCH
  2
*X2
 10
0.0
 20
0.0
 30
0.0
  0
INSERT
  8
HATCH
  2
*X3
 10
0.0
 20
0.0
 30
0.0
  0
INSERT
  8
HATCH
  2
STDGX5
 10
0.0
 20
0.0
 30
0.0
  0
TEXT
  8
TEXT
 10
5661.065765
 20
6579.214485
 30
0.0
 40
240.0
  1
底版
  7
K
  0
TEXT
  8
TEXT
 10
2045.069803
 20
5127.902678
 30
0.0
 40
150.0
  1
MA1P
  7
K
  0
TEXT
  8
TEXT
 10
5674.75583
 20
5122.098328
 30
0.0
 40
150.0
  1
MA1PB
  7
K
  0
TEXT
  8
TEXT
 10
9168.646255
 20
5121.042992
 30
0.0
 40
150.0
  1
MA1PF
  7
K
  0
TEXT
  8
JISSEN
 10
2519.479515
 20
7761.129076
 30
0.0
 40
300.0
  1
組立マンホール構造図
  7
K
  0
TEXT
  8
TEXT
 10
6524.324972
 20
7784.024098
 30
0.0
 40
240.0
  1
( 600 x 900 方円形 )
  7
K
  0
POLYLINE
  8
WAKU
 66
     1
 10
0.0
 20
0.0
 30
0.0
 70
     1
  0
VERTEX
  8
WAKU
 10
0.0
 20
0.0
 30
0.0
  0
VERTEX
  8
WAKU
 10
11850.0
 20
0.0
 30
0.0
  0
VERTEX
  8
WAKU
 10
11850.0
 20
8190.0
 30
0.0
  0
VERTEX
  8
WAKU
 10
0.0
 20
8190.0
 30
0.0
  0
SEQEND
  8
WAKU
  0
TEXT
  8
TEXT
 10
11238.890184
 20
741.903176
 30
0.0
 40
150.0
  1
1/30
  7
K
  0
ENDSEC
  0
EOF
