  0
SECTION
  2
HEADER
  9
$ACADVER
  1
AC1009
  9
$INSBASE
 10
0.0
 20
0.0
 30
0.0
  9
$EXTMIN
 10
-429.843906
 20
0.0
 30
0.0
  9
$EXTMAX
 10
11850.0
 20
8190.0
 30
0.0
  9
$LIMMIN
 10
0.0
 20
0.0
  9
$LIMMAX
 10
11850.0
 20
8190.0
  9
$ORTHOMODE
 70
     0
  9
$REGENMODE
 70
     1
  9
$FILLMODE
 70
     1
  9
$QTEXTMODE
 70
     0
  9
$MIRRTEXT
 70
     0
  9
$DRAGMODE
 70
     2
  9
$LTSCALE
 40
150.0
  9
$OSMODE
 70
   289
  9
$ATTMODE
 70
     1
  9
$TEXTSIZE
 40
60.0
  9
$TRACEWID
 40
0.05
  9
$TEXTSTYLE
  7
K
  9
$CLAYER
  8
JISSEN
  9
$CELTYPE
  6
BYLAYER
  9
$CECOLOR
 62
   256
  9
$DIMSCALE
 40
30.0
  9
$DIMASZ
 40
1.5
  9
$DIMEXO
 40
1.0
  9
$DIMDLI
 40
6.0
  9
$DIMRND
 40
0.0
  9
$DIMDLE
 40
0.0
  9
$DIMEXE
 40
1.0
  9
$DIMTP
 40
495.0
  9
$DIMTM
 40
0.0
  9
$DIMTXT
 40
3.0
  9
$DIMCEN
 40
0.0
  9
$DIMTSZ
 40
0.0
  9
$DIMTOL
 70
     0
  9
$DIMLIM
 70
     0
  9
$DIMTIH
 70
     0
  9
$DIMTOH
 70
     0
  9
$DIMSE1
 70
     0
  9
$DIMSE2
 70
     0
  9
$DIMTAD
 70
     1
  9
$DIMZIN
 70
     8
  9
$DIMBLK
  1
ARROW
  9
$DIMASO
 70
     0
  9
$DIMSHO
 70
     0
  9
$DIMPOST
  1

  9
$DIMAPOST
  1

  9
$DIMALT
 70
     0
  9
$DIMALTD
 70
     2
  9
$DIMALTF
 40
25.4
  9
$DIMLFAC
 40
1.0
  9
$DIMTOFL
 70
     1
  9
$DIMTVP
 40
0.0
  9
$DIMTIX
 70
     1
  9
$DIMSOXD
 70
     0
  9
$DIMSAH
 70
     0
  9
$DIMBLK1
  1

  9
$DIMBLK2
  1

  9
$DIMSTYLE
  2
*UNNAMED
  9
$DIMCLRD
 70
     0
  9
$DIMCLRE
 70
     0
  9
$DIMCLRT
 70
     0
  9
$DIMTFAC
 40
1.0
  9
$DIMGAP
 40
0.09
  9
$LUNITS
 70
     2
  9
$LUPREC
 70
     2
  9
$AXISMODE
 70
     0
  9
$AXISUNIT
 10
100.0
 20
100.0
  9
$SKETCHINC
 40
0.1
  9
$FILLETRAD
 40
37.5
  9
$AUNITS
 70
     0
  9
$AUPREC
 70
     2
  9
$MENU
  1
G:STDGX5
  9
$ELEVATION
 40
0.0
  9
$PELEVATION
 40
0.0
  9
$THICKNESS
 40
0.0
  9
$LIMCHECK
 70
     0
  9
$BLIPMODE
 70
     1
  9
$CHAMFERA
 40
0.0
  9
$CHAMFERB
 40
0.0
  9
$SKPOLY
 70
     0
  9
$TDCREATE
 40
2450249.550300926
  9
$TDUPDATE
 40
2450249.561388888
  9
$TDINDWG
 40
0.0053587963
  9
$TDUSRTIMER
 40
0.0053587963
  9
$USRTIMER
 70
     1
  9
$ANGBASE
 50
0.0
  9
$ANGDIR
 70
     0
  9
$PDMODE
 70
     0
  9
$PDSIZE
 40
0.0
  9
$PLINEWID
 40
0.0
  9
$COORDS
 70
     2
  9
$SPLFRAME
 70
     0
  9
$SPLINETYPE
 70
     6
  9
$SPLINESEGS
 70
     8
  9
$ATTDIA
 70
     0
  9
$ATTREQ
 70
     1
  9
$HANDLING
 70
     0
  9
$HANDSEED
  5
0
  9
$SURFTAB1
 70
     6
  9
$SURFTAB2
 70
     6
  9
$SURFTYPE
 70
     6
  9
$SURFU
 70
     6
  9
$SURFV
 70
     6
  9
$UCSNAME
  2

  9
$UCSORG
 10
0.0
 20
0.0
 30
0.0
  9
$UCSXDIR
 10
1.0
 20
0.0
 30
0.0
  9
$UCSYDIR
 10
0.0
 20
1.0
 30
0.0
  9
$PUCSNAME
  2

  9
$PUCSORG
 10
0.0
 20
0.0
 30
0.0
  9
$PUCSXDIR
 10
1.0
 20
0.0
 30
0.0
  9
$PUCSYDIR
 10
0.0
 20
1.0
 30
0.0
  9
$USERI1
 70
     3
  9
$USERI2
 70
   289
  9
$USERI3
 70
     0
  9
$USERI4
 70
     1
  9
$USERI5
 70
     0
  9
$USERR1
 40
30.0
  9
$USERR2
 40
3.0
  9
$USERR3
 40
3.0
  9
$USERR4
 40
1.5
  9
$USERR5
 40
10.0
  9
$WORLDVIEW
 70
     1
  9
$SHADEDGE
 70
     3
  9
$SHADEDIF
 70
    70
  9
$TILEMODE
 70
     1
  9
$MAXACTVP
 70
    16
  9
$PINSBASE
 10
0.0
 20
0.0
 30
0.0
  9
$PLIMCHECK
 70
     0
  9
$PEXTMIN
 10
1.000000E+20
 20
1.000000E+20
 30
1.000000E+20
  9
$PEXTMAX
 10
-1.000000E+20
 20
-1.000000E+20
 30
-1.000000E+20
  9
$PLIMMIN
 10
0.0
 20
0.0
  9
$PLIMMAX
 10
12.0
 20
9.0
  9
$UNITMODE
 70
     0
  9
$VISRETAIN
 70
     0
  0
ENDSEC
  0
SECTION
  2
TABLES
  0
TABLE
  2
VPORT
 70
    10
  0
VPORT
  2
*ACTIVE
 70
     0
 10
0.0
 20
0.0
 11
1.0
 21
1.0
 12
6691.515737
 22
4095.0
 13
0.0
 23
0.0
 14
1.0
 24
1.0
 15
10.0
 25
10.0
 16
0.0
 26
0.0
 36
1.0
 17
0.0
 27
0.0
 37
0.0
 40
8190.0
 41
1.63407
 42
50.0
 43
0.0
 44
0.0
 50
0.0
 51
0.0
 71
     0
 72
   500
 73
     1
 74
     0
 75
     0
 76
     0
 77
     0
 78
     0
  0
VPORT
  2
2
 70
     0
 10
0.5
 20
0.0
 11
1.0
 21
1.0
 12
0.924031
 22
1.052651
 13
0.0
 23
0.0
 14
1.0
 24
1.0
 15
10.0
 25
10.0
 16
0.0
 26
0.0
 36
1.0
 17
0.0
 27
0.0
 37
0.0
 40
2.105302
 41
0.877814
 42
50.0
 43
0.0
 44
0.0
 50
0.0
 51
0.0
 71
     0
 72
   500
 73
     1
 74
     1
 75
     0
 76
     0
 77
     0
 78
     0
  0
VPORT
  2
2
 70
     0
 10
0.0
 20
0.0
 11
0.5
 21
1.0
 12
0.924031
 22
1.052651
 13
0.0
 23
0.0
 14
1.0
 24
1.0
 15
10.0
 25
10.0
 16
0.0
 26
0.0
 36
1.0
 17
0.0
 27
0.0
 37
0.0
 40
2.105302
 41
0.877814
 42
50.0
 43
0.0
 44
0.0
 50
0.0
 51
0.0
 71
     0
 72
   500
 73
     1
 74
     1
 75
     0
 76
     0
 77
     0
 78
     0
  0
VPORT
  2
3
 70
     0
 10
0.0
 20
0.5
 11
1.0
 21
1.0
 12
2.83217
 22
1.052651
 13
0.0
 23
0.0
 14
1.0
 24
1.0
 15
10.0
 25
10.0
 16
0.0
 26
0.0
 36
1.0
 17
0.0
 27
0.0
 37
0.0
 40
2.105302
 41
3.571429
 42
50.0
 43
0.0
 44
0.0
 50
0.0
 51
0.0
 71
     0
 72
   500
 73
     1
 74
     1
 75
     0
 76
     0
 77
     0
 78
     0
  0
VPORT
  2
3
 70
     0
 10
0.0
 20
0.0
 11
1.0
 21
0.5
 12
2.856742
 22
1.052651
 13
0.0
 23
0.0
 14
1.0
 24
1.0
 15
10.0
 25
10.0
 16
0.0
 26
0.0
 36
1.0
 17
0.0
 27
0.0
 37
0.0
 40
2.105302
 41
3.594771
 42
50.0
 43
0.0
 44
0.0
 50
0.0
 51
0.0
 71
     0
 72
   500
 73
     1
 74
     1
 75
     0
 76
     0
 77
     0
 78
     0
  0
VPORT
  2
4
 70
     0
 10
0.5
 20
0.0
 11
1.0
 21
0.5
 12
2.886858
 22
1.052651
 13
0.0
 23
0.0
 14
1.0
 24
1.0
 15
10.0
 25
10.0
 16
0.0
 26
0.0
 36
1.0
 17
0.0
 27
0.0
 37
0.0
 40
4.275207
 41
1.784314
 42
50.0
 43
0.0
 44
0.0
 50
0.0
 51
0.0
 71
     0
 72
   500
 73
     1
 74
     1
 75
     0
 76
     0
 77
     0
 78
     0
  0
VPORT
  2
4
 70
     0
 10
0.5
 20
0.5
 11
1.0
 21
1.0
 12
2.86209
 22
1.052651
 13
0.0
 23
0.0
 14
1.0
 24
1.0
 15
10.0
 25
10.0
 16
0.0
 26
0.0
 36
1.0
 17
0.0
 27
0.0
 37
0.0
 40
4.275207
 41
1.772727
 42
50.0
 43
0.0
 44
0.0
 50
0.0
 51
0.0
 71
     0
 72
   500
 73
     1
 74
     1
 75
     0
 76
     0
 77
     0
 78
     0
  0
VPORT
  2
4
 70
     0
 10
0.0
 20
0.5
 11
0.5
 21
1.0
 12
2.86209
 22
1.052651
 13
0.0
 23
0.0
 14
1.0
 24
1.0
 15
10.0
 25
10.0
 16
0.0
 26
0.0
 36
1.0
 17
0.0
 27
0.0
 37
0.0
 40
4.275207
 41
1.772727
 42
50.0
 43
0.0
 44
0.0
 50
0.0
 51
0.0
 71
     0
 72
   500
 73
     1
 74
     1
 75
     0
 76
     0
 77
     0
 78
     0
  0
VPORT
  2
4
 70
     0
 10
0.0
 20
0.0
 11
0.5
 21
0.5
 12
2.886858
 22
1.052651
 13
0.0
 23
0.0
 14
1.0
 24
1.0
 15
10.0
 25
10.0
 16
0.0
 26
0.0
 36
1.0
 17
0.0
 27
0.0
 37
0.0
 40
4.275207
 41
1.784314
 42
50.0
 43
0.0
 44
0.0
 50
0.0
 51
0.0
 71
     0
 72
   500
 73
     1
 74
     1
 75
     0
 76
     0
 77
     0
 78
     0
  0
ENDTAB
  0
TABLE
  2
LTYPE
 70
     5
  0
LTYPE
  2
CONTINUOUS
 70
    64
  3
実線
 72
    65
 73
     0
 40
0.0
  0
LTYPE
  2
DASHED
 70
    64
  3
__ __ __ __ __ __ __ __ __ __ __ __ __ __ __
 72
    65
 73
     2
 40
0.75
 49
0.5
 49
-0.25
  0
LTYPE
  2
CENTER
 70
    64
  3
____ _ ____ _ ____ _ ____ _ ____ _ ____ _ ____
 72
    65
 73
     4
 40
2.0
 49
1.25
 49
-0.25
 49
0.25
 49
-0.25
  0
LTYPE
  2
PHANTOM
 70
    64
  3
_____ _ _ _____ _ _ _____ _ _ _____ _ _ ____
 72
    65
 73
     6
 40
2.5
 49
1.25
 49
-0.25
 49
0.25
 49
-0.25
 49
0.25
 49
-0.25
  0
LTYPE
  2
HIDDEN
 70
    64
  3
_ _ _ _ _ _ _ _ _ _ _ _ _ _ _ _ _ _ _ _ _ _ _
 72
    65
 73
     2
 40
0.375
 49
0.25
 49
-0.125
  0
ENDTAB
  0
TABLE
  2
LAYER
 70
    14
  0
LAYER
  2
0
 70
    64
 62
     7
  6
CONTINUOUS
  0
LAYER
  2
ITTEN
 70
    64
 62
     1
  6
CENTER
  0
LAYER
  2
HATCH
 70
    64
 62
     4
  6
CONTINUOUS
  0
LAYER
  2
SUNPOU
 70
    64
 62
     3
  6
CONTINUOUS
  0
LAYER
  2
TEXT
 70
    64
 62
     3
  6
CONTINUOUS
  0
LAYER
  2
JISSEN
 70
    64
 62
     7
  6
CONTINUOUS
  0
LAYER
  2
TENSEN
 70
    64
 62
     2
  6
HIDDEN
  0
LAYER
  2
WAKU
 70
    64
 62
    -5
  6
CONTINUOUS
  0
ENDTAB
  0
TABLE
  2
STYLE
 70
     2
  0
STYLE
  2
STANDARD
 70
     0
 40
0.0
 41
1.0
 50
0.0
 71
     0
 42
0.2
  3
ROMANS
  4
EXTFONT
  0
STYLE
  2
K
 70
    64
 40
0.0
 41
1.0
 50
0.0
 71
     0
 42
60.0
  3
ROMANS
  4
EXTFONT
  0
ENDTAB
  0
TABLE
  2
VIEW
 70
     0
  0
ENDTAB
  0
TABLE
  2
UCS
 70
     0
  0
ENDTAB
  0
TABLE
  2
APPID
 70
     1
  0
APPID
  2
ACAD
 70
    64
  0
ENDTAB
  0
TABLE
  2
DIMSTYLE
 70
     0
  0
ENDTAB
  0
ENDSEC
  0
SECTION
  2
BLOCKS
  0
BLOCK
  8
JISSEN
  2
ARROW
 70
    64
 10
1.0
 20
0.5
 30
0.0
  3
ARROW
  0
LINE
  8
0
 10
1.0
 20
0.5
 30
0.0
 11
-0.5
 21
0.098076
 31
0.0
  0
LINE
  8
0
 10
0.0
 20
0.5
 30
0.0
 11
1.0
 21
0.5
 31
0.0
  0
LINE
  8
0
 10
1.0
 20
0.5
 30
0.0
 11
-0.5
 21
0.901924
 31
0.0
  0
ENDBLK
  8
JISSEN
  0
BLOCK
  8
SUNPOU
  2
ARROWANG
 70
    64
 10
0.0
 20
0.0
 30
0.0
  3
ARROWANG
  0
LINE
  8
SUNPOU
 10
0.0
 20
0.0
 30
0.0
 11
-1.5
 21
0.401924
 31
0.0
  0
LINE
  8
SUNPOU
 10
0.0
 20
0.0
 30
0.0
 11
-1.5
 21
-0.401924
 31
0.0
  0
ENDBLK
  8
SUNPOU
  0
BLOCK
  8
HATCH
  2
*X2
 70
    65
 10
0.0
 20
0.0
 30
0.0
  3
*X
  0
ENDBLK
  8
HATCH
  0
BLOCK
  8
HATCH
  2
*X3
 70
    65
 10
0.0
 20
0.0
 30
0.0
  3
*X
  0
ENDBLK
  8
HATCH
  0
BLOCK
  8
HATCH
  2
STDGX5
 70
    64
 10
0.0
 20
0.0
 30
0.0
  3
STDGX5
  0
ENDBLK
  8
HATCH
  0
ENDSEC
  0
SECTION
  2
ENTITIES
  0
LINE
  8
JISSEN
 10
1084.206738
 20
4820.856986
 30
0.0
 11
1124.206738
 21
4820.856986
 31
0.0
  0
LINE
  8
JISSEN
 10
1124.206738
 20
4820.856986
 30
0.0
 11
1131.206738
 21
4797.856986
 31
0.0
  0
LINE
  8
JISSEN
 10
1131.206738
 20
4797.856986
 30
0.0
 11
1159.206738
 21
4797.856986
 31
0.0
  0
LINE
  8
JISSEN
 10
1084.206738
 20
4820.856986
 30
0.0
 11
1084.206738
 21
3920.856986
 31
0.0
  0
LINE
  8
JISSEN
 10
1084.206738
 20
3920.856986
 30
0.0
 11
1125.206738
 21
3920.856986
 31
0.0
  0
LINE
  8
JISSEN
 10
1125.206738
 20
3920.856986
 30
0.0
 11
1134.206738
 21
3905.856986
 31
0.0
  0
LINE
  8
JISSEN
 10
1134.206738
 20
3905.856986
 30
0.0
 11
1159.206738
 21
3905.856986
 31
0.0
  0
LINE
  8
JISSEN
 10
1159.206738
 20
4797.856986
 30
0.0
 11
1159.206738
 21
3905.856986
 31
0.0
  0
LINE
  8
TENSEN
 10
2059.206738
 20
4797.856986
 30
0.0
 11
2059.206738
 21
3905.856986
 31
0.0
  0
LINE
  8
JISSEN
 10
2084.206738
 20
3905.856986
 30
0.0
 11
2059.206738
 21
3905.856986
 31
0.0
  0
LINE
  8
JISSEN
 10
2093.206738
 20
3920.856986
 30
0.0
 11
2084.206738
 21
3905.856986
 31
0.0
  0
LINE
  8
JISSEN
 10
2134.206738
 20
3920.856986
 30
0.0
 11
2093.206738
 21
3920.856986
 31
0.0
  0
LINE
  8
JISSEN
 10
2134.206738
 20
4820.856986
 30
0.0
 11
2134.206738
 21
3920.856986
 31
0.0
  0
LINE
  8
TENSEN
 10
2087.206738
 20
4797.856986
 30
0.0
 11
2059.206738
 21
4797.856986
 31
0.0
  0
LINE
  8
TENSEN
 10
2094.206738
 20
4820.856986
 30
0.0
 11
2087.206738
 21
4797.856986
 31
0.0
  0
LINE
  8
JISSEN
 10
2134.206738
 20
4820.856986
 30
0.0
 11
2094.206738
 21
4820.856986
 31
0.0
  0
LINE
  8
JISSEN
 10
1125.206738
 20
4820.856986
 30
0.0
 11
2094.206738
 21
4820.856986
 31
0.0
  0
LINE
  8
JISSEN
 10
1159.206738
 20
4797.856986
 30
0.0
 11
1459.206738
 21
4797.856986
 31
0.0
  0
LINE
  8
TENSEN
 10
1459.206738
 20
4797.856986
 30
0.0
 11
2059.206738
 21
4797.856986
 31
0.0
  0
LINE
  8
JISSEN
 10
1159.206738
 20
3905.856986
 30
0.0
 11
2059.206738
 21
3905.856986
 31
0.0
  0
LINE
  8
TENSEN
 10
1125.206738
 20
3920.856986
 30
0.0
 11
1459.206738
 21
3920.856986
 31
0.0
  0
LINE
  8
JISSEN
 10
1459.206738
 20
3920.856986
 30
0.0
 11
2093.206738
 21
3920.856986
 31
0.0
  0
LINE
  8
ITTEN
 10
1459.206738
 20
4920.856986
 30
0.0
 11
1459.206738
 21
3820.856986
 31
0.0
  0
LINE
  8
SUNPOU
 10
1084.206738
 20
4850.856986
 30
0.0
 11
1084.206738
 21
5300.856986
 31
0.0
  0
LINE
  8
SUNPOU
 10
2134.206738
 20
4850.856986
 30
0.0
 11
2134.206738
 21
5300.856986
 31
0.0
  0
LINE
  8
SUNPOU
 10
1084.206738
 20
5270.856986
 30
0.0
 11
2134.206738
 21
5270.856986
 31
0.0
  0
INSERT
  8
SUNPOU
  2
ARROWANG
 10
2134.206738
 20
5270.856986
 30
0.0
 41
30.0
 42
30.0
 43
30.0
  0
INSERT
  8
SUNPOU
  2
ARROWANG
 10
1084.206738
 20
5270.856986
 30
0.0
 41
30.0
 42
30.0
 50
180.0
 43
30.0
  0
TEXT
  8
SUNPOU
 10
1520.278167
 20
5315.856986
 30
0.0
 40
45.0
  1
1050
  7
K
 72
     1
 11
1609.206738
 21
5315.856986
 31
0.0
  0
LINE
  8
SUNPOU
 10
1084.206738
 20
5150.856986
 30
0.0
 11
1084.206738
 21
5150.856986
 31
0.0
  0
LINE
  8
SUNPOU
 10
1159.206738
 20
4827.856986
 30
0.0
 11
1159.206738
 21
5150.856986
 31
0.0
  0
LINE
  8
SUNPOU
 10
1084.206738
 20
5120.856986
 30
0.0
 11
1159.206738
 21
5120.856986
 31
0.0
  0
INSERT
  8
SUNPOU
  2
ARROWANG
 10
1159.206738
 20
5120.856986
 30
0.0
 41
30.0
 42
30.0
 50
180.0
 43
30.0
  0
INSERT
  8
SUNPOU
  2
ARROWANG
 10
1084.206738
 20
5120.856986
 30
0.0
 41
30.0
 42
30.0
 43
30.0
  0
TEXT
  8
SUNPOU
 10
1078.84961
 20
5165.856986
 30
0.0
 40
45.0
  1
75
  7
K
 72
     1
 11
1121.706753
 21
5165.856986
 31
0.0
  0
LINE
  8
SUNPOU
 10
1159.206738
 20
5120.856986
 30
0.0
 11
1219.206738
 21
5120.856986
 31
0.0
  0
LINE
  8
SUNPOU
 10
1084.206738
 20
5120.856986
 30
0.0
 11
1024.206738
 21
5120.856986
 31
0.0
  0
LINE
  8
SUNPOU
 10
2059.206738
 20
4827.856986
 30
0.0
 11
2059.206738
 21
5150.856986
 31
0.0
  0
LINE
  8
SUNPOU
 10
2134.206738
 20
5150.856986
 30
0.0
 11
2134.206738
 21
5150.856986
 31
0.0
  0
LINE
  8
SUNPOU
 10
2059.206738
 20
5120.856986
 30
0.0
 11
2134.206738
 21
5120.856986
 31
0.0
  0
INSERT
  8
SUNPOU
  2
ARROWANG
 10
2134.206738
 20
5120.856986
 30
0.0
 41
30.0
 42
30.0
 50
180.0
 43
30.0
  0
INSERT
  8
SUNPOU
  2
ARROWANG
 10
2059.206738
 20
5120.856986
 30
0.0
 41
30.0
 42
30.0
 43
30.0
  0
TEXT
  8
SUNPOU
 10
2053.849595
 20
5165.856986
 30
0.0
 40
45.0
  1
75
  7
K
 72
     1
 11
2096.706738
 21
5165.856986
 31
0.0
  0
LINE
  8
SUNPOU
 10
2134.206738
 20
5120.856986
 30
0.0
 11
2194.206738
 21
5120.856986
 31
0.0
  0
LINE
  8
SUNPOU
 10
2059.206738
 20
5120.856986
 30
0.0
 11
1999.206738
 21
5120.856986
 31
0.0
  0
LINE
  8
SUNPOU
 10
1159.206738
 20
5090.856986
 30
0.0
 11
1159.206738
 21
5090.856986
 31
0.0
  0
LINE
  8
SUNPOU
 10
2059.206738
 20
5090.856986
 30
0.0
 11
2059.206738
 21
5090.856986
 31
0.0
  0
LINE
  8
SUNPOU
 10
1159.206738
 20
5120.856986
 30
0.0
 11
2059.206738
 21
5120.856986
 31
0.0
  0
INSERT
  8
SUNPOU
  2
ARROWANG
 10
1159.206738
 20
5120.856986
 30
0.0
 41
30.0
 42
30.0
 50
180.0
 43
30.0
  0
INSERT
  8
SUNPOU
  2
ARROWANG
 10
2059.206738
 20
5120.856986
 30
0.0
 41
30.0
 42
30.0
 43
30.0
  0
TEXT
  8
SUNPOU
 10
1544.921039
 20
5165.856986
 30
0.0
 40
45.0
  1
900
  7
K
 72
     1
 11
1609.206753
 21
5165.856986
 31
0.0
  0
LINE
  8
SUNPOU
 10
1159.206738
 20
5000.856986
 30
0.0
 11
1159.206738
 21
5000.856986
 31
0.0
  0
LINE
  8
SUNPOU
 10
1459.206738
 20
4850.856986
 30
0.0
 11
1459.206738
 21
5000.856986
 31
0.0
  0
LINE
  8
SUNPOU
 10
1159.206738
 20
4970.856986
 30
0.0
 11
1459.206738
 21
4970.856986
 31
0.0
  0
INSERT
  8
SUNPOU
  2
ARROWANG
 10
1459.206738
 20
4970.856986
 30
0.0
 41
30.0
 42
30.0
 43
30.0
  0
INSERT
  8
SUNPOU
  2
ARROWANG
 10
1159.206738
 20
4970.856986
 30
0.0
 41
30.0
 42
30.0
 50
180.0
 43
30.0
  0
TEXT
  8
SUNPOU
 10
1244.921024
 20
5015.856986
 30
0.0
 40
45.0
  1
300
  7
K
 72
     1
 11
1309.206738
 21
5015.856986
 31
0.0
  0
LINE
  8
SUNPOU
 10
1459.206738
 20
4940.856986
 30
0.0
 11
1459.206738
 21
4940.856986
 31
0.0
  0
LINE
  8
SUNPOU
 10
2059.206738
 20
4940.856986
 30
0.0
 11
2059.206738
 21
4940.856986
 31
0.0
  0
LINE
  8
SUNPOU
 10
1459.206738
 20
4970.856986
 30
0.0
 11
2059.206738
 21
4970.856986
 31
0.0
  0
INSERT
  8
SUNPOU
  2
ARROWANG
 10
1459.206738
 20
4970.856986
 30
0.0
 41
30.0
 42
30.0
 50
180.0
 43
30.0
  0
INSERT
  8
SUNPOU
  2
ARROWANG
 10
2059.206738
 20
4970.856986
 30
0.0
 41
30.0
 42
30.0
 43
30.0
  0
TEXT
  8
SUNPOU
 10
1693.84961
 20
5015.856986
 30
0.0
 40
45.0
  1
600
  7
K
 72
     1
 11
1759.206753
 21
5015.856986
 31
0.0
  0
LINE
  8
SUNPOU
 10
1054.206738
 20
3920.856986
 30
0.0
 11
804.206738
 21
3920.856986
 31
0.0
  0
LINE
  8
SUNPOU
 10
1054.206738
 20
4820.856986
 30
0.0
 11
804.206738
 21
4820.856986
 31
0.0
  0
LINE
  8
SUNPOU
 10
834.206738
 20
3920.856986
 30
0.0
 11
834.206738
 21
4820.856986
 31
0.0
  0
INSERT
  8
SUNPOU
  2
ARROWANG
 10
834.206738
 20
3920.856986
 30
0.0
 41
30.0
 42
30.0
 50
270.0
 43
30.0
  0
INSERT
  8
SUNPOU
  2
ARROWANG
 10
834.206738
 20
4820.856986
 30
0.0
 41
30.0
 42
30.0
 50
90.0
 43
30.0
  0
TEXT
  8
SUNPOU
 10
789.206738
 20
4306.571272
 30
0.0
 40
45.0
  1
900
 50
90.0
  7
K
 72
     1
 11
789.206738
 21
4370.856986
 31
0.0
  0
LINE
  8
SUNPOU
 10
1101.206738
 20
4797.856986
 30
0.0
 11
954.206738
 21
4797.856986
 31
0.0
  0
LINE
  8
SUNPOU
 10
1014.206738
 20
4820.856986
 30
0.0
 11
1014.206738
 21
4820.856986
 31
0.0
  0
INSERT
  8
SUNPOU
  2
ARROWANG
 10
984.206738
 20
4797.856986
 30
0.0
 41
30.0
 42
30.0
 50
90.0
 43
30.0
  0
INSERT
  8
SUNPOU
  2
ARROWANG
 10
984.206738
 20
4820.856986
 30
0.0
 41
30.0
 42
30.0
 50
270.0
 43
30.0
  0
LINE
  8
SUNPOU
 10
984.206738
 20
4797.856986
 30
0.0
 11
984.206738
 21
4698.856986
 31
0.0
  0
LINE
  8
SUNPOU
 10
984.206738
 20
4820.856986
 30
0.0
 11
984.206738
 21
4880.856986
 31
0.0
  0
TEXT
  8
SUNPOU
 10
939.206738
 20
4705.499843
 30
0.0
 40
45.0
  1
23
 50
90.0
  7
K
 72
     1
 11
939.206738
 21
4748.356986
 31
0.0
  0
LINE
  8
SUNPOU
 10
1104.206738
 20
3905.856986
 30
0.0
 11
954.206738
 21
3905.856986
 31
0.0
  0
LINE
  8
SUNPOU
 10
1014.206738
 20
3920.856986
 30
0.0
 11
1014.206738
 21
3920.856986
 31
0.0
  0
INSERT
  8
SUNPOU
  2
ARROWANG
 10
984.206738
 20
3905.856986
 30
0.0
 41
30.0
 42
30.0
 50
90.0
 43
30.0
  0
INSERT
  8
SUNPOU
  2
ARROWANG
 10
984.206738
 20
3920.856986
 30
0.0
 41
30.0
 42
30.0
 50
270.0
 43
30.0
  0
LINE
  8
SUNPOU
 10
984.206738
 20
3920.856986
 30
0.0
 11
984.206738
 21
4019.856986
 31
0.0
  0
LINE
  8
SUNPOU
 10
984.206738
 20
3905.856986
 30
0.0
 11
984.206739
 21
3845.856986
 31
0.0
  0
TEXT
  8
SUNPOU
 10
939.206738
 20
3924.285557
 30
0.0
 40
45.0
  1
15
 50
90.0
  7
K
 72
     1
 11
939.206738
 21
3970.356986
 31
0.0
  0
ARC
  8
JISSEN
 10
1259.206738
 20
4055.856986
 30
0.0
 40
12.5
 50
270.0
 51
90.0
  0
LINE
  8
JISSEN
 10
1159.206738
 20
4068.356986
 30
0.0
 11
1259.206738
 21
4068.356986
 31
0.0
  0
LINE
  8
JISSEN
 10
1259.206738
 20
4043.356986
 30
0.0
 11
1159.206738
 21
4043.356986
 31
0.0
  0
LINE
  8
ITTEN
 10
1059.206738
 20
4055.856986
 30
0.0
 11
1359.206738
 21
4055.856986
 31
0.0
  0
LINE
  8
ITTEN
 10
1059.206738
 20
4355.856986
 30
0.0
 11
1329.662248
 21
4355.856986
 31
0.0
  0
LINE
  8
JISSEN
 10
1259.206738
 20
4343.356986
 30
0.0
 11
1159.206738
 21
4343.356986
 31
0.0
  0
LINE
  8
JISSEN
 10
1159.206738
 20
4368.356986
 30
0.0
 11
1259.206738
 21
4368.356986
 31
0.0
  0
ARC
  8
JISSEN
 10
1259.206738
 20
4355.856986
 30
0.0
 40
12.5
 50
270.0
 51
90.0
  0
LINE
  8
ITTEN
 10
1059.206738
 20
4655.856986
 30
0.0
 11
1359.206738
 21
4655.856986
 31
0.0
  0
LINE
  8
JISSEN
 10
1259.206738
 20
4643.356986
 30
0.0
 11
1159.206738
 21
4643.356986
 31
0.0
  0
LINE
  8
JISSEN
 10
1159.206738
 20
4668.356986
 30
0.0
 11
1259.206738
 21
4668.356986
 31
0.0
  0
ARC
  8
JISSEN
 10
1259.206738
 20
4655.856986
 30
0.0
 40
12.5
 50
270.0
 51
90.0
  0
LINE
  8
SUNPOU
 10
1339.206738
 20
4355.856986
 30
0.0
 11
1339.206738
 21
4355.856986
 31
0.0
  0
LINE
  8
SUNPOU
 10
1339.206738
 20
4655.856986
 30
0.0
 11
1339.206738
 21
4655.856986
 31
0.0
  0
LINE
  8
SUNPOU
 10
1309.206738
 20
4355.856986
 30
0.0
 11
1309.206738
 21
4655.856986
 31
0.0
  0
INSERT
  8
SUNPOU
  2
ARROWANG
 10
1309.206738
 20
4355.856986
 30
0.0
 41
30.0
 42
30.0
 50
270.0
 43
30.0
  0
INSERT
  8
SUNPOU
  2
ARROWANG
 10
1309.206738
 20
4655.856986
 30
0.0
 41
30.0
 42
30.0
 50
90.0
 43
30.0
  0
TEXT
  8
SUNPOU
 10
1264.206738
 20
4441.571272
 30
0.0
 40
45.0
  1
300
 50
90.0
  7
K
 72
     1
 11
1264.206738
 21
4505.856986
 31
0.0
  0
LINE
  8
SUNPOU
 10
1339.206738
 20
4055.856986
 30
0.0
 11
1339.206738
 21
4055.856986
 31
0.0
  0
LINE
  8
SUNPOU
 10
1339.206738
 20
4355.856986
 30
0.0
 11
1339.206738
 21
4355.856986
 31
0.0
  0
LINE
  8
SUNPOU
 10
1309.206738
 20
4055.856986
 30
0.0
 11
1309.206738
 21
4355.856986
 31
0.0
  0
INSERT
  8
SUNPOU
  2
ARROWANG
 10
1309.206738
 20
4055.856986
 30
0.0
 41
30.0
 42
30.0
 50
270.0
 43
30.0
  0
INSERT
  8
SUNPOU
  2
ARROWANG
 10
1309.206738
 20
4355.856986
 30
0.0
 41
30.0
 42
30.0
 50
90.0
 43
30.0
  0
TEXT
  8
SUNPOU
 10
1264.206738
 20
4141.571272
 30
0.0
 40
45.0
  1
300
 50
90.0
  7
K
 72
     1
 11
1264.206738
 21
4205.856986
 31
0.0
  0
LINE
  8
SUNPOU
 10
1279.206738
 20
3905.856986
 30
0.0
 11
1279.206738
 21
3905.856986
 31
0.0
  0
LINE
  8
SUNPOU
 10
1279.206738
 20
4055.856986
 30
0.0
 11
1279.206738
 21
4055.856986
 31
0.0
  0
LINE
  8
SUNPOU
 10
1309.206738
 20
3905.856986
 30
0.0
 11
1309.206738
 21
4055.856986
 31
0.0
  0
INSERT
  8
SUNPOU
  2
ARROWANG
 10
1309.206738
 20
3905.856986
 30
0.0
 41
30.0
 42
30.0
 50
270.0
 43
30.0
  0
INSERT
  8
SUNPOU
  2
ARROWANG
 10
1309.206738
 20
4055.856986
 30
0.0
 41
30.0
 42
30.0
 50
90.0
 43
30.0
  0
TEXT
  8
SUNPOU
 10
1264.206738
 20
3913.356986
 30
0.0
 40
45.0
  1
150
 50
90.0
  7
K
 72
     1
 11
1264.206738
 21
3980.856986
 31
0.0
  0
LINE
  8
SUNPOU
 10
1439.206738
 20
3905.856986
 30
0.0
 11
1454.286543
 21
3905.856986
 31
0.0
  0
LINE
  8
SUNPOU
 10
1439.206738
 20
4797.856986
 30
0.0
 11
1454.286543
 21
4797.856986
 31
0.0
  0
LINE
  8
SUNPOU
 10
1424.286543
 20
3905.856986
 30
0.0
 11
1424.286543
 21
4797.856986
 31
0.0
  0
INSERT
  8
SUNPOU
  2
ARROWANG
 10
1424.286543
 20
3905.856986
 30
0.0
 41
30.0
 42
30.0
 50
270.0
 43
30.0
  0
INSERT
  8
SUNPOU
  2
ARROWANG
 10
1424.286543
 20
4797.856986
 30
0.0
 41
30.0
 42
30.0
 50
90.0
 43
30.0
  0
TEXT
  8
SUNPOU
 10
1379.286543
 20
4290.480454
 30
0.0
 40
45.0
  1
892
 50
90.0
  7
K
 72
     1
 11
1379.286543
 21
4354.766168
 31
0.0
  0
LINE
  8
SUNPOU
 10
3139.206738
 20
4797.856986
 30
0.0
 11
3154.286543
 21
4797.856986
 31
0.0
  0
LINE
  8
SUNPOU
 10
3139.206738
 20
3905.856986
 30
0.0
 11
3154.286543
 21
3905.856986
 31
0.0
  0
LINE
  8
SUNPOU
 10
2979.206738
 20
3905.856986
 30
0.0
 11
2979.206738
 21
3905.856986
 31
0.0
  0
LINE
  8
JISSEN
 10
3159.206738
 20
3920.856986
 30
0.0
 11
3493.206738
 21
3920.856986
 31
0.0
  0
LINE
  8
TENSEN
 10
2825.206738
 20
3920.856986
 30
0.0
 11
3159.206738
 21
3920.856986
 31
0.0
  0
LINE
  8
JISSEN
 10
2859.206738
 20
3905.856986
 30
0.0
 11
3459.206738
 21
3905.856986
 31
0.0
  0
LINE
  8
TENSEN
 10
3159.206738
 20
4797.856986
 30
0.0
 11
3459.206738
 21
4797.856986
 31
0.0
  0
LINE
  8
JISSEN
 10
2859.206738
 20
4797.856986
 30
0.0
 11
3159.206738
 21
4797.856986
 31
0.0
  0
LINE
  8
JISSEN
 10
2825.206738
 20
4820.856986
 30
0.0
 11
3494.206738
 21
4820.856986
 31
0.0
  0
LINE
  8
JISSEN
 10
3534.206738
 20
4820.856986
 30
0.0
 11
3494.206738
 21
4820.856986
 31
0.0
  0
LINE
  8
TENSEN
 10
3494.206738
 20
4820.856986
 30
0.0
 11
3487.206738
 21
4797.856986
 31
0.0
  0
LINE
  8
TENSEN
 10
3487.206738
 20
4797.856986
 30
0.0
 11
3459.206738
 21
4797.856986
 31
0.0
  0
LINE
  8
JISSEN
 10
3534.206738
 20
4820.856986
 30
0.0
 11
3534.206738
 21
3920.856986
 31
0.0
  0
LINE
  8
JISSEN
 10
3534.206738
 20
3920.856986
 30
0.0
 11
3493.206738
 21
3920.856986
 31
0.0
  0
LINE
  8
JISSEN
 10
3493.206738
 20
3920.856986
 30
0.0
 11
3484.206738
 21
3905.856986
 31
0.0
  0
LINE
  8
JISSEN
 10
3484.206738
 20
3905.856986
 30
0.0
 11
3459.206738
 21
3905.856986
 31
0.0
  0
LINE
  8
TENSEN
 10
3459.206738
 20
4797.856986
 30
0.0
 11
3459.206738
 21
3905.856986
 31
0.0
  0
LINE
  8
JISSEN
 10
2859.206738
 20
4797.856986
 30
0.0
 11
2859.206738
 21
3905.856986
 31
0.0
  0
LINE
  8
JISSEN
 10
2834.206738
 20
3905.856986
 30
0.0
 11
2859.206738
 21
3905.856986
 31
0.0
  0
LINE
  8
JISSEN
 10
2825.206738
 20
3920.856986
 30
0.0
 11
2834.206738
 21
3905.856986
 31
0.0
  0
LINE
  8
JISSEN
 10
2784.206738
 20
3920.856986
 30
0.0
 11
2825.206738
 21
3920.856986
 31
0.0
  0
LINE
  8
JISSEN
 10
2784.206738
 20
4820.856986
 30
0.0
 11
2784.206738
 21
3920.856986
 31
0.0
  0
LINE
  8
JISSEN
 10
2831.206738
 20
4797.856986
 30
0.0
 11
2859.206738
 21
4797.856986
 31
0.0
  0
LINE
  8
JISSEN
 10
2824.206738
 20
4820.856986
 30
0.0
 11
2831.206738
 21
4797.856986
 31
0.0
  0
LINE
  8
JISSEN
 10
2784.206738
 20
4820.856986
 30
0.0
 11
2824.206738
 21
4820.856986
 31
0.0
  0
LINE
  8
SUNPOU
 10
2784.206738
 20
4850.856986
 30
0.0
 11
2784.206738
 21
5150.856986
 31
0.0
  0
LINE
  8
SUNPOU
 10
3534.206738
 20
4850.856986
 30
0.0
 11
3534.206738
 21
5150.856986
 31
0.0
  0
LINE
  8
SUNPOU
 10
2784.206738
 20
5120.856986
 30
0.0
 11
3534.206738
 21
5120.856986
 31
0.0
  0
INSERT
  8
SUNPOU
  2
ARROWANG
 10
3534.206738
 20
5120.856986
 30
0.0
 41
30.0
 42
30.0
 43
30.0
  0
INSERT
  8
SUNPOU
  2
ARROWANG
 10
2784.206738
 20
5120.856986
 30
0.0
 41
30.0
 42
30.0
 50
180.0
 43
30.0
  0
TEXT
  8
SUNPOU
 10
3094.921024
 20
5165.856986
 30
0.0
 40
45.0
  1
750
  7
K
 72
     1
 11
3159.206738
 21
5165.856986
 31
0.0
  0
LINE
  8
SUNPOU
 10
2784.206738
 20
5000.856986
 30
0.0
 11
2784.206738
 21
5000.856986
 31
0.0
  0
LINE
  8
SUNPOU
 10
2859.206738
 20
4827.856986
 30
0.0
 11
2859.206738
 21
5000.856986
 31
0.0
  0
LINE
  8
SUNPOU
 10
2784.206738
 20
4970.856986
 30
0.0
 11
2859.206738
 21
4970.856986
 31
0.0
  0
INSERT
  8
SUNPOU
  2
ARROWANG
 10
2859.206738
 20
4970.856986
 30
0.0
 41
30.0
 42
30.0
 50
180.0
 43
30.0
  0
INSERT
  8
SUNPOU
  2
ARROWANG
 10
2784.206738
 20
4970.856986
 30
0.0
 41
30.0
 42
30.0
 43
30.0
  0
TEXT
  8
SUNPOU
 10
2778.84961
 20
5015.856986
 30
0.0
 40
45.0
  1
75
  7
K
 72
     1
 11
2821.706753
 21
5015.856986
 31
0.0
  0
LINE
  8
SUNPOU
 10
2859.206738
 20
4970.856986
 30
0.0
 11
2919.206738
 21
4970.856986
 31
0.0
  0
LINE
  8
SUNPOU
 10
2784.206738
 20
4970.856986
 30
0.0
 11
2724.206738
 21
4970.856986
 31
0.0
  0
LINE
  8
SUNPOU
 10
3459.206738
 20
4827.856986
 30
0.0
 11
3459.206738
 21
5000.856986
 31
0.0
  0
LINE
  8
SUNPOU
 10
3534.206738
 20
5000.856986
 30
0.0
 11
3534.206738
 21
5000.856986
 31
0.0
  0
LINE
  8
SUNPOU
 10
3459.206738
 20
4970.856986
 30
0.0
 11
3534.206738
 21
4970.856986
 31
0.0
  0
INSERT
  8
SUNPOU
  2
ARROWANG
 10
3534.206738
 20
4970.856986
 30
0.0
 41
30.0
 42
30.0
 50
180.0
 43
30.0
  0
INSERT
  8
SUNPOU
  2
ARROWANG
 10
3459.206738
 20
4970.856986
 30
0.0
 41
30.0
 42
30.0
 43
30.0
  0
TEXT
  8
SUNPOU
 10
3453.84961
 20
5015.856986
 30
0.0
 40
45.0
  1
75
  7
K
 72
     1
 11
3496.706753
 21
5015.856986
 31
0.0
  0
LINE
  8
SUNPOU
 10
3534.206738
 20
4970.856986
 30
0.0
 11
3594.206738
 21
4970.856986
 31
0.0
  0
LINE
  8
SUNPOU
 10
3459.206738
 20
4970.856986
 30
0.0
 11
3399.206738
 21
4970.856986
 31
0.0
  0
LINE
  8
SUNPOU
 10
2859.206738
 20
4940.856986
 30
0.0
 11
2859.206738
 21
4940.856986
 31
0.0
  0
LINE
  8
SUNPOU
 10
3459.206738
 20
4940.856986
 30
0.0
 11
3459.206738
 21
4940.856986
 31
0.0
  0
LINE
  8
SUNPOU
 10
2859.206738
 20
4970.856986
 30
0.0
 11
3459.206738
 21
4970.856986
 31
0.0
  0
INSERT
  8
SUNPOU
  2
ARROWANG
 10
2859.206738
 20
4970.856986
 30
0.0
 41
30.0
 42
30.0
 50
180.0
 43
30.0
  0
INSERT
  8
SUNPOU
  2
ARROWANG
 10
3459.206738
 20
4970.856986
 30
0.0
 41
30.0
 42
30.0
 43
30.0
  0
TEXT
  8
SUNPOU
 10
3093.84961
 20
5015.856986
 30
0.0
 40
45.0
  1
600
  7
K
 72
     1
 11
3159.206753
 21
5015.856986
 31
0.0
  0
LINE
  8
ITTEN
 10
3159.206738
 20
4920.856986
 30
0.0
 11
3159.206738
 21
3820.856986
 31
0.0
  0
ARC
  8
TENSEN
 10
3295.706738
 20
4055.856986
 30
0.0
 40
12.5
 50
270.0
 51
90.0
  0
ARC
  8
JISSEN
 10
3022.706738
 20
4055.856986
 30
0.0
 40
12.5
 50
90.0
 51
270.0
  0
LINE
  8
JISSEN
 10
3022.706738
 20
4068.356986
 30
0.0
 11
3159.206738
 21
4068.356986
 31
0.0
  0
LINE
  8
TENSEN
 10
3159.206738
 20
4068.356986
 30
0.0
 11
3295.706738
 21
4068.356986
 31
0.0
  0
LINE
  8
TENSEN
 10
3295.706738
 20
4043.356986
 30
0.0
 11
3159.206738
 21
4043.356986
 31
0.0
  0
LINE
  8
JISSEN
 10
3159.206738
 20
4043.356986
 30
0.0
 11
3022.706738
 21
4043.356986
 31
0.0
  0
LINE
  8
ITTEN
 10
2959.206738
 20
4055.856986
 30
0.0
 11
3359.206738
 21
4055.856986
 31
0.0
  0
LINE
  8
ITTEN
 10
2959.206738
 20
4355.856986
 30
0.0
 11
3359.206738
 21
4355.856986
 31
0.0
  0
LINE
  8
JISSEN
 10
3159.206738
 20
4343.356986
 30
0.0
 11
3022.706738
 21
4343.356986
 31
0.0
  0
LINE
  8
TENSEN
 10
3295.706738
 20
4343.356986
 30
0.0
 11
3159.206738
 21
4343.356986
 31
0.0
  0
LINE
  8
TENSEN
 10
3159.206738
 20
4368.356986
 30
0.0
 11
3295.706738
 21
4368.356986
 31
0.0
  0
LINE
  8
JISSEN
 10
3022.706738
 20
4368.356986
 30
0.0
 11
3159.206738
 21
4368.356986
 31
0.0
  0
ARC
  8
JISSEN
 10
3022.706738
 20
4355.856986
 30
0.0
 40
12.5
 50
90.0
 51
270.0
  0
ARC
  8
TENSEN
 10
3295.706738
 20
4355.856986
 30
0.0
 40
12.5
 50
270.0
 51
90.0
  0
LINE
  8
ITTEN
 10
2959.206738
 20
4655.856986
 30
0.0
 11
3359.206738
 21
4655.856986
 31
0.0
  0
LINE
  8
JISSEN
 10
3159.206738
 20
4643.356986
 30
0.0
 11
3022.706738
 21
4643.356986
 31
0.0
  0
LINE
  8
TENSEN
 10
3295.706738
 20
4643.356986
 30
0.0
 11
3159.206738
 21
4643.356986
 31
0.0
  0
LINE
  8
TENSEN
 10
3159.206738
 20
4668.356986
 30
0.0
 11
3295.706738
 21
4668.356986
 31
0.0
  0
LINE
  8
JISSEN
 10
3022.706738
 20
4668.356986
 30
0.0
 11
3159.206738
 21
4668.356986
 31
0.0
  0
ARC
  8
JISSEN
 10
3022.706738
 20
4655.856986
 30
0.0
 40
12.5
 50
90.0
 51
270.0
  0
ARC
  8
TENSEN
 10
3295.706738
 20
4655.856986
 30
0.0
 40
12.5
 50
270.0
 51
90.0
  0
ARC
  8
JISSEN
 10
1759.206738
 20
3030.856986
 30
0.0
 40
375.0
 50
270.0
 51
90.0
  0
ARC
  8
JISSEN
 10
1759.206738
 20
3030.856986
 30
0.0
 40
300.0
 50
270.0
 51
90.0
  0
ARC
  8
JISSEN
 10
1759.206738
 20
3030.856986
 30
0.0
 40
328.0
 50
270.0
 51
90.0
  0
ARC
  8
JISSEN
 10
1759.206738
 20
3030.856986
 30
0.0
 40
335.0
 50
270.0
 51
90.0
  0
LINE
  8
JISSEN
 10
1109.206738
 20
3405.856986
 30
0.0
 11
1759.206738
 21
3405.856986
 31
0.0
  0
LINE
  8
JISSEN
 10
1084.206738
 20
3380.856986
 30
0.0
 11
1084.206738
 21
2680.856986
 31
0.0
  0
LINE
  8
JISSEN
 10
1109.206738
 20
2655.856986
 30
0.0
 11
1759.206738
 21
2655.856986
 31
0.0
  0
LINE
  8
JISSEN
 10
1759.206738
 20
2702.856986
 30
0.0
 11
1235.837944
 21
2702.856986
 31
0.0
  0
LINE
  8
JISSEN
 10
1759.206738
 20
3330.856986
 30
0.0
 11
1235.837944
 21
3330.856986
 31
0.0
  0
ARC
  8
JISSEN
 10
2959.206738
 20
3030.856986
 30
0.0
 40
1800.0
 50
167.975301
 51
167.975301
  0
ARC
  8
JISSEN
 10
1235.837944
 20
3270.856986
 30
0.0
 40
60.0
 50
90.0
 51
180.0
  0
ARC
  8
JISSEN
 10
2959.206738
 20
3030.856986
 30
0.0
 40
1828.0
 50
168.162175
 51
168.162175
  0
ARC
  8
JISSEN
 10
2959.206738
 20
3030.856986
 30
0.0
 40
1835.0
 50
168.162175
 51
168.207983
  0
ARC
  8
JISSEN
 10
1235.837944
 20
3270.856986
 30
0.0
 40
88.0
 50
90.0
 51
172.071858
  0
ARC
  8
JISSEN
 10
1235.837944
 20
3270.856986
 30
0.0
 40
95.0
 50
90.0
 51
172.071858
  0
ARC
  8
JISSEN
 10
2959.206738
 20
3030.856986
 30
0.0
 40
1800.0
 50
172.003017
 51
187.928142
  0
ARC
  8
JISSEN
 10
2959.206738
 20
3030.856986
 30
0.0
 40
1828.0
 50
171.976608
 51
187.928142
  0
ARC
  8
JISSEN
 10
2959.206738
 20
3030.856986
 30
0.0
 40
1835.0
 50
171.970527
 51
187.928142
  0
LINE
  8
JISSEN
 10
1235.837944
 20
3358.856986
 30
0.0
 11
1759.206738
 21
3358.856986
 31
0.0
  0
LINE
  8
JISSEN
 10
1235.837944
 20
3365.856986
 30
0.0
 11
1759.206738
 21
3365.856986
 31
0.0
  0
ARC
  8
JISSEN
 10
1235.837944
 20
2790.856986
 30
0.0
 40
60.0
 50
187.928142
 51
270.0
  0
ARC
  8
JISSEN
 10
1235.837944
 20
2790.856986
 30
0.0
 40
88.0
 50
187.928142
 51
270.0
  0
ARC
  8
JISSEN
 10
1235.837944
 20
2790.856986
 30
0.0
 40
95.0
 50
187.928142
 51
270.0
  0
ARC
  8
JISSEN
 10
2959.206738
 20
3030.856986
 30
0.0
 40
1835.0
 50
191.792017
 51
191.792017
  0
LINE
  8
JISSEN
 10
1235.837944
 20
2730.856986
 30
0.0
 11
1759.206738
 21
2730.856986
 31
0.0
  0
LINE
  8
JISSEN
 10
1235.837944
 20
2695.856986
 30
0.0
 11
1759.206738
 21
2695.856986
 31
0.0
  0
ARC
  8
JISSEN
 10
1109.206738
 20
3380.856986
 30
0.0
 40
25.0
 50
90.0
 51
180.0
  0
ARC
  8
JISSEN
 10
1109.206738
 20
2680.856986
 30
0.0
 40
25.0
 50
180.0
 51
270.0
  0
LINE
  8
ITTEN
 10
1459.206738
 20
3505.856986
 30
0.0
 11
1459.206738
 21
2944.490135
 31
0.0
  0
LINE
  8
ITTEN
 10
1759.206738
 20
3505.856986
 30
0.0
 11
1759.206738
 21
2555.856986
 31
0.0
  0
LINE
  8
ITTEN
 10
984.206738
 20
3030.856986
 30
0.0
 11
2234.206738
 21
3030.856986
 31
0.0
  0
LINE
  8
JISSEN
 10
1163.482929
 20
3154.856986
 30
0.0
 11
1163.482929
 21
3154.856986
 31
0.0
  0
LINE
  8
JISSEN
 10
1216.706738
 20
3154.856986
 30
0.0
 11
1163.482929
 21
3154.856986
 31
0.0
  0
LINE
  8
JISSEN
 10
1246.706738
 20
3124.856986
 30
0.0
 11
1246.706738
 21
2936.856986
 31
0.0
  0
LINE
  8
JISSEN
 10
1216.706738
 20
2906.856986
 30
0.0
 11
1163.482929
 21
2906.856986
 31
0.0
  0
LINE
  8
JISSEN
 10
1165.384283
 20
2881.856986
 30
0.0
 11
1216.706738
 21
2881.856986
 31
0.0
  0
LINE
  8
JISSEN
 10
1271.706738
 20
2936.856986
 30
0.0
 11
1271.706738
 21
3124.856986
 31
0.0
  0
LINE
  8
JISSEN
 10
1216.706738
 20
3179.856986
 30
0.0
 11
1165.384283
 21
3179.856986
 31
0.0
  0
ARC
  8
JISSEN
 10
1216.706738
 20
3124.856986
 30
0.0
 40
30.0
 50
0.0
 51
90.0
  0
ARC
  8
JISSEN
 10
1216.706738
 20
2936.856986
 30
0.0
 40
30.0
 50
270.0
 51
0.0
  0
ARC
  8
JISSEN
 10
1216.706738
 20
3124.856986
 30
0.0
 40
55.0
 50
0.0
 51
90.0
  0
ARC
  8
JISSEN
 10
1216.706738
 20
2936.856986
 30
0.0
 40
55.0
 50
270.0
 51
0.0
  0
LINE
  8
ITTEN
 10
1216.706738
 20
3167.356986
 30
0.0
 11
1164.389826
 21
3167.356986
 31
0.0
  0
LINE
  8
ITTEN
 10
1259.206738
 20
3124.856986
 30
0.0
 11
1259.206738
 21
2936.856986
 31
0.0
  0
LINE
  8
ITTEN
 10
1216.706738
 20
2894.356986
 30
0.0
 11
1164.389826
 21
2894.356986
 31
0.0
  0
ARC
  8
ITTEN
 10
1216.706738
 20
3124.856986
 30
0.0
 40
42.5
 50
0.0
 51
90.0
  0
ARC
  8
ITTEN
 10
1216.706738
 20
2936.856986
 30
0.0
 40
42.5
 50
270.0
 51
0.0
  0
LINE
  8
SUNPOU
 10
1134.389826
 20
2894.356986
 30
0.0
 11
904.206738
 21
2894.356986
 31
0.0
  0
LINE
  8
SUNPOU
 10
1134.389826
 20
3167.356986
 30
0.0
 11
904.206738
 21
3167.356986
 31
0.0
  0
LINE
  8
SUNPOU
 10
934.206738
 20
2894.356986
 30
0.0
 11
934.206738
 21
3167.356986
 31
0.0
  0
INSERT
  8
SUNPOU
  2
ARROWANG
 10
934.206738
 20
2894.356986
 30
0.0
 41
30.0
 42
30.0
 50
270.0
 43
30.0
  0
INSERT
  8
SUNPOU
  2
ARROWANG
 10
934.206738
 20
3167.356986
 30
0.0
 41
30.0
 42
30.0
 50
90.0
 43
30.0
  0
TEXT
  8
SUNPOU
 10
889.206738
 20
2966.571272
 30
0.0
 40
45.0
  1
273
 50
90.0
  7
K
 72
     1
 11
889.206738
 21
3030.856986
 31
0.0
  0
LINE
  8
SUNPOU
 10
1759.206738
 20
2525.856986
 30
0.0
 11
1759.206738
 21
2325.856986
 31
0.0
  0
LINE
  8
SUNPOU
 10
1159.206738
 20
2355.856986
 30
0.0
 11
1759.206738
 21
2355.856986
 31
0.0
  0
INSERT
  8
SUNPOU
  2
ARROWANG
 10
1759.206738
 20
2355.856986
 30
0.0
 41
30.0
 42
30.0
 43
30.0
  0
INSERT
  8
SUNPOU
  2
ARROWANG
 10
1159.206738
 20
2355.856986
 30
0.0
 41
30.0
 42
30.0
 50
180.0
 43
30.0
  0
TEXT
  8
SUNPOU
 10
1393.849595
 20
2400.856986
 30
0.0
 40
45.0
  1
600
  7
K
 72
     1
 11
1459.206738
 21
2400.856986
 31
0.0
  0
LINE
  8
SUNPOU
 10
1459.206738
 20
2555.856986
 30
0.0
 11
1459.206738
 21
2475.856986
 31
0.0
  0
LINE
  8
SUNPOU
 10
1759.206738
 20
2475.856986
 30
0.0
 11
1759.206738
 21
2475.856986
 31
0.0
  0
LINE
  8
SUNPOU
 10
1459.206738
 20
2505.856986
 30
0.0
 11
1759.206738
 21
2505.856986
 31
0.0
  0
INSERT
  8
SUNPOU
  2
ARROWANG
 10
1459.206738
 20
2505.856986
 30
0.0
 41
30.0
 42
30.0
 50
180.0
 43
30.0
  0
INSERT
  8
SUNPOU
  2
ARROWANG
 10
1759.206738
 20
2505.856986
 30
0.0
 41
30.0
 42
30.0
 43
30.0
  0
TEXT
  8
SUNPOU
 10
1544.921039
 20
2550.856986
 30
0.0
 40
45.0
  1
300
  7
K
 72
     1
 11
1609.206753
 21
2550.856986
 31
0.0
  0
LINE
  8
SUNPOU
 10
1159.206738
 20
2706.540354
 30
0.0
 11
1159.206738
 21
2325.856986
 31
0.0
  0
LINE
  8
SUNPOU
 10
2026.354169
 20
3167.356986
 30
0.0
 11
1759.206738
 21
3030.856986
 31
0.0
  0
INSERT
  8
SUNPOU
  2
ARROWANG
 10
2026.354169
 20
3167.356986
 30
0.0
 41
30.0
 42
30.0
 50
27.064934
 43
30.0
  0
TEXT
  8
SUNPOU
 10
1794.06942
 20
3099.204101
 30
0.0
 40
45.0
  1
R300
 50
27.064934
  7
K
 72
     1
 11
1872.305454
 21
3139.179101
 31
0.0
  0
INSERT
  8
SUNPOU
  2
ARROW
 10
1170.201537
 20
2844.974207
 30
0.0
 41
30.0
 42
30.0
 50
191.637634
 43
30.0
  0
LINE
  8
SUNPOU
 10
1199.584826
 20
2851.025846
 30
0.0
 11
1371.83342
 21
2886.501326
 31
0.0
  0
LINE
  8
SUNPOU
 10
1371.83342
 20
2886.501326
 30
0.0
 11
1329.779414
 21
2845.360193
 31
0.0
  0
LINE
  8
SUNPOU
 10
1329.779414
 20
2845.360193
 30
0.0
 11
1365.068096
 21
2853.070701
 31
0.0
  0
LINE
  8
SUNPOU
 10
1364.701921
 20
2853.355148
 30
0.0
 11
1394.107452
 21
2859.297767
 31
0.0
  0
LINE
  8
SUNPOU
 10
1394.107452
 20
2859.297767
 30
0.0
 11
1594.19109
 21
2899.733044
 31
0.0
  0
TEXT
  8
SUNPOU
 10
1383.895406
 20
2880.18886
 30
0.0
 40
45.0
  1
R1800
 50
11.425132
  7
K
 72
     1
 11
1486.558592
 21
2923.891121
 31
0.0
 73
     2
  0
POINT
  8
SUNPOU
 10
1366.50105
 20
2820.438088
 30
0.0
  0
LINE
  8
ITTEN
 10
1459.206738
 20
2861.388368
 30
0.0
 11
1459.206738
 21
2555.856986
 31
0.0
  0
LINE
  8
SUNPOU
 10
1196.641531
 20
3316.284304
 30
0.0
 11
1327.606672
 21
3162.309673
 31
0.0
  0
INSERT
  8
SUNPOU
  2
ARROWANG
 10
1196.641531
 20
3316.284304
 30
0.0
 41
30.0
 42
30.0
 50
130.788871
 43
30.0
  0
TEXT
  8
SUNPOU
 10
1268.31903
 20
3294.109743
 30
0.0
 40
45.0
  1
R60
 50
310.788871
  7
K
 72
     1
 11
1311.715059
 21
3243.815212
 31
0.0
  0
LINE
  8
TENSEN
 10
1539.206738
 20
3405.856986
 30
0.0
 11
1539.206738
 21
3365.856986
 31
0.0
  0
LINE
  8
TENSEN
 10
1559.206738
 20
3405.856986
 30
0.0
 11
1559.206738
 21
3365.856986
 31
0.0
  0
CIRCLE
  8
JISSEN
 10
1549.206738
 20
4720.856986
 30
0.0
 40
10.0
  0
LINE
  8
ITTEN
 10
1549.206738
 20
4750.856986
 30
0.0
 11
1549.206738
 21
4690.856986
 31
0.0
  0
LINE
  8
ITTEN
 10
1579.206738
 20
4720.856986
 30
0.0
 11
1519.206738
 21
4720.856986
 31
0.0
  0
CIRCLE
  8
JISSEN
 10
1549.206738
 20
4020.856986
 30
0.0
 40
10.0
  0
LINE
  8
ITTEN
 10
1549.206738
 20
4050.856986
 30
0.0
 11
1549.206738
 21
3990.856986
 31
0.0
  0
LINE
  8
ITTEN
 10
1579.206738
 20
4020.856986
 30
0.0
 11
1519.206738
 21
4020.856986
 31
0.0
  0
LINE
  8
SUNPOU
 10
1609.206738
 20
4720.856986
 30
0.0
 11
1729.206738
 21
4720.856986
 31
0.0
  0
LINE
  8
SUNPOU
 10
1729.206738
 20
4820.856986
 30
0.0
 11
1729.206738
 21
4820.856986
 31
0.0
  0
INSERT
  8
SUNPOU
  2
ARROWANG
 10
1699.206738
 20
4720.856986
 30
0.0
 41
30.0
 42
30.0
 50
90.0
 43
30.0
  0
INSERT
  8
SUNPOU
  2
ARROWANG
 10
1699.206738
 20
4820.856986
 30
0.0
 41
30.0
 42
30.0
 50
270.0
 43
30.0
  0
LINE
  8
SUNPOU
 10
1699.206738
 20
4720.856986
 30
0.0
 11
1699.206738
 21
4572.356986
 31
0.0
  0
LINE
  8
SUNPOU
 10
1699.206738
 20
4820.856986
 30
0.0
 11
1699.206738
 21
4880.856986
 31
0.0
  0
TEXT
  8
SUNPOU
 10
1654.206738
 20
4579.106986
 30
0.0
 40
45.0
  1
100
 50
90.0
  7
K
 72
     1
 11
1654.206738
 21
4646.606986
 31
0.0
  0
LINE
  8
SUNPOU
 10
1729.206738
 20
3920.856986
 30
0.0
 11
1729.206738
 21
3920.856986
 31
0.0
  0
LINE
  8
SUNPOU
 10
1609.206738
 20
4020.856986
 30
0.0
 11
1729.206738
 21
4020.856986
 31
0.0
  0
INSERT
  8
SUNPOU
  2
ARROWANG
 10
1699.206738
 20
3920.856986
 30
0.0
 41
30.0
 42
30.0
 50
90.0
 43
30.0
  0
INSERT
  8
SUNPOU
  2
ARROWANG
 10
1699.206738
 20
4020.856986
 30
0.0
 41
30.0
 42
30.0
 50
270.0
 43
30.0
  0
LINE
  8
SUNPOU
 10
1699.206738
 20
4020.856986
 30
0.0
 11
1699.206738
 21
4169.356986
 31
0.0
  0
LINE
  8
SUNPOU
 10
1699.206738
 20
3920.856986
 30
0.0
 11
1699.206739
 21
3860.856986
 31
0.0
  0
TEXT
  8
SUNPOU
 10
1654.206738
 20
4027.606986
 30
0.0
 40
45.0
  1
100
 50
90.0
  7
K
 72
     1
 11
1654.206738
 21
4095.106986
 31
0.0
  0
LINE
  8
JISSEN
 10
2784.206738
 20
4730.856986
 30
0.0
 11
2834.206738
 21
4730.856986
 31
0.0
  0
LINE
  8
JISSEN
 10
2834.206738
 20
4730.856986
 30
0.0
 11
2834.206738
 21
4710.856986
 31
0.0
  0
LINE
  8
JISSEN
 10
2834.206738
 20
4710.856986
 30
0.0
 11
2784.206738
 21
4710.856986
 31
0.0
  0
LINE
  8
JISSEN
 10
2784.206738
 20
4030.856986
 30
0.0
 11
2834.206738
 21
4030.856986
 31
0.0
  0
LINE
  8
JISSEN
 10
2834.206738
 20
4030.856986
 30
0.0
 11
2834.206738
 21
4010.856986
 31
0.0
  0
LINE
  8
JISSEN
 10
2834.206738
 20
4010.856986
 30
0.0
 11
2784.206738
 21
4010.856986
 31
0.0
  0
LINE
  8
TENSEN
 10
3534.206738
 20
4010.856986
 30
0.0
 11
3484.206738
 21
4010.856986
 31
0.0
  0
LINE
  8
TENSEN
 10
3484.206738
 20
4010.856986
 30
0.0
 11
3484.206738
 21
4030.856986
 31
0.0
  0
LINE
  8
TENSEN
 10
3484.206738
 20
4030.856986
 30
0.0
 11
3534.206738
 21
4030.856986
 31
0.0
  0
LINE
  8
TENSEN
 10
3534.206738
 20
4730.856986
 30
0.0
 11
3484.206738
 21
4730.856986
 31
0.0
  0
LINE
  8
TENSEN
 10
3484.206738
 20
4730.856986
 30
0.0
 11
3484.206738
 21
4710.856986
 31
0.0
  0
LINE
  8
TENSEN
 10
3484.206738
 20
4710.856986
 30
0.0
 11
3534.206738
 21
4710.856986
 31
0.0
  0
LINE
  8
ITTEN
 10
2734.206738
 20
4720.856986
 30
0.0
 11
2909.206738
 21
4720.856986
 31
0.0
  0
LINE
  8
ITTEN
 10
3584.206738
 20
4020.856986
 30
0.0
 11
3409.206738
 21
4020.856986
 31
0.0
  0
LINE
  8
ITTEN
 10
3409.206738
 20
4720.856986
 30
0.0
 11
3584.206738
 21
4720.856986
 31
0.0
  0
LINE
  8
ITTEN
 10
2909.206738
 20
4020.856986
 30
0.0
 11
2734.206738
 21
4020.856986
 31
0.0
  0
LINE
  8
ITTEN
 10
6639.85767
 20
4320.856986
 30
0.0
 11
6464.85767
 21
4320.856986
 31
0.0
  0
LINE
  8
ITTEN
 10
7139.85767
 20
4720.856986
 30
0.0
 11
7314.85767
 21
4720.856986
 31
0.0
  0
LINE
  8
ITTEN
 10
7314.85767
 20
4320.856986
 30
0.0
 11
7139.85767
 21
4320.856986
 31
0.0
  0
LINE
  8
ITTEN
 10
6464.85767
 20
4720.856986
 30
0.0
 11
6639.85767
 21
4720.856986
 31
0.0
  0
LINE
  8
TENSEN
 10
7214.85767
 20
4710.856986
 30
0.0
 11
7264.85767
 21
4710.856986
 31
0.0
  0
LINE
  8
TENSEN
 10
7214.85767
 20
4730.856986
 30
0.0
 11
7214.85767
 21
4710.856986
 31
0.0
  0
LINE
  8
TENSEN
 10
7264.85767
 20
4730.856986
 30
0.0
 11
7214.85767
 21
4730.856986
 31
0.0
  0
LINE
  8
TENSEN
 10
7214.85767
 20
4330.856986
 30
0.0
 11
7264.85767
 21
4330.856986
 31
0.0
  0
LINE
  8
TENSEN
 10
7214.85767
 20
4310.856986
 30
0.0
 11
7214.85767
 21
4330.856986
 31
0.0
  0
LINE
  8
TENSEN
 10
7264.85767
 20
4310.856986
 30
0.0
 11
7214.85767
 21
4310.856986
 31
0.0
  0
LINE
  8
JISSEN
 10
6564.85767
 20
4310.856986
 30
0.0
 11
6514.85767
 21
4310.856986
 31
0.0
  0
LINE
  8
JISSEN
 10
6564.85767
 20
4330.856986
 30
0.0
 11
6564.85767
 21
4310.856986
 31
0.0
  0
LINE
  8
JISSEN
 10
6514.85767
 20
4330.856986
 30
0.0
 11
6564.85767
 21
4330.856986
 31
0.0
  0
LINE
  8
JISSEN
 10
6564.85767
 20
4710.856986
 30
0.0
 11
6514.85767
 21
4710.856986
 31
0.0
  0
LINE
  8
JISSEN
 10
6564.85767
 20
4730.856986
 30
0.0
 11
6564.85767
 21
4710.856986
 31
0.0
  0
LINE
  8
JISSEN
 10
6514.85767
 20
4730.856986
 30
0.0
 11
6564.85767
 21
4730.856986
 31
0.0
  0
TEXT
  8
SUNPOU
 10
5384.85767
 20
4327.606986
 30
0.0
 40
45.0
  1
100
 50
90.0
  7
K
 72
     1
 11
5384.85767
 21
4395.106986
 31
0.0
  0
LINE
  8
SUNPOU
 10
5429.85767
 20
4220.856986
 30
0.0
 11
5429.857671
 21
4160.856986
 31
0.0
  0
LINE
  8
SUNPOU
 10
5429.85767
 20
4320.856986
 30
0.0
 11
5429.85767
 21
4469.356986
 31
0.0
  0
INSERT
  8
SUNPOU
  2
ARROWANG
 10
5429.85767
 20
4320.856986
 30
0.0
 41
30.0
 42
30.0
 50
270.0
 43
30.0
  0
INSERT
  8
SUNPOU
  2
ARROWANG
 10
5429.85767
 20
4220.856986
 30
0.0
 41
30.0
 42
30.0
 50
90.0
 43
30.0
  0
LINE
  8
SUNPOU
 10
5339.85767
 20
4320.856986
 30
0.0
 11
5459.85767
 21
4320.856986
 31
0.0
  0
LINE
  8
SUNPOU
 10
5459.85767
 20
4220.856986
 30
0.0
 11
5459.85767
 21
4220.856986
 31
0.0
  0
TEXT
  8
SUNPOU
 10
5384.85767
 20
4579.106986
 30
0.0
 40
45.0
  1
100
 50
90.0
  7
K
 72
     1
 11
5384.85767
 21
4646.606986
 31
0.0
  0
LINE
  8
SUNPOU
 10
5429.85767
 20
4820.856986
 30
0.0
 11
5429.85767
 21
4880.856986
 31
0.0
  0
LINE
  8
SUNPOU
 10
5429.85767
 20
4720.856986
 30
0.0
 11
5429.85767
 21
4572.356986
 31
0.0
  0
INSERT
  8
SUNPOU
  2
ARROWANG
 10
5429.85767
 20
4820.856986
 30
0.0
 41
30.0
 42
30.0
 50
270.0
 43
30.0
  0
INSERT
  8
SUNPOU
  2
ARROWANG
 10
5429.85767
 20
4720.856986
 30
0.0
 41
30.0
 42
30.0
 50
90.0
 43
30.0
  0
LINE
  8
SUNPOU
 10
5459.85767
 20
4820.856986
 30
0.0
 11
5459.85767
 21
4820.856986
 31
0.0
  0
LINE
  8
SUNPOU
 10
5339.85767
 20
4720.856986
 30
0.0
 11
5459.85767
 21
4720.856986
 31
0.0
  0
LINE
  8
ITTEN
 10
5309.85767
 20
4320.856986
 30
0.0
 11
5249.85767
 21
4320.856986
 31
0.0
  0
LINE
  8
ITTEN
 10
5279.85767
 20
4350.856986
 30
0.0
 11
5279.85767
 21
4290.856986
 31
0.0
  0
CIRCLE
  8
JISSEN
 10
5279.85767
 20
4320.856986
 30
0.0
 40
10.0
  0
LINE
  8
ITTEN
 10
5309.85767
 20
4720.856986
 30
0.0
 11
5249.85767
 21
4720.856986
 31
0.0
  0
LINE
  8
ITTEN
 10
5279.85767
 20
4750.856986
 30
0.0
 11
5279.85767
 21
4690.856986
 31
0.0
  0
CIRCLE
  8
JISSEN
 10
5279.85767
 20
4720.856986
 30
0.0
 40
10.0
  0
ARC
  8
TENSEN
 10
7026.35767
 20
4655.856986
 30
0.0
 40
12.5
 50
270.0
 51
90.0
  0
ARC
  8
JISSEN
 10
6753.35767
 20
4655.856986
 30
0.0
 40
12.5
 50
90.0
 51
270.0
  0
LINE
  8
JISSEN
 10
6753.35767
 20
4668.356986
 30
0.0
 11
6889.85767
 21
4668.356986
 31
0.0
  0
LINE
  8
TENSEN
 10
6889.85767
 20
4668.356986
 30
0.0
 11
7026.35767
 21
4668.356986
 31
0.0
  0
LINE
  8
TENSEN
 10
7026.35767
 20
4643.356986
 30
0.0
 11
6889.85767
 21
4643.356986
 31
0.0
  0
LINE
  8
JISSEN
 10
6889.85767
 20
4643.356986
 30
0.0
 11
6753.35767
 21
4643.356986
 31
0.0
  0
LINE
  8
ITTEN
 10
6689.85767
 20
4655.856986
 30
0.0
 11
7089.85767
 21
4655.856986
 31
0.0
  0
LINE
  8
ITTEN
 10
6689.85767
 20
4355.856986
 30
0.0
 11
7089.85767
 21
4355.856986
 31
0.0
  0
LINE
  8
JISSEN
 10
6889.85767
 20
4343.356986
 30
0.0
 11
6753.35767
 21
4343.356986
 31
0.0
  0
LINE
  8
TENSEN
 10
7026.35767
 20
4343.356986
 30
0.0
 11
6889.85767
 21
4343.356986
 31
0.0
  0
LINE
  8
TENSEN
 10
6889.85767
 20
4368.356986
 30
0.0
 11
7026.35767
 21
4368.356986
 31
0.0
  0
LINE
  8
JISSEN
 10
6753.35767
 20
4368.356986
 30
0.0
 11
6889.85767
 21
4368.356986
 31
0.0
  0
ARC
  8
JISSEN
 10
6753.35767
 20
4355.856986
 30
0.0
 40
12.5
 50
90.0
 51
270.0
  0
ARC
  8
TENSEN
 10
7026.35767
 20
4355.856986
 30
0.0
 40
12.5
 50
270.0
 51
90.0
  0
LINE
  8
ITTEN
 10
6889.85767
 20
4920.856986
 30
0.0
 11
6889.85767
 21
4120.856986
 31
0.0
  0
TEXT
  8
SUNPOU
 10
6824.500541
 20
5015.856986
 30
0.0
 40
45.0
  1
600
  7
K
 72
     1
 11
6889.857684
 21
5015.856986
 31
0.0
  0
INSERT
  8
SUNPOU
  2
ARROWANG
 10
7189.85767
 20
4970.856986
 30
0.0
 41
30.0
 42
30.0
 43
30.0
  0
INSERT
  8
SUNPOU
  2
ARROWANG
 10
6589.85767
 20
4970.856986
 30
0.0
 41
30.0
 42
30.0
 50
180.0
 43
30.0
  0
LINE
  8
SUNPOU
 10
6589.85767
 20
4970.856986
 30
0.0
 11
7189.85767
 21
4970.856986
 31
0.0
  0
LINE
  8
SUNPOU
 10
7189.85767
 20
4940.856986
 30
0.0
 11
7189.85767
 21
4940.856986
 31
0.0
  0
LINE
  8
SUNPOU
 10
6589.85767
 20
4940.856986
 30
0.0
 11
6589.85767
 21
4940.856986
 31
0.0
  0
LINE
  8
SUNPOU
 10
7189.85767
 20
4970.856986
 30
0.0
 11
7129.85767
 21
4970.856986
 31
0.0
  0
LINE
  8
SUNPOU
 10
7264.85767
 20
4970.856986
 30
0.0
 11
7324.85767
 21
4970.856986
 31
0.0
  0
TEXT
  8
SUNPOU
 10
7184.500541
 20
5015.856986
 30
0.0
 40
45.0
  1
75
  7
K
 72
     1
 11
7227.357684
 21
5015.856986
 31
0.0
  0
INSERT
  8
SUNPOU
  2
ARROWANG
 10
7189.85767
 20
4970.856986
 30
0.0
 41
30.0
 42
30.0
 43
30.0
  0
INSERT
  8
SUNPOU
  2
ARROWANG
 10
7264.85767
 20
4970.856986
 30
0.0
 41
30.0
 42
30.0
 50
180.0
 43
30.0
  0
LINE
  8
SUNPOU
 10
7189.85767
 20
4970.856986
 30
0.0
 11
7264.85767
 21
4970.856986
 31
0.0
  0
LINE
  8
SUNPOU
 10
7264.85767
 20
5000.856986
 30
0.0
 11
7264.85767
 21
5000.856986
 31
0.0
  0
LINE
  8
SUNPOU
 10
7189.85767
 20
4827.856986
 30
0.0
 11
7189.85767
 21
5000.856986
 31
0.0
  0
LINE
  8
SUNPOU
 10
6514.85767
 20
4970.856986
 30
0.0
 11
6454.85767
 21
4970.856986
 31
0.0
  0
LINE
  8
SUNPOU
 10
6589.85767
 20
4970.856986
 30
0.0
 11
6649.85767
 21
4970.856986
 31
0.0
  0
TEXT
  8
SUNPOU
 10
6509.500541
 20
5015.856986
 30
0.0
 40
45.0
  1
75
  7
K
 72
     1
 11
6552.357684
 21
5015.856986
 31
0.0
  0
INSERT
  8
SUNPOU
  2
ARROWANG
 10
6514.85767
 20
4970.856986
 30
0.0
 41
30.0
 42
30.0
 43
30.0
  0
INSERT
  8
SUNPOU
  2
ARROWANG
 10
6589.85767
 20
4970.856986
 30
0.0
 41
30.0
 42
30.0
 50
180.0
 43
30.0
  0
LINE
  8
SUNPOU
 10
6514.85767
 20
4970.856986
 30
0.0
 11
6589.85767
 21
4970.856986
 31
0.0
  0
LINE
  8
SUNPOU
 10
6589.85767
 20
4827.856986
 30
0.0
 11
6589.85767
 21
5000.856986
 31
0.0
  0
LINE
  8
SUNPOU
 10
6514.85767
 20
5000.856986
 30
0.0
 11
6514.85767
 21
5000.856986
 31
0.0
  0
TEXT
  8
SUNPOU
 10
6825.571955
 20
5165.856986
 30
0.0
 40
45.0
  1
750
  7
K
 72
     1
 11
6889.85767
 21
5165.856986
 31
0.0
  0
INSERT
  8
SUNPOU
  2
ARROWANG
 10
6514.85767
 20
5120.856986
 30
0.0
 41
30.0
 42
30.0
 50
180.0
 43
30.0
  0
INSERT
  8
SUNPOU
  2
ARROWANG
 10
7264.85767
 20
5120.856986
 30
0.0
 41
30.0
 42
30.0
 43
30.0
  0
LINE
  8
SUNPOU
 10
6514.85767
 20
5120.856986
 30
0.0
 11
7264.85767
 21
5120.856986
 31
0.0
  0
LINE
  8
SUNPOU
 10
7264.85767
 20
4850.856986
 30
0.0
 11
7264.85767
 21
5150.856986
 31
0.0
  0
LINE
  8
SUNPOU
 10
6514.85767
 20
4850.856986
 30
0.0
 11
6514.85767
 21
5150.856986
 31
0.0
  0
LINE
  8
JISSEN
 10
6514.85767
 20
4820.856986
 30
0.0
 11
6554.85767
 21
4820.856986
 31
0.0
  0
LINE
  8
JISSEN
 10
6554.85767
 20
4820.856986
 30
0.0
 11
6561.85767
 21
4797.856986
 31
0.0
  0
LINE
  8
JISSEN
 10
6561.85767
 20
4797.856986
 30
0.0
 11
6589.85767
 21
4797.856986
 31
0.0
  0
LINE
  8
JISSEN
 10
6514.85767
 20
4820.856986
 30
0.0
 11
6514.85767
 21
4220.856986
 31
0.0
  0
LINE
  8
JISSEN
 10
6514.85767
 20
4220.856986
 30
0.0
 11
6555.85767
 21
4220.856986
 31
0.0
  0
LINE
  8
JISSEN
 10
6555.85767
 20
4220.856986
 30
0.0
 11
6564.85767
 21
4205.856986
 31
0.0
  0
LINE
  8
JISSEN
 10
6564.85767
 20
4205.856986
 30
0.0
 11
6589.85767
 21
4205.856986
 31
0.0
  0
LINE
  8
JISSEN
 10
6589.85767
 20
4797.856986
 30
0.0
 11
6589.85767
 21
4205.856986
 31
0.0
  0
LINE
  8
TENSEN
 10
7189.85767
 20
4797.856986
 30
0.0
 11
7189.85767
 21
4205.856986
 31
0.0
  0
LINE
  8
JISSEN
 10
7214.85767
 20
4205.856986
 30
0.0
 11
7189.85767
 21
4205.856986
 31
0.0
  0
LINE
  8
JISSEN
 10
7223.85767
 20
4220.856986
 30
0.0
 11
7214.85767
 21
4205.856986
 31
0.0
  0
LINE
  8
JISSEN
 10
7264.85767
 20
4220.856986
 30
0.0
 11
7223.85767
 21
4220.856986
 31
0.0
  0
LINE
  8
JISSEN
 10
7264.85767
 20
4820.856986
 30
0.0
 11
7264.85767
 21
4220.856986
 31
0.0
  0
LINE
  8
TENSEN
 10
7217.85767
 20
4797.856986
 30
0.0
 11
7189.85767
 21
4797.856986
 31
0.0
  0
LINE
  8
TENSEN
 10
7224.85767
 20
4820.856986
 30
0.0
 11
7217.85767
 21
4797.856986
 31
0.0
  0
LINE
  8
JISSEN
 10
7264.85767
 20
4820.856986
 30
0.0
 11
7224.85767
 21
4820.856986
 31
0.0
  0
LINE
  8
JISSEN
 10
6555.85767
 20
4820.856986
 30
0.0
 11
7224.85767
 21
4820.856986
 31
0.0
  0
LINE
  8
JISSEN
 10
6589.85767
 20
4797.856986
 30
0.0
 11
6889.85767
 21
4797.856986
 31
0.0
  0
LINE
  8
TENSEN
 10
6889.85767
 20
4797.856986
 30
0.0
 11
7189.85767
 21
4797.856986
 31
0.0
  0
LINE
  8
JISSEN
 10
6589.85767
 20
4205.856986
 30
0.0
 11
7189.85767
 21
4205.856986
 31
0.0
  0
LINE
  8
TENSEN
 10
6555.85767
 20
4220.856986
 30
0.0
 11
6889.85767
 21
4220.856986
 31
0.0
  0
LINE
  8
JISSEN
 10
6889.85767
 20
4220.856986
 30
0.0
 11
7223.85767
 21
4220.856986
 31
0.0
  0
LINE
  8
SUNPOU
 10
6709.85767
 20
4205.856986
 30
0.0
 11
6709.85767
 21
4205.856986
 31
0.0
  0
LINE
  8
SUNPOU
 10
6869.85767
 20
4205.856986
 30
0.0
 11
6884.937474
 21
4205.856986
 31
0.0
  0
LINE
  8
SUNPOU
 10
6869.85767
 20
4797.856986
 30
0.0
 11
6884.937474
 21
4797.856986
 31
0.0
  0
LINE
  8
SUNPOU
 10
5169.85767
 20
4797.856986
 30
0.0
 11
5184.937474
 21
4797.856986
 31
0.0
  0
LINE
  8
SUNPOU
 10
5169.85767
 20
4205.856986
 30
0.0
 11
5184.937474
 21
4205.856986
 31
0.0
  0
TEXT
  8
SUNPOU
 10
4994.85767
 20
4213.356986
 30
0.0
 40
45.0
  1
150
 50
90.0
  7
K
 72
     1
 11
4994.85767
 21
4280.856986
 31
0.0
  0
INSERT
  8
SUNPOU
  2
ARROWANG
 10
5039.85767
 20
4355.856986
 30
0.0
 41
30.0
 42
30.0
 50
90.0
 43
30.0
  0
INSERT
  8
SUNPOU
  2
ARROWANG
 10
5039.85767
 20
4205.856986
 30
0.0
 41
30.0
 42
30.0
 50
270.0
 43
30.0
  0
LINE
  8
SUNPOU
 10
5039.85767
 20
4205.856986
 30
0.0
 11
5039.85767
 21
4355.856986
 31
0.0
  0
LINE
  8
SUNPOU
 10
5009.85767
 20
4355.856986
 30
0.0
 11
5009.85767
 21
4355.856986
 31
0.0
  0
LINE
  8
SUNPOU
 10
5009.85767
 20
4205.856986
 30
0.0
 11
5009.85767
 21
4205.856986
 31
0.0
  0
LINE
  8
SUNPOU
 10
5039.85767
 20
4655.856986
 30
0.0
 11
5039.85767
 21
4655.856986
 31
0.0
  0
ARC
  8
JISSEN
 10
4989.85767
 20
4655.856986
 30
0.0
 40
12.5
 50
270.0
 51
90.0
  0
LINE
  8
JISSEN
 10
4889.85767
 20
4668.356986
 30
0.0
 11
4989.85767
 21
4668.356986
 31
0.0
  0
LINE
  8
JISSEN
 10
4989.85767
 20
4643.356986
 30
0.0
 11
4889.85767
 21
4643.356986
 31
0.0
  0
LINE
  8
ITTEN
 10
4789.85767
 20
4655.856986
 30
0.0
 11
5089.85767
 21
4655.856986
 31
0.0
  0
LINE
  8
ITTEN
 10
4789.85767
 20
4655.856986
 30
0.0
 11
5060.31318
 21
4655.856986
 31
0.0
  0
LINE
  8
ITTEN
 10
4789.85767
 20
4355.856986
 30
0.0
 11
5089.85767
 21
4355.856986
 31
0.0
  0
LINE
  8
JISSEN
 10
4989.85767
 20
4343.356986
 30
0.0
 11
4889.85767
 21
4343.356986
 31
0.0
  0
LINE
  8
JISSEN
 10
4889.85767
 20
4368.356986
 30
0.0
 11
4989.85767
 21
4368.356986
 31
0.0
  0
ARC
  8
JISSEN
 10
4989.85767
 20
4355.856986
 30
0.0
 40
12.5
 50
270.0
 51
90.0
  0
TEXT
  8
SUNPOU
 10
4669.85767
 20
4224.285557
 30
0.0
 40
45.0
  1
15
 50
90.0
  7
K
 72
     1
 11
4669.85767
 21
4270.356986
 31
0.0
  0
LINE
  8
SUNPOU
 10
4714.85767
 20
4205.856986
 30
0.0
 11
4714.857671
 21
4145.856986
 31
0.0
  0
LINE
  8
SUNPOU
 10
4714.85767
 20
4220.856986
 30
0.0
 11
4714.85767
 21
4319.856986
 31
0.0
  0
INSERT
  8
SUNPOU
  2
ARROWANG
 10
4714.85767
 20
4220.856986
 30
0.0
 41
30.0
 42
30.0
 50
270.0
 43
30.0
  0
INSERT
  8
SUNPOU
  2
ARROWANG
 10
4714.85767
 20
4205.856986
 30
0.0
 41
30.0
 42
30.0
 50
90.0
 43
30.0
  0
LINE
  8
SUNPOU
 10
4744.85767
 20
4220.856986
 30
0.0
 11
4744.85767
 21
4220.856986
 31
0.0
  0
LINE
  8
SUNPOU
 10
4834.85767
 20
4205.856986
 30
0.0
 11
4684.85767
 21
4205.856986
 31
0.0
  0
TEXT
  8
SUNPOU
 10
4669.85767
 20
4705.499843
 30
0.0
 40
45.0
  1
23
 50
90.0
  7
K
 72
     1
 11
4669.85767
 21
4748.356986
 31
0.0
  0
LINE
  8
SUNPOU
 10
4714.85767
 20
4820.856986
 30
0.0
 11
4714.85767
 21
4880.856986
 31
0.0
  0
LINE
  8
SUNPOU
 10
4714.85767
 20
4797.856986
 30
0.0
 11
4714.85767
 21
4698.856986
 31
0.0
  0
INSERT
  8
SUNPOU
  2
ARROWANG
 10
4714.85767
 20
4820.856986
 30
0.0
 41
30.0
 42
30.0
 50
270.0
 43
30.0
  0
INSERT
  8
SUNPOU
  2
ARROWANG
 10
4714.85767
 20
4797.856986
 30
0.0
 41
30.0
 42
30.0
 50
90.0
 43
30.0
  0
LINE
  8
SUNPOU
 10
4744.85767
 20
4820.856986
 30
0.0
 11
4744.85767
 21
4820.856986
 31
0.0
  0
LINE
  8
SUNPOU
 10
4831.85767
 20
4797.856986
 30
0.0
 11
4684.85767
 21
4797.856986
 31
0.0
  0
LINE
  8
SUNPOU
 10
4784.85767
 20
4820.856986
 30
0.0
 11
4534.85767
 21
4820.856986
 31
0.0
  0
LINE
  8
SUNPOU
 10
4784.85767
 20
4220.856986
 30
0.0
 11
4534.85767
 21
4220.856986
 31
0.0
  0
TEXT
  8
SUNPOU
 10
5424.500541
 20
5015.856986
 30
0.0
 40
45.0
  1
600
  7
K
 72
     1
 11
5489.857684
 21
5015.856986
 31
0.0
  0
INSERT
  8
SUNPOU
  2
ARROWANG
 10
5789.85767
 20
4970.856986
 30
0.0
 41
30.0
 42
30.0
 43
30.0
  0
INSERT
  8
SUNPOU
  2
ARROWANG
 10
5189.85767
 20
4970.856986
 30
0.0
 41
30.0
 42
30.0
 50
180.0
 43
30.0
  0
LINE
  8
SUNPOU
 10
5189.85767
 20
4970.856986
 30
0.0
 11
5789.85767
 21
4970.856986
 31
0.0
  0
LINE
  8
SUNPOU
 10
5789.85767
 20
4940.856986
 30
0.0
 11
5789.85767
 21
4940.856986
 31
0.0
  0
LINE
  8
SUNPOU
 10
5189.85767
 20
4940.856986
 30
0.0
 11
5189.85767
 21
4940.856986
 31
0.0
  0
TEXT
  8
SUNPOU
 10
4975.571955
 20
5015.856986
 30
0.0
 40
45.0
  1
300
  7
K
 72
     1
 11
5039.85767
 21
5015.856986
 31
0.0
  0
INSERT
  8
SUNPOU
  2
ARROWANG
 10
4889.85767
 20
4970.856986
 30
0.0
 41
30.0
 42
30.0
 50
180.0
 43
30.0
  0
INSERT
  8
SUNPOU
  2
ARROWANG
 10
5189.85767
 20
4970.856986
 30
0.0
 41
30.0
 42
30.0
 43
30.0
  0
LINE
  8
SUNPOU
 10
4889.85767
 20
4970.856986
 30
0.0
 11
5189.85767
 21
4970.856986
 31
0.0
  0
LINE
  8
SUNPOU
 10
5189.85767
 20
4850.856986
 30
0.0
 11
5189.85767
 21
5000.856986
 31
0.0
  0
LINE
  8
SUNPOU
 10
4889.85767
 20
5000.856986
 30
0.0
 11
4889.85767
 21
5000.856986
 31
0.0
  0
TEXT
  8
SUNPOU
 10
5275.57197
 20
5165.856986
 30
0.0
 40
45.0
  1
900
  7
K
 72
     1
 11
5339.857684
 21
5165.856986
 31
0.0
  0
INSERT
  8
SUNPOU
  2
ARROWANG
 10
5789.85767
 20
5120.856986
 30
0.0
 41
30.0
 42
30.0
 43
30.0
  0
INSERT
  8
SUNPOU
  2
ARROWANG
 10
4889.85767
 20
5120.856986
 30
0.0
 41
30.0
 42
30.0
 50
180.0
 43
30.0
  0
LINE
  8
SUNPOU
 10
4889.85767
 20
5120.856986
 30
0.0
 11
5789.85767
 21
5120.856986
 31
0.0
  0
LINE
  8
SUNPOU
 10
5789.85767
 20
5090.856986
 30
0.0
 11
5789.85767
 21
5090.856986
 31
0.0
  0
LINE
  8
SUNPOU
 10
4889.85767
 20
5090.856986
 30
0.0
 11
4889.85767
 21
5090.856986
 31
0.0
  0
LINE
  8
SUNPOU
 10
5789.85767
 20
5120.856986
 30
0.0
 11
5729.85767
 21
5120.856986
 31
0.0
  0
LINE
  8
SUNPOU
 10
5864.85767
 20
5120.856986
 30
0.0
 11
5924.85767
 21
5120.856986
 31
0.0
  0
TEXT
  8
SUNPOU
 10
5784.500527
 20
5165.856986
 30
0.0
 40
45.0
  1
75
  7
K
 72
     1
 11
5827.35767
 21
5165.856986
 31
0.0
  0
INSERT
  8
SUNPOU
  2
ARROWANG
 10
5789.85767
 20
5120.856986
 30
0.0
 41
30.0
 42
30.0
 43
30.0
  0
INSERT
  8
SUNPOU
  2
ARROWANG
 10
5864.85767
 20
5120.856986
 30
0.0
 41
30.0
 42
30.0
 50
180.0
 43
30.0
  0
LINE
  8
SUNPOU
 10
5789.85767
 20
5120.856986
 30
0.0
 11
5864.85767
 21
5120.856986
 31
0.0
  0
LINE
  8
SUNPOU
 10
5864.85767
 20
5150.856986
 30
0.0
 11
5864.85767
 21
5150.856986
 31
0.0
  0
LINE
  8
SUNPOU
 10
5789.85767
 20
4827.856986
 30
0.0
 11
5789.85767
 21
5150.856986
 31
0.0
  0
LINE
  8
SUNPOU
 10
4814.85767
 20
5120.856986
 30
0.0
 11
4754.85767
 21
5120.856986
 31
0.0
  0
LINE
  8
SUNPOU
 10
4889.85767
 20
5120.856986
 30
0.0
 11
4949.85767
 21
5120.856986
 31
0.0
  0
TEXT
  8
SUNPOU
 10
4809.500541
 20
5165.856986
 30
0.0
 40
45.0
  1
75
  7
K
 72
     1
 11
4852.357684
 21
5165.856986
 31
0.0
  0
INSERT
  8
SUNPOU
  2
ARROWANG
 10
4814.85767
 20
5120.856986
 30
0.0
 41
30.0
 42
30.0
 43
30.0
  0
INSERT
  8
SUNPOU
  2
ARROWANG
 10
4889.85767
 20
5120.856986
 30
0.0
 41
30.0
 42
30.0
 50
180.0
 43
30.0
  0
LINE
  8
SUNPOU
 10
4814.85767
 20
5120.856986
 30
0.0
 11
4889.85767
 21
5120.856986
 31
0.0
  0
LINE
  8
SUNPOU
 10
4889.85767
 20
4827.856986
 30
0.0
 11
4889.85767
 21
5150.856986
 31
0.0
  0
LINE
  8
SUNPOU
 10
4814.85767
 20
5150.856986
 30
0.0
 11
4814.85767
 21
5150.856986
 31
0.0
  0
TEXT
  8
SUNPOU
 10
5250.929098
 20
5315.856986
 30
0.0
 40
45.0
  1
1050
  7
K
 72
     1
 11
5339.85767
 21
5315.856986
 31
0.0
  0
INSERT
  8
SUNPOU
  2
ARROWANG
 10
4814.85767
 20
5270.856986
 30
0.0
 41
30.0
 42
30.0
 50
180.0
 43
30.0
  0
INSERT
  8
SUNPOU
  2
ARROWANG
 10
5864.85767
 20
5270.856986
 30
0.0
 41
30.0
 42
30.0
 43
30.0
  0
LINE
  8
SUNPOU
 10
4814.85767
 20
5270.856986
 30
0.0
 11
5864.85767
 21
5270.856986
 31
0.0
  0
LINE
  8
SUNPOU
 10
5864.85767
 20
4850.856986
 30
0.0
 11
5864.85767
 21
5300.856986
 31
0.0
  0
LINE
  8
SUNPOU
 10
4814.85767
 20
4850.856986
 30
0.0
 11
4814.85767
 21
5300.856986
 31
0.0
  0
LINE
  8
ITTEN
 10
5189.85767
 20
4920.856986
 30
0.0
 11
5189.85767
 21
4120.856986
 31
0.0
  0
LINE
  8
JISSEN
 10
5189.85767
 20
4220.856986
 30
0.0
 11
5823.85767
 21
4220.856986
 31
0.0
  0
LINE
  8
TENSEN
 10
4855.85767
 20
4220.856986
 30
0.0
 11
5189.85767
 21
4220.856986
 31
0.0
  0
LINE
  8
JISSEN
 10
4889.85767
 20
4205.856986
 30
0.0
 11
5789.85767
 21
4205.856986
 31
0.0
  0
LINE
  8
TENSEN
 10
5189.85767
 20
4797.856986
 30
0.0
 11
5789.85767
 21
4797.856986
 31
0.0
  0
LINE
  8
JISSEN
 10
4889.85767
 20
4797.856986
 30
0.0
 11
5189.85767
 21
4797.856986
 31
0.0
  0
LINE
  8
JISSEN
 10
4855.85767
 20
4820.856986
 30
0.0
 11
5824.85767
 21
4820.856986
 31
0.0
  0
LINE
  8
JISSEN
 10
5864.85767
 20
4820.856986
 30
0.0
 11
5824.85767
 21
4820.856986
 31
0.0
  0
LINE
  8
TENSEN
 10
5824.85767
 20
4820.856986
 30
0.0
 11
5817.85767
 21
4797.856986
 31
0.0
  0
LINE
  8
TENSEN
 10
5817.85767
 20
4797.856986
 30
0.0
 11
5789.85767
 21
4797.856986
 31
0.0
  0
LINE
  8
JISSEN
 10
5864.85767
 20
4820.856986
 30
0.0
 11
5864.85767
 21
4220.856986
 31
0.0
  0
LINE
  8
JISSEN
 10
5864.85767
 20
4220.856986
 30
0.0
 11
5823.85767
 21
4220.856986
 31
0.0
  0
LINE
  8
JISSEN
 10
5823.85767
 20
4220.856986
 30
0.0
 11
5814.85767
 21
4205.856986
 31
0.0
  0
LINE
  8
JISSEN
 10
5814.85767
 20
4205.856986
 30
0.0
 11
5789.85767
 21
4205.856986
 31
0.0
  0
LINE
  8
TENSEN
 10
5789.85767
 20
4797.856986
 30
0.0
 11
5789.85767
 21
4205.856986
 31
0.0
  0
LINE
  8
JISSEN
 10
4889.85767
 20
4797.856986
 30
0.0
 11
4889.85767
 21
4205.856986
 31
0.0
  0
LINE
  8
JISSEN
 10
4864.85767
 20
4205.856986
 30
0.0
 11
4889.85767
 21
4205.856986
 31
0.0
  0
LINE
  8
JISSEN
 10
4855.85767
 20
4220.856986
 30
0.0
 11
4864.85767
 21
4205.856986
 31
0.0
  0
LINE
  8
JISSEN
 10
4814.85767
 20
4220.856986
 30
0.0
 11
4855.85767
 21
4220.856986
 31
0.0
  0
LINE
  8
JISSEN
 10
4814.85767
 20
4820.856986
 30
0.0
 11
4814.85767
 21
4220.856986
 31
0.0
  0
LINE
  8
JISSEN
 10
4861.85767
 20
4797.856986
 30
0.0
 11
4889.85767
 21
4797.856986
 31
0.0
  0
LINE
  8
JISSEN
 10
4854.85767
 20
4820.856986
 30
0.0
 11
4861.85767
 21
4797.856986
 31
0.0
  0
LINE
  8
JISSEN
 10
4814.85767
 20
4820.856986
 30
0.0
 11
4854.85767
 21
4820.856986
 31
0.0
  0
LINE
  8
ITTEN
 10
2959.206738
 20
4655.856986
 30
0.0
 11
3059.206738
 21
4655.856986
 31
0.0
  0
LINE
  8
ITTEN
 10
2959.206738
 20
4055.856986
 30
0.0
 11
3059.206738
 21
4055.856986
 31
0.0
  0
LINE
  8
ITTEN
 10
6689.85767
 20
4655.856986
 30
0.0
 11
6789.85767
 21
4655.856986
 31
0.0
  0
LINE
  8
ITTEN
 10
6689.85767
 20
4355.856986
 30
0.0
 11
6789.85767
 21
4355.856986
 31
0.0
  0
LINE
  8
SUNPOU
 10
4534.85767
 20
4220.856986
 30
0.0
 11
4534.85767
 21
4220.856986
 31
0.0
  0
LINE
  8
SUNPOU
 10
4534.85767
 20
4820.856986
 30
0.0
 11
4534.85767
 21
4820.856986
 31
0.0
  0
LINE
  8
SUNPOU
 10
4564.85767
 20
4220.856986
 30
0.0
 11
4564.85767
 21
4820.856986
 31
0.0
  0
INSERT
  8
SUNPOU
  2
ARROWANG
 10
4564.85767
 20
4220.856986
 30
0.0
 41
30.0
 42
30.0
 50
270.0
 43
30.0
  0
INSERT
  8
SUNPOU
  2
ARROWANG
 10
4564.85767
 20
4820.856986
 30
0.0
 41
30.0
 42
30.0
 50
90.0
 43
30.0
  0
TEXT
  8
SUNPOU
 10
4519.85767
 20
4455.499843
 30
0.0
 40
45.0
  1
600
 50
90.0
  7
K
 72
     1
 11
4519.85767
 21
4520.856986
 31
0.0
  0
LINE
  8
SUNPOU
 10
5009.85767
 20
4355.856986
 30
0.0
 11
5009.85767
 21
4355.856986
 31
0.0
  0
LINE
  8
SUNPOU
 10
5009.85767
 20
4655.856986
 30
0.0
 11
5009.85767
 21
4655.856986
 31
0.0
  0
LINE
  8
SUNPOU
 10
5039.85767
 20
4355.856986
 30
0.0
 11
5039.85767
 21
4655.856986
 31
0.0
  0
INSERT
  8
SUNPOU
  2
ARROWANG
 10
5039.85767
 20
4355.856986
 30
0.0
 41
30.0
 42
30.0
 50
270.0
 43
30.0
  0
INSERT
  8
SUNPOU
  2
ARROWANG
 10
5039.85767
 20
4655.856986
 30
0.0
 41
30.0
 42
30.0
 50
90.0
 43
30.0
  0
TEXT
  8
SUNPOU
 10
4994.85767
 20
4441.571272
 30
0.0
 40
45.0
  1
300
 50
90.0
  7
K
 72
     1
 11
4994.85767
 21
4505.856986
 31
0.0
  0
LINE
  8
SUNPOU
 10
5124.937474
 20
4205.856986
 30
0.0
 11
5124.937474
 21
4205.856986
 31
0.0
  0
LINE
  8
SUNPOU
 10
5124.937474
 20
4797.856986
 30
0.0
 11
5124.937474
 21
4797.856986
 31
0.0
  0
LINE
  8
SUNPOU
 10
5154.937474
 20
4205.856986
 30
0.0
 11
5154.937474
 21
4797.856986
 31
0.0
  0
INSERT
  8
SUNPOU
  2
ARROWANG
 10
5154.937474
 20
4205.856986
 30
0.0
 41
30.0
 42
30.0
 50
270.0
 43
30.0
  0
INSERT
  8
SUNPOU
  2
ARROWANG
 10
5154.937474
 20
4797.856986
 30
0.0
 41
30.0
 42
30.0
 50
90.0
 43
30.0
  0
TEXT
  8
SUNPOU
 10
5109.937474
 20
4437.571272
 30
0.0
 40
45.0
  1
592
 50
90.0
  7
K
 72
     1
 11
5109.937474
 21
4501.856986
 31
0.0
  0
LINE
  8
SUNPOU
 10
8804.827541
 20
4655.856986
 30
0.0
 11
8804.827541
 21
4655.856986
 31
0.0
  0
LINE
  8
ITTEN
 10
10584.827541
 20
4655.856986
 30
0.0
 11
10684.827541
 21
4655.856986
 31
0.0
  0
LINE
  8
JISSEN
 10
8609.827541
 20
4820.856986
 30
0.0
 11
8649.827541
 21
4820.856986
 31
0.0
  0
LINE
  8
JISSEN
 10
8649.827541
 20
4820.856986
 30
0.0
 11
8656.827541
 21
4797.856986
 31
0.0
  0
LINE
  8
JISSEN
 10
8656.827541
 20
4797.856986
 30
0.0
 11
8684.827541
 21
4797.856986
 31
0.0
  0
LINE
  8
JISSEN
 10
8609.827541
 20
4820.856986
 30
0.0
 11
8609.827541
 21
4520.856986
 31
0.0
  0
LINE
  8
JISSEN
 10
8609.827541
 20
4520.856986
 30
0.0
 11
8650.827541
 21
4520.856986
 31
0.0
  0
LINE
  8
JISSEN
 10
8650.827541
 20
4520.856986
 30
0.0
 11
8659.827541
 21
4505.856986
 31
0.0
  0
LINE
  8
JISSEN
 10
8659.827541
 20
4505.856986
 30
0.0
 11
8684.827541
 21
4505.856986
 31
0.0
  0
LINE
  8
JISSEN
 10
8684.827541
 20
4797.856986
 30
0.0
 11
8684.827541
 21
4505.856986
 31
0.0
  0
LINE
  8
TENSEN
 10
9584.827541
 20
4797.856986
 30
0.0
 11
9584.827541
 21
4505.856986
 31
0.0
  0
LINE
  8
JISSEN
 10
9609.827541
 20
4505.856986
 30
0.0
 11
9584.827541
 21
4505.856986
 31
0.0
  0
LINE
  8
JISSEN
 10
9618.827541
 20
4520.856986
 30
0.0
 11
9609.827541
 21
4505.856986
 31
0.0
  0
LINE
  8
JISSEN
 10
9659.827541
 20
4520.856986
 30
0.0
 11
9618.827541
 21
4520.856986
 31
0.0
  0
LINE
  8
JISSEN
 10
9659.827541
 20
4820.856986
 30
0.0
 11
9659.827541
 21
4520.856986
 31
0.0
  0
LINE
  8
TENSEN
 10
9612.827541
 20
4797.856986
 30
0.0
 11
9584.827541
 21
4797.856986
 31
0.0
  0
LINE
  8
TENSEN
 10
9619.827541
 20
4820.856986
 30
0.0
 11
9612.827541
 21
4797.856986
 31
0.0
  0
LINE
  8
JISSEN
 10
9659.827541
 20
4820.856986
 30
0.0
 11
9619.827541
 21
4820.856986
 31
0.0
  0
LINE
  8
JISSEN
 10
8650.827541
 20
4820.856986
 30
0.0
 11
9619.827541
 21
4820.856986
 31
0.0
  0
LINE
  8
JISSEN
 10
8684.827541
 20
4797.856986
 30
0.0
 11
8984.827541
 21
4797.856986
 31
0.0
  0
LINE
  8
TENSEN
 10
8984.827541
 20
4797.856986
 30
0.0
 11
9584.827541
 21
4797.856986
 31
0.0
  0
LINE
  8
JISSEN
 10
8684.827541
 20
4505.856986
 30
0.0
 11
9584.827541
 21
4505.856986
 31
0.0
  0
LINE
  8
TENSEN
 10
8650.827541
 20
4520.856986
 30
0.0
 11
8984.827541
 21
4520.856986
 31
0.0
  0
LINE
  8
JISSEN
 10
8984.827541
 20
4520.856986
 30
0.0
 11
9618.827541
 21
4520.856986
 31
0.0
  0
LINE
  8
ITTEN
 10
8984.827541
 20
4920.856986
 30
0.0
 11
8984.827541
 21
4420.856986
 31
0.0
  0
LINE
  8
SUNPOU
 10
8609.827541
 20
4850.856986
 30
0.0
 11
8609.827541
 21
5300.856986
 31
0.0
  0
LINE
  8
SUNPOU
 10
9659.827541
 20
4850.856986
 30
0.0
 11
9659.827541
 21
5300.856986
 31
0.0
  0
LINE
  8
SUNPOU
 10
8609.827541
 20
5270.856986
 30
0.0
 11
9659.827541
 21
5270.856986
 31
0.0
  0
INSERT
  8
SUNPOU
  2
ARROWANG
 10
9659.827541
 20
5270.856986
 30
0.0
 41
30.0
 42
30.0
 43
30.0
  0
INSERT
  8
SUNPOU
  2
ARROWANG
 10
8609.827541
 20
5270.856986
 30
0.0
 41
30.0
 42
30.0
 50
180.0
 43
30.0
  0
TEXT
  8
SUNPOU
 10
9045.898969
 20
5315.856986
 30
0.0
 40
45.0
  1
1050
  7
K
 72
     1
 11
9134.827541
 21
5315.856986
 31
0.0
  0
LINE
  8
SUNPOU
 10
8609.827541
 20
5150.856986
 30
0.0
 11
8609.827541
 21
5150.856986
 31
0.0
  0
LINE
  8
SUNPOU
 10
8684.827541
 20
4827.856986
 30
0.0
 11
8684.827541
 21
5150.856986
 31
0.0
  0
LINE
  8
SUNPOU
 10
8609.827541
 20
5120.856986
 30
0.0
 11
8684.827541
 21
5120.856986
 31
0.0
  0
INSERT
  8
SUNPOU
  2
ARROWANG
 10
8684.827541
 20
5120.856986
 30
0.0
 41
30.0
 42
30.0
 50
180.0
 43
30.0
  0
INSERT
  8
SUNPOU
  2
ARROWANG
 10
8609.827541
 20
5120.856986
 30
0.0
 41
30.0
 42
30.0
 43
30.0
  0
TEXT
  8
SUNPOU
 10
8604.470413
 20
5165.856986
 30
0.0
 40
45.0
  1
75
  7
K
 72
     1
 11
8647.327556
 21
5165.856986
 31
0.0
  0
LINE
  8
SUNPOU
 10
8684.827541
 20
5120.856986
 30
0.0
 11
8744.827541
 21
5120.856986
 31
0.0
  0
LINE
  8
SUNPOU
 10
8609.827541
 20
5120.856986
 30
0.0
 11
8549.827541
 21
5120.856986
 31
0.0
  0
LINE
  8
SUNPOU
 10
9584.827541
 20
4827.856986
 30
0.0
 11
9584.827541
 21
5150.856986
 31
0.0
  0
LINE
  8
SUNPOU
 10
9659.827541
 20
5150.856986
 30
0.0
 11
9659.827541
 21
5150.856986
 31
0.0
  0
LINE
  8
SUNPOU
 10
9584.827541
 20
5120.856986
 30
0.0
 11
9659.827541
 21
5120.856986
 31
0.0
  0
INSERT
  8
SUNPOU
  2
ARROWANG
 10
9659.827541
 20
5120.856986
 30
0.0
 41
30.0
 42
30.0
 50
180.0
 43
30.0
  0
INSERT
  8
SUNPOU
  2
ARROWANG
 10
9584.827541
 20
5120.856986
 30
0.0
 41
30.0
 42
30.0
 43
30.0
  0
TEXT
  8
SUNPOU
 10
9579.470398
 20
5165.856986
 30
0.0
 40
45.0
  1
75
  7
K
 72
     1
 11
9622.327541
 21
5165.856986
 31
0.0
  0
LINE
  8
SUNPOU
 10
9659.827541
 20
5120.856986
 30
0.0
 11
9719.827541
 21
5120.856986
 31
0.0
  0
LINE
  8
SUNPOU
 10
9584.827541
 20
5120.856986
 30
0.0
 11
9524.827541
 21
5120.856986
 31
0.0
  0
LINE
  8
SUNPOU
 10
8684.827541
 20
5090.856986
 30
0.0
 11
8684.827541
 21
5090.856986
 31
0.0
  0
LINE
  8
SUNPOU
 10
9584.827541
 20
5090.856986
 30
0.0
 11
9584.827541
 21
5090.856986
 31
0.0
  0
LINE
  8
SUNPOU
 10
8684.827541
 20
5120.856986
 30
0.0
 11
9584.827541
 21
5120.856986
 31
0.0
  0
INSERT
  8
SUNPOU
  2
ARROWANG
 10
8684.827541
 20
5120.856986
 30
0.0
 41
30.0
 42
30.0
 50
180.0
 43
30.0
  0
INSERT
  8
SUNPOU
  2
ARROWANG
 10
9584.827541
 20
5120.856986
 30
0.0
 41
30.0
 42
30.0
 43
30.0
  0
TEXT
  8
SUNPOU
 10
9070.541841
 20
5165.856986
 30
0.0
 40
45.0
  1
900
  7
K
 72
     1
 11
9134.827556
 21
5165.856986
 31
0.0
  0
LINE
  8
SUNPOU
 10
8684.827541
 20
5000.856986
 30
0.0
 11
8684.827541
 21
5000.856986
 31
0.0
  0
LINE
  8
SUNPOU
 10
8984.827541
 20
4850.856986
 30
0.0
 11
8984.827541
 21
5000.856986
 31
0.0
  0
LINE
  8
SUNPOU
 10
8684.827541
 20
4970.856986
 30
0.0
 11
8984.827541
 21
4970.856986
 31
0.0
  0
INSERT
  8
SUNPOU
  2
ARROWANG
 10
8984.827541
 20
4970.856986
 30
0.0
 41
30.0
 42
30.0
 43
30.0
  0
INSERT
  8
SUNPOU
  2
ARROWANG
 10
8684.827541
 20
4970.856986
 30
0.0
 41
30.0
 42
30.0
 50
180.0
 43
30.0
  0
TEXT
  8
SUNPOU
 10
8770.541827
 20
5015.856986
 30
0.0
 40
45.0
  1
300
  7
K
 72
     1
 11
8834.827541
 21
5015.856986
 31
0.0
  0
LINE
  8
SUNPOU
 10
8984.827541
 20
4940.856986
 30
0.0
 11
8984.827541
 21
4940.856986
 31
0.0
  0
LINE
  8
SUNPOU
 10
9584.827541
 20
4940.856986
 30
0.0
 11
9584.827541
 21
4940.856986
 31
0.0
  0
LINE
  8
SUNPOU
 10
8984.827541
 20
4970.856986
 30
0.0
 11
9584.827541
 21
4970.856986
 31
0.0
  0
INSERT
  8
SUNPOU
  2
ARROWANG
 10
8984.827541
 20
4970.856986
 30
0.0
 41
30.0
 42
30.0
 50
180.0
 43
30.0
  0
INSERT
  8
SUNPOU
  2
ARROWANG
 10
9584.827541
 20
4970.856986
 30
0.0
 41
30.0
 42
30.0
 43
30.0
  0
TEXT
  8
SUNPOU
 10
9219.470413
 20
5015.856986
 30
0.0
 40
45.0
  1
600
  7
K
 72
     1
 11
9284.827556
 21
5015.856986
 31
0.0
  0
LINE
  8
SUNPOU
 10
8579.827541
 20
4520.856986
 30
0.0
 11
8329.827541
 21
4520.856986
 31
0.0
  0
LINE
  8
SUNPOU
 10
8579.827541
 20
4820.856986
 30
0.0
 11
8329.827541
 21
4820.856986
 31
0.0
  0
LINE
  8
SUNPOU
 10
8626.827541
 20
4797.856986
 30
0.0
 11
8479.827541
 21
4797.856986
 31
0.0
  0
LINE
  8
SUNPOU
 10
8539.827541
 20
4820.856986
 30
0.0
 11
8539.827541
 21
4820.856986
 31
0.0
  0
INSERT
  8
SUNPOU
  2
ARROWANG
 10
8509.827541
 20
4797.856986
 30
0.0
 41
30.0
 42
30.0
 50
90.0
 43
30.0
  0
INSERT
  8
SUNPOU
  2
ARROWANG
 10
8509.827541
 20
4820.856986
 30
0.0
 41
30.0
 42
30.0
 50
270.0
 43
30.0
  0
LINE
  8
SUNPOU
 10
8509.827541
 20
4797.856986
 30
0.0
 11
8509.827541
 21
4998.856986
 31
0.0
  0
LINE
  8
SUNPOU
 10
8509.827541
 20
4820.856986
 30
0.0
 11
8509.827541
 21
4880.856986
 31
0.0
  0
TEXT
  8
SUNPOU
 10
8464.827541
 20
4705.499843
 30
0.0
 40
45.0
  1
23
 50
90.0
  7
K
 72
     1
 11
8464.827541
 21
4748.356986
 31
0.0
  0
LINE
  8
SUNPOU
 10
8629.827541
 20
4505.856986
 30
0.0
 11
8479.827541
 21
4505.856986
 31
0.0
  0
LINE
  8
SUNPOU
 10
8539.827541
 20
4520.856986
 30
0.0
 11
8539.827541
 21
4520.856986
 31
0.0
  0
INSERT
  8
SUNPOU
  2
ARROWANG
 10
8509.827541
 20
4505.856986
 30
0.0
 41
30.0
 42
30.0
 50
90.0
 43
30.0
  0
INSERT
  8
SUNPOU
  2
ARROWANG
 10
8509.827541
 20
4520.856986
 30
0.0
 41
30.0
 42
30.0
 50
270.0
 43
30.0
  0
LINE
  8
SUNPOU
 10
8509.827541
 20
4520.856986
 30
0.0
 11
8509.827541
 21
4619.856986
 31
0.0
  0
LINE
  8
SUNPOU
 10
8509.827541
 20
4505.856986
 30
0.0
 11
8509.827542
 21
4445.856986
 31
0.0
  0
TEXT
  8
SUNPOU
 10
8464.827541
 20
4524.285557
 30
0.0
 40
45.0
  1
15
 50
90.0
  7
K
 72
     1
 11
8464.827541
 21
4570.356986
 31
0.0
  0
ARC
  8
JISSEN
 10
8784.827541
 20
4655.856986
 30
0.0
 40
12.5
 50
270.0
 51
90.0
  0
LINE
  8
JISSEN
 10
8684.827541
 20
4668.356986
 30
0.0
 11
8784.827541
 21
4668.356986
 31
0.0
  0
LINE
  8
JISSEN
 10
8784.827541
 20
4643.356986
 30
0.0
 11
8684.827541
 21
4643.356986
 31
0.0
  0
LINE
  8
ITTEN
 10
8584.827541
 20
4655.856986
 30
0.0
 11
8851.051818
 21
4655.856986
 31
0.0
  0
LINE
  8
SUNPOU
 10
8804.827541
 20
4505.856986
 30
0.0
 11
8804.827541
 21
4505.856986
 31
0.0
  0
LINE
  8
SUNPOU
 10
8804.827541
 20
4655.856986
 30
0.0
 11
8804.827541
 21
4655.856986
 31
0.0
  0
LINE
  8
SUNPOU
 10
8834.827541
 20
4505.856986
 30
0.0
 11
8834.827541
 21
4655.856986
 31
0.0
  0
INSERT
  8
SUNPOU
  2
ARROWANG
 10
8834.827541
 20
4505.856986
 30
0.0
 41
30.0
 42
30.0
 50
270.0
 43
30.0
  0
INSERT
  8
SUNPOU
  2
ARROWANG
 10
8834.827541
 20
4655.856986
 30
0.0
 41
30.0
 42
30.0
 50
90.0
 43
30.0
  0
TEXT
  8
SUNPOU
 10
8789.827541
 20
4513.356986
 30
0.0
 40
45.0
  1
150
 50
90.0
  7
K
 72
     1
 11
8789.827541
 21
4580.856986
 31
0.0
  0
LINE
  8
SUNPOU
 10
8964.827541
 20
4505.856986
 30
0.0
 11
8979.907346
 21
4505.856986
 31
0.0
  0
LINE
  8
SUNPOU
 10
8964.827541
 20
4797.856986
 30
0.0
 11
8979.907346
 21
4797.856986
 31
0.0
  0
LINE
  8
SUNPOU
 10
10764.827541
 20
4797.856986
 30
0.0
 11
10779.907346
 21
4797.856986
 31
0.0
  0
LINE
  8
SUNPOU
 10
10764.827541
 20
4505.856986
 30
0.0
 11
10779.907346
 21
4505.856986
 31
0.0
  0
LINE
  8
SUNPOU
 10
10604.827541
 20
4505.856986
 30
0.0
 11
10604.827541
 21
4505.856986
 31
0.0
  0
LINE
  8
JISSEN
 10
10784.827541
 20
4520.856986
 30
0.0
 11
11118.827541
 21
4520.856986
 31
0.0
  0
LINE
  8
TENSEN
 10
10450.827541
 20
4520.856986
 30
0.0
 11
10784.827541
 21
4520.856986
 31
0.0
  0
LINE
  8
JISSEN
 10
10484.827541
 20
4505.856986
 30
0.0
 11
11084.827541
 21
4505.856986
 31
0.0
  0
LINE
  8
TENSEN
 10
10784.827541
 20
4797.856986
 30
0.0
 11
11084.827541
 21
4797.856986
 31
0.0
  0
LINE
  8
JISSEN
 10
10484.827541
 20
4797.856986
 30
0.0
 11
10784.827541
 21
4797.856986
 31
0.0
  0
LINE
  8
JISSEN
 10
10450.827541
 20
4820.856986
 30
0.0
 11
11119.827541
 21
4820.856986
 31
0.0
  0
LINE
  8
JISSEN
 10
11159.827541
 20
4820.856986
 30
0.0
 11
11119.827541
 21
4820.856986
 31
0.0
  0
LINE
  8
TENSEN
 10
11119.827541
 20
4820.856986
 30
0.0
 11
11112.827541
 21
4797.856986
 31
0.0
  0
LINE
  8
TENSEN
 10
11112.827541
 20
4797.856986
 30
0.0
 11
11084.827541
 21
4797.856986
 31
0.0
  0
LINE
  8
JISSEN
 10
11159.827541
 20
4820.856986
 30
0.0
 11
11159.827541
 21
4520.856986
 31
0.0
  0
LINE
  8
JISSEN
 10
11159.827541
 20
4520.856986
 30
0.0
 11
11118.827541
 21
4520.856986
 31
0.0
  0
LINE
  8
JISSEN
 10
11118.827541
 20
4520.856986
 30
0.0
 11
11109.827541
 21
4505.856986
 31
0.0
  0
LINE
  8
JISSEN
 10
11109.827541
 20
4505.856986
 30
0.0
 11
11084.827541
 21
4505.856986
 31
0.0
  0
LINE
  8
TENSEN
 10
11084.827541
 20
4797.856986
 30
0.0
 11
11084.827541
 21
4505.856986
 31
0.0
  0
LINE
  8
JISSEN
 10
10484.827541
 20
4797.856986
 30
0.0
 11
10484.827541
 21
4505.856986
 31
0.0
  0
LINE
  8
JISSEN
 10
10459.827541
 20
4505.856986
 30
0.0
 11
10484.827541
 21
4505.856986
 31
0.0
  0
LINE
  8
JISSEN
 10
10450.827541
 20
4520.856986
 30
0.0
 11
10459.827541
 21
4505.856986
 31
0.0
  0
LINE
  8
JISSEN
 10
10409.827541
 20
4520.856986
 30
0.0
 11
10450.827541
 21
4520.856986
 31
0.0
  0
LINE
  8
JISSEN
 10
10409.827541
 20
4820.856986
 30
0.0
 11
10409.827541
 21
4520.856986
 31
0.0
  0
LINE
  8
JISSEN
 10
10456.827541
 20
4797.856986
 30
0.0
 11
10484.827541
 21
4797.856986
 31
0.0
  0
LINE
  8
JISSEN
 10
10449.827541
 20
4820.856986
 30
0.0
 11
10456.827541
 21
4797.856986
 31
0.0
  0
LINE
  8
JISSEN
 10
10409.827541
 20
4820.856986
 30
0.0
 11
10449.827541
 21
4820.856986
 31
0.0
  0
LINE
  8
SUNPOU
 10
10409.827541
 20
4850.856986
 30
0.0
 11
10409.827541
 21
5150.856986
 31
0.0
  0
LINE
  8
SUNPOU
 10
11159.827541
 20
4850.856986
 30
0.0
 11
11159.827541
 21
5150.856986
 31
0.0
  0
LINE
  8
SUNPOU
 10
10409.827541
 20
5120.856986
 30
0.0
 11
11159.827541
 21
5120.856986
 31
0.0
  0
INSERT
  8
SUNPOU
  2
ARROWANG
 10
11159.827541
 20
5120.856986
 30
0.0
 41
30.0
 42
30.0
 43
30.0
  0
INSERT
  8
SUNPOU
  2
ARROWANG
 10
10409.827541
 20
5120.856986
 30
0.0
 41
30.0
 42
30.0
 50
180.0
 43
30.0
  0
TEXT
  8
SUNPOU
 10
10720.541827
 20
5165.856986
 30
0.0
 40
45.0
  1
750
  7
K
 72
     1
 11
10784.827541
 21
5165.856986
 31
0.0
  0
LINE
  8
SUNPOU
 10
10409.827541
 20
5000.856986
 30
0.0
 11
10409.827541
 21
5000.856986
 31
0.0
  0
LINE
  8
SUNPOU
 10
10484.827541
 20
4827.856986
 30
0.0
 11
10484.827541
 21
5000.856986
 31
0.0
  0
LINE
  8
SUNPOU
 10
10409.827541
 20
4970.856986
 30
0.0
 11
10484.827541
 21
4970.856986
 31
0.0
  0
INSERT
  8
SUNPOU
  2
ARROWANG
 10
10484.827541
 20
4970.856986
 30
0.0
 41
30.0
 42
30.0
 50
180.0
 43
30.0
  0
INSERT
  8
SUNPOU
  2
ARROWANG
 10
10409.827541
 20
4970.856986
 30
0.0
 41
30.0
 42
30.0
 43
30.0
  0
TEXT
  8
SUNPOU
 10
10404.470413
 20
5015.856986
 30
0.0
 40
45.0
  1
75
  7
K
 72
     1
 11
10447.327556
 21
5015.856986
 31
0.0
  0
LINE
  8
SUNPOU
 10
10484.827541
 20
4970.856986
 30
0.0
 11
10544.827541
 21
4970.856986
 31
0.0
  0
LINE
  8
SUNPOU
 10
10409.827541
 20
4970.856986
 30
0.0
 11
10349.827541
 21
4970.856986
 31
0.0
  0
LINE
  8
SUNPOU
 10
11084.827541
 20
4827.856986
 30
0.0
 11
11084.827541
 21
5000.856986
 31
0.0
  0
LINE
  8
SUNPOU
 10
11159.827541
 20
5000.856986
 30
0.0
 11
11159.827541
 21
5000.856986
 31
0.0
  0
LINE
  8
SUNPOU
 10
11084.827541
 20
4970.856986
 30
0.0
 11
11159.827541
 21
4970.856986
 31
0.0
  0
INSERT
  8
SUNPOU
  2
ARROWANG
 10
11159.827541
 20
4970.856986
 30
0.0
 41
30.0
 42
30.0
 50
180.0
 43
30.0
  0
INSERT
  8
SUNPOU
  2
ARROWANG
 10
11084.827541
 20
4970.856986
 30
0.0
 41
30.0
 42
30.0
 43
30.0
  0
TEXT
  8
SUNPOU
 10
11079.470413
 20
5015.856986
 30
0.0
 40
45.0
  1
75
  7
K
 72
     1
 11
11122.327556
 21
5015.856986
 31
0.0
  0
LINE
  8
SUNPOU
 10
11159.827541
 20
4970.856986
 30
0.0
 11
11219.827541
 21
4970.856986
 31
0.0
  0
LINE
  8
SUNPOU
 10
11084.827541
 20
4970.856986
 30
0.0
 11
11024.827541
 21
4970.856986
 31
0.0
  0
LINE
  8
SUNPOU
 10
10484.827541
 20
4940.856986
 30
0.0
 11
10484.827541
 21
4940.856986
 31
0.0
  0
LINE
  8
SUNPOU
 10
11084.827541
 20
4940.856986
 30
0.0
 11
11084.827541
 21
4940.856986
 31
0.0
  0
LINE
  8
SUNPOU
 10
10484.827541
 20
4970.856986
 30
0.0
 11
11084.827541
 21
4970.856986
 31
0.0
  0
INSERT
  8
SUNPOU
  2
ARROWANG
 10
10484.827541
 20
4970.856986
 30
0.0
 41
30.0
 42
30.0
 50
180.0
 43
30.0
  0
INSERT
  8
SUNPOU
  2
ARROWANG
 10
11084.827541
 20
4970.856986
 30
0.0
 41
30.0
 42
30.0
 43
30.0
  0
TEXT
  8
SUNPOU
 10
10719.470413
 20
5015.856986
 30
0.0
 40
45.0
  1
600
  7
K
 72
     1
 11
10784.827556
 21
5015.856986
 31
0.0
  0
LINE
  8
ITTEN
 10
10784.827541
 20
4920.856986
 30
0.0
 11
10784.827541
 21
4420.856986
 31
0.0
  0
ARC
  8
TENSEN
 10
10921.327541
 20
4655.856986
 30
0.0
 40
12.5
 50
270.0
 51
90.0
  0
ARC
  8
JISSEN
 10
10648.327541
 20
4655.856986
 30
0.0
 40
12.5
 50
90.0
 51
270.0
  0
LINE
  8
JISSEN
 10
10648.327541
 20
4668.356986
 30
0.0
 11
10784.827541
 21
4668.356986
 31
0.0
  0
LINE
  8
TENSEN
 10
10784.827541
 20
4668.356986
 30
0.0
 11
10921.327541
 21
4668.356986
 31
0.0
  0
LINE
  8
TENSEN
 10
10921.327541
 20
4643.356986
 30
0.0
 11
10784.827541
 21
4643.356986
 31
0.0
  0
LINE
  8
JISSEN
 10
10784.827541
 20
4643.356986
 30
0.0
 11
10648.327541
 21
4643.356986
 31
0.0
  0
LINE
  8
ITTEN
 10
10584.827541
 20
4655.856986
 30
0.0
 11
10984.827541
 21
4655.856986
 31
0.0
  0
CIRCLE
  8
JISSEN
 10
9074.827541
 20
4720.856986
 30
0.0
 40
10.0
  0
CIRCLE
  8
JISSEN
 10
9074.827541
 20
4620.856986
 30
0.0
 40
10.0
  0
LINE
  8
ITTEN
 10
9074.827541
 20
4650.856986
 30
0.0
 11
9074.827541
 21
4590.856986
 31
0.0
  0
LINE
  8
ITTEN
 10
9104.827541
 20
4620.856986
 30
0.0
 11
9044.827541
 21
4620.856986
 31
0.0
  0
LINE
  8
JISSEN
 10
10409.827541
 20
4730.856986
 30
0.0
 11
10459.827541
 21
4730.856986
 31
0.0
  0
LINE
  8
JISSEN
 10
10459.827541
 20
4730.856986
 30
0.0
 11
10459.827541
 21
4710.856986
 31
0.0
  0
LINE
  8
JISSEN
 10
10459.827541
 20
4710.856986
 30
0.0
 11
10409.827541
 21
4710.856986
 31
0.0
  0
LINE
  8
JISSEN
 10
10409.827541
 20
4630.856986
 30
0.0
 11
10459.827541
 21
4630.856986
 31
0.0
  0
LINE
  8
JISSEN
 10
10459.827541
 20
4630.856986
 30
0.0
 11
10459.827541
 21
4610.856986
 31
0.0
  0
LINE
  8
JISSEN
 10
10459.827541
 20
4610.856986
 30
0.0
 11
10409.827541
 21
4610.856986
 31
0.0
  0
LINE
  8
TENSEN
 10
11159.827541
 20
4610.856986
 30
0.0
 11
11109.827541
 21
4610.856986
 31
0.0
  0
LINE
  8
TENSEN
 10
11109.827541
 20
4610.856986
 30
0.0
 11
11109.827541
 21
4630.856986
 31
0.0
  0
LINE
  8
TENSEN
 10
11109.827541
 20
4630.856986
 30
0.0
 11
11159.827541
 21
4630.856986
 31
0.0
  0
LINE
  8
TENSEN
 10
11159.827541
 20
4730.856986
 30
0.0
 11
11109.827541
 21
4730.856986
 31
0.0
  0
LINE
  8
TENSEN
 10
11109.827541
 20
4730.856986
 30
0.0
 11
11109.827541
 21
4710.856986
 31
0.0
  0
LINE
  8
TENSEN
 10
11109.827541
 20
4710.856986
 30
0.0
 11
11159.827541
 21
4710.856986
 31
0.0
  0
LINE
  8
ITTEN
 10
10359.827541
 20
4720.856986
 30
0.0
 11
10534.827541
 21
4720.856986
 31
0.0
  0
LINE
  8
ITTEN
 10
11209.827541
 20
4620.856986
 30
0.0
 11
11034.827541
 21
4620.856986
 31
0.0
  0
LINE
  8
ITTEN
 10
11034.827541
 20
4720.856986
 30
0.0
 11
11209.827541
 21
4720.856986
 31
0.0
  0
LINE
  8
ITTEN
 10
10534.827541
 20
4620.856986
 30
0.0
 11
10359.827541
 21
4620.856986
 31
0.0
  0
LINE
  8
SUNPOU
 10
9134.827541
 20
4720.856986
 30
0.0
 11
9254.827541
 21
4720.856986
 31
0.0
  0
LINE
  8
SUNPOU
 10
9254.827541
 20
4820.856986
 30
0.0
 11
9254.827541
 21
4820.856986
 31
0.0
  0
INSERT
  8
SUNPOU
  2
ARROWANG
 10
9224.827541
 20
4720.856986
 30
0.0
 41
30.0
 42
30.0
 50
90.0
 43
30.0
  0
INSERT
  8
SUNPOU
  2
ARROWANG
 10
9224.827541
 20
4820.856986
 30
0.0
 41
30.0
 42
30.0
 50
270.0
 43
30.0
  0
LINE
  8
SUNPOU
 10
9224.827541
 20
4820.856986
 30
0.0
 11
9224.827541
 21
4969.356986
 31
0.0
  0
LINE
  8
SUNPOU
 10
9224.827541
 20
4720.856986
 30
0.0
 11
9224.827542
 21
4660.856986
 31
0.0
  0
TEXT
  8
SUNPOU
 10
9179.827541
 20
4827.606986
 30
0.0
 40
45.0
  1
100
 50
90.0
  7
K
 72
     1
 11
9179.827541
 21
4895.106986
 31
0.0
  0
LINE
  8
SUNPOU
 10
9254.827541
 20
4520.856986
 30
0.0
 11
9254.827541
 21
4520.856986
 31
0.0
  0
LINE
  8
SUNPOU
 10
9134.827541
 20
4620.856986
 30
0.0
 11
9254.827541
 21
4620.856986
 31
0.0
  0
INSERT
  8
SUNPOU
  2
ARROWANG
 10
9224.827541
 20
4520.856986
 30
0.0
 41
30.0
 42
30.0
 50
90.0
 43
30.0
  0
INSERT
  8
SUNPOU
  2
ARROWANG
 10
9224.827541
 20
4620.856986
 30
0.0
 41
30.0
 42
30.0
 50
270.0
 43
30.0
  0
LINE
  8
SUNPOU
 10
9224.827541
 20
4520.856986
 30
0.0
 11
9224.827541
 21
4372.356986
 31
0.0
  0
LINE
  8
SUNPOU
 10
9224.827541
 20
4620.856986
 30
0.0
 11
9224.827541
 21
4680.856986
 31
0.0
  0
TEXT
  8
SUNPOU
 10
9179.827541
 20
4379.106986
 30
0.0
 40
45.0
  1
100
 50
90.0
  7
K
 72
     1
 11
9179.827541
 21
4446.606986
 31
0.0
  0
LINE
  8
SUNPOU
 10
8919.907346
 20
4505.856986
 30
0.0
 11
8919.907346
 21
4505.856986
 31
0.0
  0
LINE
  8
SUNPOU
 10
8919.907346
 20
4797.856986
 30
0.0
 11
8919.907346
 21
4797.856986
 31
0.0
  0
LINE
  8
SUNPOU
 10
8949.907346
 20
4505.856986
 30
0.0
 11
8949.907346
 21
4797.856986
 31
0.0
  0
INSERT
  8
SUNPOU
  2
ARROWANG
 10
8949.907346
 20
4505.856986
 30
0.0
 41
30.0
 42
30.0
 50
270.0
 43
30.0
  0
INSERT
  8
SUNPOU
  2
ARROWANG
 10
8949.907346
 20
4797.856986
 30
0.0
 41
30.0
 42
30.0
 50
90.0
 43
30.0
  0
TEXT
  8
SUNPOU
 10
8904.907346
 20
4587.571272
 30
0.0
 40
45.0
  1
292
 50
90.0
  7
K
 72
     1
 11
8904.907346
 21
4651.856986
 31
0.0
  0
LINE
  8
ITTEN
 10
9074.827541
 20
4750.856986
 30
0.0
 11
9074.827541
 21
4690.856986
 31
0.0
  0
LINE
  8
ITTEN
 10
9104.827541
 20
4720.856986
 30
0.0
 11
9044.827541
 21
4720.856986
 31
0.0
  0
LINE
  8
SUNPOU
 10
8329.827541
 20
4520.856986
 30
0.0
 11
8329.827541
 21
4520.856986
 31
0.0
  0
LINE
  8
SUNPOU
 10
8329.827541
 20
4820.856986
 30
0.0
 11
8329.827541
 21
4820.856986
 31
0.0
  0
LINE
  8
SUNPOU
 10
8359.827541
 20
4520.856986
 30
0.0
 11
8359.827541
 21
4820.856986
 31
0.0
  0
INSERT
  8
SUNPOU
  2
ARROWANG
 10
8359.827541
 20
4520.856986
 30
0.0
 41
30.0
 42
30.0
 50
270.0
 43
30.0
  0
INSERT
  8
SUNPOU
  2
ARROWANG
 10
8359.827541
 20
4820.856986
 30
0.0
 41
30.0
 42
30.0
 50
90.0
 43
30.0
  0
TEXT
  8
SUNPOU
 10
8314.827541
 20
4606.571272
 30
0.0
 40
45.0
  1
300
 50
90.0
  7
K
 72
     1
 11
8314.827541
 21
4670.856986
 31
0.0
  0
LINE
  8
TENSEN
 10
1539.206738
 20
2695.856986
 30
0.0
 11
1539.206738
 21
2655.856986
 31
0.0
  0
LINE
  8
TENSEN
 10
1559.206738
 20
2695.856986
 30
0.0
 11
1559.206738
 21
2655.856986
 31
0.0
  0
INSERT
  8
HATCH
  2
*X2
 10
0.0
 20
0.0
 30
0.0
  0
INSERT
  8
HATCH
  2
*X3
 10
0.0
 20
0.0
 30
0.0
  0
INSERT
  8
HATCH
  2
STDGX5
 10
0.0
 20
0.0
 30
0.0
  0
LINE
  8
ITTEN
 10
1549.206738
 20
2715.856986
 30
0.0
 11
1549.206738
 21
2635.856986
 31
0.0
  0
LINE
  8
ITTEN
 10
1549.206738
 20
3425.856986
 30
0.0
 11
1549.206738
 21
3345.856986
 31
0.0
  0
TEXT
  8
TEXT
 10
5897.4562
 20
6737.53282
 30
0.0
 40
240.0
  1
直壁
  7
K
  0
TEXT
  8
TEXT
 10
1762.84921
 20
5464.008777
 30
0.0
 40
150.0
  1
MA1S90
  7
K
  0
TEXT
  8
TEXT
 10
5502.331881
 20
5453.983082
 30
0.0
 40
150.0
  1
MA1S60
  7
K
  0
TEXT
  8
TEXT
 10
9298.373273
 20
5469.285459
 30
0.0
 40
150.0
  1
MA1S30
  7
K
  0
TEXT
  8
JISSEN
 10
2547.12794
 20
7732.929112
 30
0.0
 40
300.0
  1
組立マンホール構造図
  7
K
  0
TEXT
  8
TEXT
 10
6551.973397
 20
7755.824135
 30
0.0
 40
240.0
  1
( 600 x 900 方円形 )
  7
K
  0
POLYLINE
  8
WAKU
 66
     1
 10
0.0
 20
0.0
 30
0.0
 70
     1
  0
VERTEX
  8
WAKU
 10
0.0
 20
0.0
 30
0.0
  0
VERTEX
  8
WAKU
 10
11850.0
 20
0.0
 30
0.0
  0
VERTEX
  8
WAKU
 10
11850.0
 20
8190.0
 30
0.0
  0
VERTEX
  8
WAKU
 10
0.0
 20
8190.0
 30
0.0
  0
SEQEND
  8
WAKU
  0
TEXT
  8
TEXT
 10
11138.178683
 20
750.513081
 30
0.0
 40
150.0
  1
1/30
  7
K
  0
ENDSEC
  0
EOF
