  0
SECTION
  2
HEADER
  9
$ACADVER
  1
AC1009
  9
$INSBASE
 10
0.0
 20
0.0
 30
0.0
  9
$EXTMIN
 10
0.0
 20
0.0
 30
0.0
  9
$EXTMAX
 10
11850.0
 20
8190.0
 30
0.0
  9
$LIMMIN
 10
0.0
 20
0.0
  9
$LIMMAX
 10
11850.0
 20
8190.0
  9
$ORTHOMODE
 70
     0
  9
$REGENMODE
 70
     1
  9
$FILLMODE
 70
     1
  9
$QTEXTMODE
 70
     0
  9
$MIRRTEXT
 70
     0
  9
$DRAGMODE
 70
     2
  9
$LTSCALE
 40
150.0
  9
$OSMODE
 70
    33
  9
$ATTMODE
 70
     1
  9
$TEXTSIZE
 40
60.0
  9
$TRACEWID
 40
0.05
  9
$TEXTSTYLE
  7
K
  9
$CLAYER
  8
JISSEN
  9
$CELTYPE
  6
BYLAYER
  9
$CECOLOR
 62
   256
  9
$DIMSCALE
 40
30.0
  9
$DIMASZ
 40
1.5
  9
$DIMEXO
 40
1.0
  9
$DIMDLI
 40
6.0
  9
$DIMRND
 40
0.0
  9
$DIMDLE
 40
0.0
  9
$DIMEXE
 40
1.0
  9
$DIMTP
 40
495.0
  9
$DIMTM
 40
0.0
  9
$DIMTXT
 40
3.0
  9
$DIMCEN
 40
0.0
  9
$DIMTSZ
 40
0.0
  9
$DIMTOL
 70
     0
  9
$DIMLIM
 70
     0
  9
$DIMTIH
 70
     0
  9
$DIMTOH
 70
     0
  9
$DIMSE1
 70
     0
  9
$DIMSE2
 70
     0
  9
$DIMTAD
 70
     1
  9
$DIMZIN
 70
     8
  9
$DIMBLK
  1
ARROW
  9
$DIMASO
 70
     0
  9
$DIMSHO
 70
     0
  9
$DIMPOST
  1

  9
$DIMAPOST
  1

  9
$DIMALT
 70
     0
  9
$DIMALTD
 70
     2
  9
$DIMALTF
 40
25.4
  9
$DIMLFAC
 40
1.0
  9
$DIMTOFL
 70
     1
  9
$DIMTVP
 40
0.0
  9
$DIMTIX
 70
     1
  9
$DIMSOXD
 70
     0
  9
$DIMSAH
 70
     0
  9
$DIMBLK1
  1

  9
$DIMBLK2
  1

  9
$DIMSTYLE
  2
*UNNAMED
  9
$DIMCLRD
 70
     0
  9
$DIMCLRE
 70
     0
  9
$DIMCLRT
 70
     0
  9
$DIMTFAC
 40
1.0
  9
$DIMGAP
 40
0.09
  9
$LUNITS
 70
     2
  9
$LUPREC
 70
     2
  9
$AXISMODE
 70
     0
  9
$AXISUNIT
 10
100.0
 20
100.0
  9
$SKETCHINC
 40
0.1
  9
$FILLETRAD
 40
37.5
  9
$AUNITS
 70
     0
  9
$AUPREC
 70
     2
  9
$MENU
  1
G:STDGX5
  9
$ELEVATION
 40
0.0
  9
$PELEVATION
 40
0.0
  9
$THICKNESS
 40
0.0
  9
$LIMCHECK
 70
     0
  9
$BLIPMODE
 70
     1
  9
$CHAMFERA
 40
0.0
  9
$CHAMFERB
 40
0.0
  9
$SKPOLY
 70
     0
  9
$TDCREATE
 40
2450249.547974537
  9
$TDUPDATE
 40
2450249.555798611
  9
$TDINDWG
 40
0.0074768519
  9
$TDUSRTIMER
 40
0.0074768519
  9
$USRTIMER
 70
     1
  9
$ANGBASE
 50
0.0
  9
$ANGDIR
 70
     0
  9
$PDMODE
 70
     0
  9
$PDSIZE
 40
0.0
  9
$PLINEWID
 40
0.0
  9
$COORDS
 70
     2
  9
$SPLFRAME
 70
     0
  9
$SPLINETYPE
 70
     6
  9
$SPLINESEGS
 70
     8
  9
$ATTDIA
 70
     0
  9
$ATTREQ
 70
     1
  9
$HANDLING
 70
     0
  9
$HANDSEED
  5
0
  9
$SURFTAB1
 70
     6
  9
$SURFTAB2
 70
     6
  9
$SURFTYPE
 70
     6
  9
$SURFU
 70
     6
  9
$SURFV
 70
     6
  9
$UCSNAME
  2

  9
$UCSORG
 10
0.0
 20
0.0
 30
0.0
  9
$UCSXDIR
 10
1.0
 20
0.0
 30
0.0
  9
$UCSYDIR
 10
0.0
 20
1.0
 30
0.0
  9
$PUCSNAME
  2

  9
$PUCSORG
 10
0.0
 20
0.0
 30
0.0
  9
$PUCSXDIR
 10
1.0
 20
0.0
 30
0.0
  9
$PUCSYDIR
 10
0.0
 20
1.0
 30
0.0
  9
$USERI1
 70
     3
  9
$USERI2
 70
    33
  9
$USERI3
 70
     0
  9
$USERI4
 70
     1
  9
$USERI5
 70
     0
  9
$USERR1
 40
30.0
  9
$USERR2
 40
3.0
  9
$USERR3
 40
3.0
  9
$USERR4
 40
1.5
  9
$USERR5
 40
10.0
  9
$WORLDVIEW
 70
     1
  9
$SHADEDGE
 70
     3
  9
$SHADEDIF
 70
    70
  9
$TILEMODE
 70
     1
  9
$MAXACTVP
 70
    16
  9
$PINSBASE
 10
0.0
 20
0.0
 30
0.0
  9
$PLIMCHECK
 70
     0
  9
$PEXTMIN
 10
1.000000E+20
 20
1.000000E+20
 30
1.000000E+20
  9
$PEXTMAX
 10
-1.000000E+20
 20
-1.000000E+20
 30
-1.000000E+20
  9
$PLIMMIN
 10
0.0
 20
0.0
  9
$PLIMMAX
 10
12.0
 20
9.0
  9
$UNITMODE
 70
     0
  9
$VISRETAIN
 70
     0
  0
ENDSEC
  0
SECTION
  2
TABLES
  0
TABLE
  2
VPORT
 70
    10
  0
VPORT
  2
*ACTIVE
 70
     0
 10
0.0
 20
0.0
 11
1.0
 21
1.0
 12
6691.515737
 22
4095.0
 13
0.0
 23
0.0
 14
1.0
 24
1.0
 15
10.0
 25
10.0
 16
0.0
 26
0.0
 36
1.0
 17
0.0
 27
0.0
 37
0.0
 40
8190.0
 41
1.63407
 42
50.0
 43
0.0
 44
0.0
 50
0.0
 51
0.0
 71
     0
 72
   500
 73
     1
 74
     0
 75
     0
 76
     0
 77
     0
 78
     0
  0
VPORT
  2
2
 70
     0
 10
0.5
 20
0.0
 11
1.0
 21
1.0
 12
0.924031
 22
1.052651
 13
0.0
 23
0.0
 14
1.0
 24
1.0
 15
10.0
 25
10.0
 16
0.0
 26
0.0
 36
1.0
 17
0.0
 27
0.0
 37
0.0
 40
2.105302
 41
0.877814
 42
50.0
 43
0.0
 44
0.0
 50
0.0
 51
0.0
 71
     0
 72
   500
 73
     1
 74
     1
 75
     0
 76
     0
 77
     0
 78
     0
  0
VPORT
  2
2
 70
     0
 10
0.0
 20
0.0
 11
0.5
 21
1.0
 12
0.924031
 22
1.052651
 13
0.0
 23
0.0
 14
1.0
 24
1.0
 15
10.0
 25
10.0
 16
0.0
 26
0.0
 36
1.0
 17
0.0
 27
0.0
 37
0.0
 40
2.105302
 41
0.877814
 42
50.0
 43
0.0
 44
0.0
 50
0.0
 51
0.0
 71
     0
 72
   500
 73
     1
 74
     1
 75
     0
 76
     0
 77
     0
 78
     0
  0
VPORT
  2
3
 70
     0
 10
0.0
 20
0.5
 11
1.0
 21
1.0
 12
2.83217
 22
1.052651
 13
0.0
 23
0.0
 14
1.0
 24
1.0
 15
10.0
 25
10.0
 16
0.0
 26
0.0
 36
1.0
 17
0.0
 27
0.0
 37
0.0
 40
2.105302
 41
3.571429
 42
50.0
 43
0.0
 44
0.0
 50
0.0
 51
0.0
 71
     0
 72
   500
 73
     1
 74
     1
 75
     0
 76
     0
 77
     0
 78
     0
  0
VPORT
  2
3
 70
     0
 10
0.0
 20
0.0
 11
1.0
 21
0.5
 12
2.856742
 22
1.052651
 13
0.0
 23
0.0
 14
1.0
 24
1.0
 15
10.0
 25
10.0
 16
0.0
 26
0.0
 36
1.0
 17
0.0
 27
0.0
 37
0.0
 40
2.105302
 41
3.594771
 42
50.0
 43
0.0
 44
0.0
 50
0.0
 51
0.0
 71
     0
 72
   500
 73
     1
 74
     1
 75
     0
 76
     0
 77
     0
 78
     0
  0
VPORT
  2
4
 70
     0
 10
0.5
 20
0.0
 11
1.0
 21
0.5
 12
2.886858
 22
1.052651
 13
0.0
 23
0.0
 14
1.0
 24
1.0
 15
10.0
 25
10.0
 16
0.0
 26
0.0
 36
1.0
 17
0.0
 27
0.0
 37
0.0
 40
4.275207
 41
1.784314
 42
50.0
 43
0.0
 44
0.0
 50
0.0
 51
0.0
 71
     0
 72
   500
 73
     1
 74
     1
 75
     0
 76
     0
 77
     0
 78
     0
  0
VPORT
  2
4
 70
     0
 10
0.5
 20
0.5
 11
1.0
 21
1.0
 12
2.86209
 22
1.052651
 13
0.0
 23
0.0
 14
1.0
 24
1.0
 15
10.0
 25
10.0
 16
0.0
 26
0.0
 36
1.0
 17
0.0
 27
0.0
 37
0.0
 40
4.275207
 41
1.772727
 42
50.0
 43
0.0
 44
0.0
 50
0.0
 51
0.0
 71
     0
 72
   500
 73
     1
 74
     1
 75
     0
 76
     0
 77
     0
 78
     0
  0
VPORT
  2
4
 70
     0
 10
0.0
 20
0.5
 11
0.5
 21
1.0
 12
2.86209
 22
1.052651
 13
0.0
 23
0.0
 14
1.0
 24
1.0
 15
10.0
 25
10.0
 16
0.0
 26
0.0
 36
1.0
 17
0.0
 27
0.0
 37
0.0
 40
4.275207
 41
1.772727
 42
50.0
 43
0.0
 44
0.0
 50
0.0
 51
0.0
 71
     0
 72
   500
 73
     1
 74
     1
 75
     0
 76
     0
 77
     0
 78
     0
  0
VPORT
  2
4
 70
     0
 10
0.0
 20
0.0
 11
0.5
 21
0.5
 12
2.886858
 22
1.052651
 13
0.0
 23
0.0
 14
1.0
 24
1.0
 15
10.0
 25
10.0
 16
0.0
 26
0.0
 36
1.0
 17
0.0
 27
0.0
 37
0.0
 40
4.275207
 41
1.784314
 42
50.0
 43
0.0
 44
0.0
 50
0.0
 51
0.0
 71
     0
 72
   500
 73
     1
 74
     1
 75
     0
 76
     0
 77
     0
 78
     0
  0
ENDTAB
  0
TABLE
  2
LTYPE
 70
     5
  0
LTYPE
  2
CONTINUOUS
 70
    64
  3
実線
 72
    65
 73
     0
 40
0.0
  0
LTYPE
  2
DASHED
 70
    64
  3
__ __ __ __ __ __ __ __ __ __ __ __ __ __ __
 72
    65
 73
     2
 40
0.75
 49
0.5
 49
-0.25
  0
LTYPE
  2
CENTER
 70
    64
  3
____ _ ____ _ ____ _ ____ _ ____ _ ____ _ ____
 72
    65
 73
     4
 40
2.0
 49
1.25
 49
-0.25
 49
0.25
 49
-0.25
  0
LTYPE
  2
PHANTOM
 70
    64
  3
_____ _ _ _____ _ _ _____ _ _ _____ _ _ ____
 72
    65
 73
     6
 40
2.5
 49
1.25
 49
-0.25
 49
0.25
 49
-0.25
 49
0.25
 49
-0.25
  0
LTYPE
  2
HIDDEN
 70
    64
  3
_ _ _ _ _ _ _ _ _ _ _ _ _ _ _ _ _ _ _ _ _ _ _
 72
    65
 73
     2
 40
0.375
 49
0.25
 49
-0.125
  0
ENDTAB
  0
TABLE
  2
LAYER
 70
    14
  0
LAYER
  2
0
 70
    64
 62
     7
  6
CONTINUOUS
  0
LAYER
  2
ITTEN
 70
    64
 62
     1
  6
CENTER
  0
LAYER
  2
HATCH
 70
    64
 62
     4
  6
CONTINUOUS
  0
LAYER
  2
SUNPOU
 70
    64
 62
     3
  6
CONTINUOUS
  0
LAYER
  2
TEXT
 70
    64
 62
     3
  6
CONTINUOUS
  0
LAYER
  2
JISSEN
 70
    64
 62
     7
  6
CONTINUOUS
  0
LAYER
  2
TENSEN
 70
    64
 62
     2
  6
HIDDEN
  0
LAYER
  2
WAKU
 70
    64
 62
    -5
  6
CONTINUOUS
  0
ENDTAB
  0
TABLE
  2
STYLE
 70
     2
  0
STYLE
  2
STANDARD
 70
     0
 40
0.0
 41
1.0
 50
0.0
 71
     0
 42
0.2
  3
ROMANS
  4
EXTFONT
  0
STYLE
  2
K
 70
    64
 40
0.0
 41
1.0
 50
0.0
 71
     0
 42
60.0
  3
ROMANS
  4
EXTFONT
  0
ENDTAB
  0
TABLE
  2
VIEW
 70
     0
  0
ENDTAB
  0
TABLE
  2
UCS
 70
     0
  0
ENDTAB
  0
TABLE
  2
APPID
 70
     1
  0
APPID
  2
ACAD
 70
    64
  0
ENDTAB
  0
TABLE
  2
DIMSTYLE
 70
     0
  0
ENDTAB
  0
ENDSEC
  0
SECTION
  2
BLOCKS
  0
BLOCK
  8
JISSEN
  2
ARROW
 70
    64
 10
1.0
 20
0.5
 30
0.0
  3
ARROW
  0
LINE
  8
0
 10
1.0
 20
0.5
 30
0.0
 11
-0.5
 21
0.098076
 31
0.0
  0
LINE
  8
0
 10
0.0
 20
0.5
 30
0.0
 11
1.0
 21
0.5
 31
0.0
  0
LINE
  8
0
 10
1.0
 20
0.5
 30
0.0
 11
-0.5
 21
0.901924
 31
0.0
  0
ENDBLK
  8
JISSEN
  0
BLOCK
  8
SUNPOU
  2
ARROWANG
 70
    64
 10
0.0
 20
0.0
 30
0.0
  3
ARROWANG
  0
LINE
  8
SUNPOU
 10
0.0
 20
0.0
 30
0.0
 11
-1.5
 21
0.401924
 31
0.0
  0
LINE
  8
SUNPOU
 10
0.0
 20
0.0
 30
0.0
 11
-1.5
 21
-0.401924
 31
0.0
  0
ENDBLK
  8
SUNPOU
  0
BLOCK
  8
HATCH
  2
*X2
 70
    65
 10
0.0
 20
0.0
 30
0.0
  3
*X
  0
ENDBLK
  8
HATCH
  0
BLOCK
  8
HATCH
  2
*X3
 70
    65
 10
0.0
 20
0.0
 30
0.0
  3
*X
  0
ENDBLK
  8
HATCH
  0
BLOCK
  8
HATCH
  2
STDGX5
 70
    64
 10
0.0
 20
0.0
 30
0.0
  3
STDGX5
  0
ENDBLK
  8
HATCH
  0
ENDSEC
  0
SECTION
  2
ENTITIES
  0
CIRCLE
  8
JISSEN
 10
8770.463065
 20
2975.40011
 30
0.0
 40
300.0
  0
CIRCLE
  8
ITTEN
 10
8770.463065
 20
2975.40011
 30
0.0
 40
380.0
  0
ARC
  8
JISSEN
 10
9070.463065
 20
2975.40011
 30
0.0
 40
375.0
 50
270.0
 51
90.0
  0
LINE
  8
JISSEN
 10
9070.463065
 20
2600.40011
 30
0.0
 11
8936.21891
 21
2600.40011
 31
0.0
  0
LINE
  8
JISSEN
 10
9070.463065
 20
3350.40011
 30
0.0
 11
8936.21891
 21
3350.40011
 31
0.0
  0
LINE
  8
JISSEN
 10
8604.707221
 20
2600.40011
 30
0.0
 11
8420.463065
 21
2600.40011
 31
0.0
  0
LINE
  8
JISSEN
 10
8395.463065
 20
2625.40011
 30
0.0
 11
8395.463065
 21
2809.644265
 31
0.0
  0
LINE
  8
JISSEN
 10
8604.707221
 20
3350.40011
 30
0.0
 11
8420.463065
 21
3350.40011
 31
0.0
  0
LINE
  8
JISSEN
 10
8395.463065
 20
3325.40011
 30
0.0
 11
8395.463065
 21
3141.155954
 31
0.0
  0
ARC
  8
JISSEN
 10
8420.463065
 20
2625.40011
 30
0.0
 40
25.0
 50
180.0
 51
270.0
  0
ARC
  8
JISSEN
 10
8420.463065
 20
3325.40011
 30
0.0
 40
25.0
 50
90.0
 51
180.0
  0
CIRCLE
  8
JISSEN
 10
8770.463065
 20
3355.40011
 30
0.0
 40
10.0
  0
LINE
  8
ITTEN
 10
8467.354174
 20
2800.40011
 30
0.0
 11
8415.39265
 21
2770.40011
 31
0.0
  0
CIRCLE
  8
JISSEN
 10
8441.373412
 20
2785.40011
 30
0.0
 40
10.0
  0
LINE
  8
ITTEN
 10
9073.571956
 20
2800.40011
 30
0.0
 11
9125.533481
 21
2770.40011
 31
0.0
  0
CIRCLE
  8
JISSEN
 10
9099.552719
 20
2785.40011
 30
0.0
 40
10.0
  0
LINE
  8
JISSEN
 10
9445.463065
 20
4815.40011
 30
0.0
 11
9102.463065
 21
4815.40011
 31
0.0
  0
LINE
  8
TENSEN
 10
9102.463065
 20
4815.40011
 30
0.0
 11
9096.463065
 21
4800.40011
 31
0.0
  0
LINE
  8
TENSEN
 10
9096.463065
 20
4800.40011
 30
0.0
 11
9070.463065
 21
4800.40011
 31
0.0
  0
LINE
  8
TENSEN
 10
9070.463065
 20
4800.40011
 30
0.0
 11
8770.463065
 21
4800.40011
 31
0.0
  0
LINE
  8
JISSEN
 10
8470.463065
 20
4800.40011
 30
0.0
 11
8444.463065
 21
4800.40011
 31
0.0
  0
LINE
  8
JISSEN
 10
8444.463065
 20
4800.40011
 30
0.0
 11
8438.463065
 21
4815.40011
 31
0.0
  0
ARC
  8
JISSEN
 10
8770.463065
 20
2975.40011
 30
0.0
 40
410.0
 50
156.153824
 51
203.846176
  0
ARC
  8
JISSEN
 10
8770.463065
 20
2975.40011
 30
0.0
 40
410.0
 50
246.153824
 51
293.846176
  0
ARC
  8
JISSEN
 10
8770.463065
 20
2975.40011
 30
0.0
 40
410.0
 50
66.153824
 51
113.846176
  0
LINE
  8
JISSEN
 10
8438.463065
 20
4815.40011
 30
0.0
 11
8360.463065
 21
4815.40011
 31
0.0
  0
LINE
  8
JISSEN
 10
8360.463065
 20
4815.40011
 30
0.0
 11
8360.463065
 21
4765.40011
 31
0.0
  0
LINE
  8
JISSEN
 10
8395.463065
 20
4670.40011
 30
0.0
 11
8360.463065
 21
4765.40011
 31
0.0
  0
LINE
  8
JISSEN
 10
8395.463065
 20
4670.40011
 30
0.0
 11
8395.463065
 21
4815.40011
 31
0.0
  0
LINE
  8
JISSEN
 10
8395.463065
 20
4670.40011
 30
0.0
 11
8470.463065
 21
4670.40011
 31
0.0
  0
LINE
  8
JISSEN
 10
9445.463065
 20
4670.40011
 30
0.0
 11
9445.463065
 21
4815.40011
 31
0.0
  0
LINE
  8
JISSEN
 10
8438.463065
 20
4815.40011
 30
0.0
 11
9102.463065
 21
4815.40011
 31
0.0
  0
LINE
  8
JISSEN
 10
8436.463065
 20
4670.40011
 30
0.0
 11
8445.463065
 21
4655.40011
 31
0.0
  0
LINE
  8
JISSEN
 10
8445.463065
 20
4655.40011
 30
0.0
 11
9395.463065
 21
4655.40011
 31
0.0
  0
LINE
  8
JISSEN
 10
9395.463065
 20
4655.40011
 30
0.0
 11
9404.463065
 21
4670.40011
 31
0.0
  0
LINE
  8
JISSEN
 10
8470.463065
 20
4800.40011
 30
0.0
 11
8470.463065
 21
4655.40011
 31
0.0
  0
LINE
  8
TENSEN
 10
9070.463065
 20
4800.40011
 30
0.0
 11
9070.463065
 21
4655.40011
 31
0.0
  0
LINE
  8
TENSEN
 10
8604.707221
 20
4815.40011
 30
0.0
 11
8604.707221
 21
4765.40011
 31
0.0
  0
LINE
  8
TENSEN
 10
8604.707221
 20
4765.40011
 30
0.0
 11
8770.463065
 21
4765.40011
 31
0.0
  0
LINE
  8
JISSEN
 10
8936.21891
 20
4765.40011
 30
0.0
 11
8936.21891
 21
4815.40011
 31
0.0
  0
ARC
  8
TENSEN
 10
8770.463065
 20
4897.11886
 30
0.0
 40
211.71875
 50
218.472594
 51
270.0
  0
LINE
  8
JISSEN
 10
8770.463065
 20
4800.40011
 30
0.0
 11
8470.463065
 21
4800.40011
 31
0.0
  0
LINE
  8
JISSEN
 10
8770.463065
 20
4670.40011
 30
0.0
 11
9445.463065
 21
4670.40011
 31
0.0
  0
LINE
  8
TENSEN
 10
8470.463065
 20
4670.40011
 30
0.0
 11
8770.463065
 21
4670.40011
 31
0.0
  0
LINE
  8
ITTEN
 10
8770.463065
 20
4915.40011
 30
0.0
 11
8770.463065
 21
4605.778875
 31
0.0
  0
LINE
  8
JISSEN
 10
8770.463065
 20
4765.40011
 30
0.0
 11
8936.21891
 21
4765.40011
 31
0.0
  0
ARC
  8
JISSEN
 10
8770.463065
 20
4897.11886
 30
0.0
 40
211.71875
 50
270.0
 51
321.527406
  0
LINE
  8
SUNPOU
 10
8365.463065
 20
4670.40011
 30
0.0
 11
8030.463065
 21
4670.40011
 31
0.0
  0
LINE
  8
SUNPOU
 10
8330.463065
 20
4815.40011
 30
0.0
 11
8030.463065
 21
4815.40011
 31
0.0
  0
LINE
  8
SUNPOU
 10
8060.463065
 20
4670.40011
 30
0.0
 11
8060.463065
 21
4815.40011
 31
0.0
  0
INSERT
  8
SUNPOU
  2
ARROWANG
 10
8060.463065
 20
4670.40011
 30
0.0
 41
30.0
 42
30.0
 50
270.0
 43
30.0
  0
INSERT
  8
SUNPOU
  2
ARROWANG
 10
8060.463065
 20
4815.40011
 30
0.0
 41
30.0
 42
30.0
 50
90.0
 43
30.0
  0
TEXT
  8
SUNPOU
 10
8015.463065
 20
4675.40011
 30
0.0
 40
45.0
  1
145
 50
90.0
  7
K
 72
     1
 11
8015.463065
 21
4742.90011
 31
0.0
  0
LINE
  8
SUNPOU
 10
8414.463065
 20
4800.40011
 30
0.0
 11
8180.463065
 21
4800.40011
 31
0.0
  0
LINE
  8
SUNPOU
 10
8240.463065
 20
4815.40011
 30
0.0
 11
8240.463065
 21
4815.40011
 31
0.0
  0
INSERT
  8
SUNPOU
  2
ARROWANG
 10
8210.463065
 20
4800.40011
 30
0.0
 41
30.0
 42
30.0
 50
90.0
 43
30.0
  0
INSERT
  8
SUNPOU
  2
ARROWANG
 10
8210.463065
 20
4815.40011
 30
0.0
 41
30.0
 42
30.0
 50
270.0
 43
30.0
  0
LINE
  8
SUNPOU
 10
8210.463065
 20
4815.40011
 30
0.0
 11
8210.463065
 21
4914.40011
 31
0.0
  0
LINE
  8
SUNPOU
 10
8210.463065
 20
4800.40011
 30
0.0
 11
8210.463066
 21
4740.40011
 31
0.0
  0
TEXT
  8
SUNPOU
 10
8165.463065
 20
4818.828681
 30
0.0
 40
45.0
  1
15
 50
90.0
  7
K
 72
     1
 11
8165.463065
 21
4864.90011
 31
0.0
  0
LINE
  8
SUNPOU
 10
8415.463065
 20
4655.40011
 30
0.0
 11
8180.463065
 21
4655.40011
 31
0.0
  0
LINE
  8
SUNPOU
 10
8240.463065
 20
4670.40011
 30
0.0
 11
8240.463065
 21
4670.40011
 31
0.0
  0
INSERT
  8
SUNPOU
  2
ARROWANG
 10
8210.463065
 20
4655.40011
 30
0.0
 41
30.0
 42
30.0
 50
90.0
 43
30.0
  0
INSERT
  8
SUNPOU
  2
ARROWANG
 10
8210.463065
 20
4670.40011
 30
0.0
 41
30.0
 42
30.0
 50
270.0
 43
30.0
  0
LINE
  8
SUNPOU
 10
8210.463065
 20
4655.40011
 30
0.0
 11
8210.463065
 21
4556.40011
 31
0.0
  0
LINE
  8
SUNPOU
 10
8210.463065
 20
4670.40011
 30
0.0
 11
8210.463065
 21
4730.40011
 31
0.0
  0
TEXT
  8
SUNPOU
 10
8165.463065
 20
4559.828681
 30
0.0
 40
45.0
  1
15
 50
90.0
  7
K
 72
     1
 11
8165.463065
 21
4605.90011
 31
0.0
  0
LINE
  8
SUNPOU
 10
8966.21891
 20
4765.40011
 30
0.0
 11
9266.21891
 21
4765.40011
 31
0.0
  0
LINE
  8
SUNPOU
 10
9266.21891
 20
4815.40011
 30
0.0
 11
9266.21891
 21
4815.40011
 31
0.0
  0
INSERT
  8
SUNPOU
  2
ARROWANG
 10
9236.21891
 20
4765.40011
 30
0.0
 41
30.0
 42
30.0
 50
90.0
 43
30.0
  0
INSERT
  8
SUNPOU
  2
ARROWANG
 10
9236.21891
 20
4815.40011
 30
0.0
 41
30.0
 42
30.0
 50
270.0
 43
30.0
  0
LINE
  8
SUNPOU
 10
9236.21891
 20
4815.40011
 30
0.0
 11
9236.21891
 21
4914.40011
 31
0.0
  0
LINE
  8
SUNPOU
 10
9236.21891
 20
4765.40011
 30
0.0
 11
9236.218911
 21
4705.40011
 31
0.0
  0
TEXT
  8
SUNPOU
 10
9191.21891
 20
4822.042967
 30
0.0
 40
45.0
  1
50
 50
90.0
  7
K
 72
     1
 11
9191.21891
 21
4864.90011
 31
0.0
  0
CIRCLE
  8
JISSEN
 10
8770.463065
 20
2975.40011
 30
0.0
 40
326.0
  0
CIRCLE
  8
JISSEN
 10
8770.463065
 20
2975.40011
 30
0.0
 40
332.0
  0
LINE
  8
SUNPOU
 10
8408.463065
 20
3350.40011
 30
0.0
 11
8180.463065
 21
3350.40011
 31
0.0
  0
LINE
  8
SUNPOU
 10
8740.463065
 20
3385.40011
 30
0.0
 11
8180.463065
 21
3385.40011
 31
0.0
  0
LINE
  8
SUNPOU
 10
8210.463065
 20
3350.40011
 30
0.0
 11
8210.463065
 21
3385.40011
 31
0.0
  0
INSERT
  8
SUNPOU
  2
ARROWANG
 10
8210.463065
 20
3350.40011
 30
0.0
 41
30.0
 42
30.0
 50
90.0
 43
30.0
  0
INSERT
  8
SUNPOU
  2
ARROWANG
 10
8210.463065
 20
3385.40011
 30
0.0
 41
30.0
 42
30.0
 50
270.0
 43
30.0
  0
TEXT
  8
SUNPOU
 10
8165.463065
 20
3325.042967
 30
0.0
 40
45.0
  1
35
 50
90.0
  7
K
 72
     1
 11
8165.463065
 21
3367.90011
 31
0.0
  0
LINE
  8
SUNPOU
 10
8210.463065
 20
3385.40011
 30
0.0
 11
8210.463065
 21
3445.40011
 31
0.0
  0
LINE
  8
SUNPOU
 10
8210.463065
 20
3350.40011
 30
0.0
 11
8210.463065
 21
3290.40011
 31
0.0
  0
LINE
  8
SUNPOU
 10
8414.463065
 20
2600.40011
 30
0.0
 11
8180.463065
 21
2600.40011
 31
0.0
  0
LINE
  8
SUNPOU
 10
8180.463065
 20
3350.40011
 30
0.0
 11
8180.463065
 21
3350.40011
 31
0.0
  0
LINE
  8
SUNPOU
 10
8210.463065
 20
2600.40011
 30
0.0
 11
8210.463065
 21
3350.40011
 31
0.0
  0
INSERT
  8
SUNPOU
  2
ARROWANG
 10
8210.463065
 20
2600.40011
 30
0.0
 41
30.0
 42
30.0
 50
270.0
 43
30.0
  0
INSERT
  8
SUNPOU
  2
ARROWANG
 10
8210.463065
 20
3350.40011
 30
0.0
 41
30.0
 42
30.0
 50
90.0
 43
30.0
  0
TEXT
  8
SUNPOU
 10
8165.463065
 20
2911.114396
 30
0.0
 40
45.0
  1
750
 50
90.0
  7
K
 72
     1
 11
8165.463065
 21
2975.40011
 31
0.0
  0
LINE
  8
SUNPOU
 10
8740.463065
 20
2565.40011
 30
0.0
 11
8180.463065
 21
2565.40011
 31
0.0
  0
LINE
  8
SUNPOU
 10
8240.463065
 20
2600.40011
 30
0.0
 11
8240.463065
 21
2600.40011
 31
0.0
  0
LINE
  8
SUNPOU
 10
8210.463065
 20
2565.40011
 30
0.0
 11
8210.463065
 21
2600.40011
 31
0.0
  0
INSERT
  8
SUNPOU
  2
ARROWANG
 10
8210.463065
 20
2565.40011
 30
0.0
 41
30.0
 42
30.0
 50
90.0
 43
30.0
  0
INSERT
  8
SUNPOU
  2
ARROWANG
 10
8210.463065
 20
2600.40011
 30
0.0
 41
30.0
 42
30.0
 50
270.0
 43
30.0
  0
TEXT
  8
SUNPOU
 10
8165.463065
 20
2540.042967
 30
0.0
 40
45.0
  1
35
 50
90.0
  7
K
 72
     1
 11
8165.463065
 21
2582.90011
 31
0.0
  0
LINE
  8
SUNPOU
 10
8210.463065
 20
2600.40011
 30
0.0
 11
8210.463065
 21
2660.40011
 31
0.0
  0
LINE
  8
SUNPOU
 10
8210.463065
 20
2565.40011
 30
0.0
 11
8210.463065
 21
2505.40011
 31
0.0
  0
LINE
  8
ITTEN
 10
8770.463065
 20
3485.40011
 30
0.0
 11
8770.463065
 21
3099.404147
 31
0.0
  0
LINE
  8
ITTEN
 10
9545.463065
 20
2975.40011
 30
0.0
 11
8964.611517
 21
2975.40011
 31
0.0
  0
POINT
  8
SUNPOU
 10
8771.463065
 20
2975.40011
 30
0.0
  0
LINE
  8
SUNPOU
 10
8395.463065
 20
2595.40011
 30
0.0
 11
8395.463065
 21
2385.40011
 31
0.0
  0
LINE
  8
SUNPOU
 10
8770.463065
 20
2535.40011
 30
0.0
 11
8770.463065
 21
2385.40011
 31
0.0
  0
LINE
  8
SUNPOU
 10
8395.463065
 20
2415.40011
 30
0.0
 11
8770.463065
 21
2415.40011
 31
0.0
  0
INSERT
  8
SUNPOU
  2
ARROWANG
 10
8395.463065
 20
2415.40011
 30
0.0
 41
30.0
 42
30.0
 50
180.0
 43
30.0
  0
INSERT
  8
SUNPOU
  2
ARROWANG
 10
8770.463065
 20
2415.40011
 30
0.0
 41
30.0
 42
30.0
 43
30.0
  0
TEXT
  8
SUNPOU
 10
8518.677366
 20
2460.40011
 30
0.0
 40
45.0
  1
375
  7
K
 72
     1
 11
8582.96308
 21
2460.40011
 31
0.0
  0
LINE
  8
SUNPOU
 10
8770.463065
 20
2445.40011
 30
0.0
 11
8770.463065
 21
2445.40011
 31
0.0
  0
LINE
  8
SUNPOU
 10
9070.463065
 20
2945.40011
 30
0.0
 11
9070.463065
 21
2385.40011
 31
0.0
  0
LINE
  8
SUNPOU
 10
8770.463065
 20
2415.40011
 30
0.0
 11
9070.463065
 21
2415.40011
 31
0.0
  0
INSERT
  8
SUNPOU
  2
ARROWANG
 10
9070.463065
 20
2415.40011
 30
0.0
 41
30.0
 42
30.0
 43
30.0
  0
INSERT
  8
SUNPOU
  2
ARROWANG
 10
8770.463065
 20
2415.40011
 30
0.0
 41
30.0
 42
30.0
 50
180.0
 43
30.0
  0
TEXT
  8
SUNPOU
 10
8856.177351
 20
2460.40011
 30
0.0
 40
45.0
  1
300
  7
K
 72
     1
 11
8920.463065
 21
2460.40011
 31
0.0
  0
LINE
  8
SUNPOU
 10
9070.463065
 20
2385.40011
 30
0.0
 11
9070.463065
 21
2385.40011
 31
0.0
  0
LINE
  8
SUNPOU
 10
9445.463065
 20
2945.40011
 30
0.0
 11
9445.463065
 21
2385.40011
 31
0.0
  0
LINE
  8
SUNPOU
 10
9070.463065
 20
2415.40011
 30
0.0
 11
9445.463065
 21
2415.40011
 31
0.0
  0
INSERT
  8
SUNPOU
  2
ARROWANG
 10
9070.463065
 20
2415.40011
 30
0.0
 41
30.0
 42
30.0
 50
180.0
 43
30.0
  0
INSERT
  8
SUNPOU
  2
ARROWANG
 10
9445.463065
 20
2415.40011
 30
0.0
 41
30.0
 42
30.0
 43
30.0
  0
TEXT
  8
SUNPOU
 10
9193.677366
 20
2460.40011
 30
0.0
 40
45.0
  1
375
  7
K
 72
     1
 11
9257.96308
 21
2460.40011
 31
0.0
  0
LINE
  8
SUNPOU
 10
8993.686513
 20
3175.827883
 30
0.0
 11
8547.239617
 21
2774.972337
 31
0.0
  0
INSERT
  8
SUNPOU
  2
ARROWANG
 10
8993.686513
 20
3175.827883
 30
0.0
 41
30.0
 42
30.0
 50
41.920019
 43
30.0
  0
INSERT
  8
SUNPOU
  2
ARROWANG
 10
8547.239617
 20
2774.972337
 30
0.0
 41
30.0
 42
30.0
 50
221.920019
 43
30.0
  0
TEXT
  8
SUNPOU
 10
8679.809678
 20
2954.481803
 30
0.0
 40
45.0
  1
%%C600
 50
41.920019
  7
K
 72
     1
 11
8740.398899
 21
3008.883627
 31
0.0
  0
LINE
  8
SUNPOU
 10
9099.552719
 20
2785.40011
 30
0.0
 11
8770.463065
 21
2975.40011
 31
0.0
  0
INSERT
  8
SUNPOU
  2
ARROWANG
 10
9099.552719
 20
2785.40011
 30
0.0
 41
30.0
 42
30.0
 50
330.0
 43
30.0
  0
TEXT
  8
SUNPOU
 10
8881.421374
 20
2963.299824
 30
0.0
 40
45.0
  1
R380
 50
330.0
  7
K
 72
     1
 11
8957.507892
 21
2919.371253
 31
0.0
  0
LINE
  8
ITTEN
 10
8770.463065
 20
3027.944201
 30
0.0
 11
8770.463065
 21
2465.40011
 31
0.0
  0
LINE
  8
ITTEN
 10
8638.680567
 20
2975.40011
 30
0.0
 11
8260.463065
 21
2975.40011
 31
0.0
  0
LINE
  8
ITTEN
 10
8882.059453
 20
2975.40011
 30
0.0
 11
8698.562894
 21
2975.40011
 31
0.0
  0
LINE
  8
JISSEN
 10
10160.463065
 20
4815.40011
 30
0.0
 11
10195.463065
 21
4815.40011
 31
0.0
  0
LINE
  8
JISSEN
 10
10195.463065
 20
4815.40011
 30
0.0
 11
10238.463065
 21
4815.40011
 31
0.0
  0
LINE
  8
JISSEN
 10
10238.463065
 20
4815.40011
 30
0.0
 11
10244.463065
 21
4800.40011
 31
0.0
  0
LINE
  8
JISSEN
 10
10244.463065
 20
4800.40011
 30
0.0
 11
10270.463065
 21
4800.40011
 31
0.0
  0
LINE
  8
JISSEN
 10
10195.463065
 20
4815.40011
 30
0.0
 11
10195.463065
 21
4670.40011
 31
0.0
  0
LINE
  8
JISSEN
 10
10160.463065
 20
4765.40011
 30
0.0
 11
10195.463065
 21
4670.40011
 31
0.0
  0
LINE
  8
JISSEN
 10
10160.463065
 20
4815.40011
 30
0.0
 11
10160.463065
 21
4765.40011
 31
0.0
  0
LINE
  8
JISSEN
 10
10195.463065
 20
4670.40011
 30
0.0
 11
10236.463065
 21
4670.40011
 31
0.0
  0
LINE
  8
JISSEN
 10
10236.463065
 20
4670.40011
 30
0.0
 11
10245.463065
 21
4655.40011
 31
0.0
  0
LINE
  8
JISSEN
 10
10245.463065
 20
4655.40011
 30
0.0
 11
10270.463065
 21
4655.40011
 31
0.0
  0
LINE
  8
JISSEN
 10
10270.463065
 20
4800.40011
 30
0.0
 11
10270.463065
 21
4655.40011
 31
0.0
  0
LINE
  8
TENSEN
 10
10870.463065
 20
4800.40011
 30
0.0
 11
10870.463065
 21
4655.40011
 31
0.0
  0
LINE
  8
JISSEN
 10
10895.463065
 20
4655.40011
 30
0.0
 11
10870.463065
 21
4655.40011
 31
0.0
  0
LINE
  8
JISSEN
 10
10904.463065
 20
4670.40011
 30
0.0
 11
10895.463065
 21
4655.40011
 31
0.0
  0
LINE
  8
JISSEN
 10
10945.463065
 20
4670.40011
 30
0.0
 11
10904.463065
 21
4670.40011
 31
0.0
  0
LINE
  8
JISSEN
 10
10980.463065
 20
4815.40011
 30
0.0
 11
10980.463065
 21
4765.40011
 31
0.0
  0
LINE
  8
JISSEN
 10
10980.463065
 20
4765.40011
 30
0.0
 11
10945.463065
 21
4670.40011
 31
0.0
  0
LINE
  8
JISSEN
 10
10945.463065
 20
4815.40011
 30
0.0
 11
10945.463065
 21
4670.40011
 31
0.0
  0
LINE
  8
TENSEN
 10
10896.463065
 20
4800.40011
 30
0.0
 11
10870.463065
 21
4800.40011
 31
0.0
  0
LINE
  8
TENSEN
 10
10902.463065
 20
4815.40011
 30
0.0
 11
10896.463065
 21
4800.40011
 31
0.0
  0
LINE
  8
JISSEN
 10
10945.463065
 20
4815.40011
 30
0.0
 11
10902.463065
 21
4815.40011
 31
0.0
  0
LINE
  8
JISSEN
 10
10980.463065
 20
4815.40011
 30
0.0
 11
10945.463065
 21
4815.40011
 31
0.0
  0
LINE
  8
JISSEN
 10
10238.463065
 20
4815.40011
 30
0.0
 11
10902.463065
 21
4815.40011
 31
0.0
  0
LINE
  8
TENSEN
 10
10870.463065
 20
4800.40011
 30
0.0
 11
10570.463065
 21
4800.40011
 31
0.0
  0
LINE
  8
JISSEN
 10
10570.463065
 20
4800.40011
 30
0.0
 11
10270.463065
 21
4800.40011
 31
0.0
  0
LINE
  8
TENSEN
 10
10236.463065
 20
4670.40011
 30
0.0
 11
10570.463065
 21
4670.40011
 31
0.0
  0
LINE
  8
JISSEN
 10
10570.463065
 20
4670.40011
 30
0.0
 11
10904.463065
 21
4670.40011
 31
0.0
  0
LINE
  8
JISSEN
 10
10870.463065
 20
4655.40011
 30
0.0
 11
10270.463065
 21
4655.40011
 31
0.0
  0
LINE
  8
JISSEN
 10
8360.463065
 20
4765.40011
 30
0.0
 11
8395.463065
 21
4765.40011
 31
0.0
  0
LINE
  8
JISSEN
 10
10160.463065
 20
4765.40011
 30
0.0
 11
10195.463065
 21
4765.40011
 31
0.0
  0
LINE
  8
JISSEN
 10
10945.463065
 20
4765.40011
 30
0.0
 11
10980.463065
 21
4765.40011
 31
0.0
  0
LINE
  8
SUNPOU
 10
10160.463065
 20
4935.40011
 30
0.0
 11
10160.463065
 21
4935.40011
 31
0.0
  0
LINE
  8
SUNPOU
 10
10160.463065
 20
4845.40011
 30
0.0
 11
10160.463065
 21
4995.40011
 31
0.0
  0
LINE
  8
SUNPOU
 10
10270.463065
 20
4830.40011
 30
0.0
 11
10270.463065
 21
4995.40011
 31
0.0
  0
LINE
  8
SUNPOU
 10
10160.463065
 20
4965.40011
 30
0.0
 11
10270.463065
 21
4965.40011
 31
0.0
  0
INSERT
  8
SUNPOU
  2
ARROWANG
 10
10160.463065
 20
4965.40011
 30
0.0
 41
30.0
 42
30.0
 50
180.0
 43
30.0
  0
INSERT
  8
SUNPOU
  2
ARROWANG
 10
10270.463065
 20
4965.40011
 30
0.0
 41
30.0
 42
30.0
 43
30.0
  0
TEXT
  8
SUNPOU
 10
10147.96308
 20
5010.40011
 30
0.0
 40
45.0
  1
110
  7
K
 72
     1
 11
10215.46308
 21
5010.40011
 31
0.0
  0
LINE
  8
SUNPOU
 10
10870.463065
 20
4830.40011
 30
0.0
 11
10870.463065
 21
4995.40011
 31
0.0
  0
LINE
  8
SUNPOU
 10
10980.463065
 20
4845.40011
 30
0.0
 11
10980.463065
 21
4995.40011
 31
0.0
  0
LINE
  8
SUNPOU
 10
10870.463065
 20
4965.40011
 30
0.0
 11
10980.463065
 21
4965.40011
 31
0.0
  0
INSERT
  8
SUNPOU
  2
ARROWANG
 10
10980.463065
 20
4965.40011
 30
0.0
 41
30.0
 42
30.0
 43
30.0
  0
INSERT
  8
SUNPOU
  2
ARROWANG
 10
10870.463065
 20
4965.40011
 30
0.0
 41
30.0
 42
30.0
 50
180.0
 43
30.0
  0
TEXT
  8
SUNPOU
 10
10857.963065
 20
5010.40011
 30
0.0
 40
45.0
  1
110
  7
K
 72
     1
 11
10925.463065
 21
5010.40011
 31
0.0
  0
LINE
  8
SUNPOU
 10
10270.463065
 20
4935.40011
 30
0.0
 11
10270.463065
 21
4935.40011
 31
0.0
  0
LINE
  8
SUNPOU
 10
10870.463065
 20
4935.40011
 30
0.0
 11
10870.463065
 21
4935.40011
 31
0.0
  0
LINE
  8
SUNPOU
 10
10160.463065
 20
4845.40011
 30
0.0
 11
10160.463065
 21
5145.40011
 31
0.0
  0
LINE
  8
SUNPOU
 10
10980.463065
 20
4845.40011
 30
0.0
 11
10980.463065
 21
5145.40011
 31
0.0
  0
LINE
  8
SUNPOU
 10
10160.463065
 20
5115.40011
 30
0.0
 11
10980.463065
 21
5115.40011
 31
0.0
  0
INSERT
  8
SUNPOU
  2
ARROWANG
 10
10160.463065
 20
5115.40011
 30
0.0
 41
30.0
 42
30.0
 50
180.0
 43
30.0
  0
INSERT
  8
SUNPOU
  2
ARROWANG
 10
10980.463065
 20
5115.40011
 30
0.0
 41
30.0
 42
30.0
 43
30.0
  0
TEXT
  8
SUNPOU
 10
10506.177366
 20
5160.40011
 30
0.0
 40
45.0
  1
820
  7
K
 72
     1
 11
10570.46308
 21
5160.40011
 31
0.0
  0
LINE
  8
ITTEN
 10
10570.463065
 20
4915.40011
 30
0.0
 11
10570.463065
 21
4605.299824
 31
0.0
  0
LINE
  8
JISSEN
 10
879.964866
 20
4815.40011
 30
0.0
 11
957.964866
 21
4815.40011
 31
0.0
  0
LINE
  8
JISSEN
 10
957.964866
 20
4815.40011
 30
0.0
 11
963.964866
 21
4800.40011
 31
0.0
  0
LINE
  8
TENSEN
 10
1621.964866
 20
4815.40011
 30
0.0
 11
1615.964866
 21
4800.40011
 31
0.0
  0
LINE
  8
JISSEN
 10
1699.964866
 20
4815.40011
 30
0.0
 11
1621.964866
 21
4815.40011
 31
0.0
  0
LINE
  8
JISSEN
 10
957.964866
 20
4815.40011
 30
0.0
 11
1621.964866
 21
4815.40011
 31
0.0
  0
LINE
  8
JISSEN
 10
963.964866
 20
4800.40011
 30
0.0
 11
1289.964866
 21
4800.40011
 31
0.0
  0
LINE
  8
TENSEN
 10
1289.964866
 20
4800.40011
 30
0.0
 11
1615.964866
 21
4800.40011
 31
0.0
  0
LINE
  8
JISSEN
 10
989.964866
 20
4780.40011
 30
0.0
 11
1289.964866
 21
4780.40011
 31
0.0
  0
LINE
  8
TENSEN
 10
1289.964866
 20
4780.40011
 30
0.0
 11
1589.964866
 21
4780.40011
 31
0.0
  0
LINE
  8
JISSEN
 10
879.964866
 20
4370.40011
 30
0.0
 11
920.964866
 21
4370.40011
 31
0.0
  0
LINE
  8
JISSEN
 10
920.964866
 20
4370.40011
 30
0.0
 11
929.964866
 21
4355.40011
 31
0.0
  0
LINE
  8
JISSEN
 10
929.964866
 20
4355.40011
 30
0.0
 11
954.964866
 21
4355.40011
 31
0.0
  0
LINE
  8
JISSEN
 10
1879.964866
 20
4355.40011
 30
0.0
 11
1854.964866
 21
4355.40011
 31
0.0
  0
LINE
  8
JISSEN
 10
1888.964866
 20
4370.40011
 30
0.0
 11
1879.964866
 21
4355.40011
 31
0.0
  0
LINE
  8
JISSEN
 10
1929.964866
 20
4370.40011
 30
0.0
 11
1888.964866
 21
4370.40011
 31
0.0
  0
LINE
  8
JISSEN
 10
989.964866
 20
4780.40011
 30
0.0
 11
954.964866
 21
4355.40011
 31
0.0
  0
LINE
  8
JISSEN
 10
879.964866
 20
4815.40011
 30
0.0
 11
879.964866
 21
4370.40011
 31
0.0
  0
LINE
  8
TENSEN
 10
1589.964866
 20
4780.40011
 30
0.0
 11
1854.964866
 21
4355.40011
 31
0.0
  0
LINE
  8
JISSEN
 10
954.964866
 20
4355.40011
 30
0.0
 11
1854.964866
 21
4355.40011
 31
0.0
  0
LINE
  8
TENSEN
 10
920.964866
 20
4370.40011
 30
0.0
 11
1289.964866
 21
4370.40011
 31
0.0
  0
LINE
  8
JISSEN
 10
1289.964866
 20
4370.40011
 30
0.0
 11
1888.964866
 21
4370.40011
 31
0.0
  0
LINE
  8
ITTEN
 10
1289.964866
 20
4915.40011
 30
0.0
 11
1289.964866
 21
4255.40011
 31
0.0
  0
LINE
  8
JISSEN
 10
1699.964866
 20
4815.40011
 30
0.0
 11
1929.964866
 21
4430.40011
 31
0.0
  0
LINE
  8
JISSEN
 10
1929.964866
 20
4430.40011
 30
0.0
 11
1929.964866
 21
4370.40011
 31
0.0
  0
LINE
  8
JISSEN
 10
989.964866
 20
4800.40011
 30
0.0
 11
989.964866
 21
4780.40011
 31
0.0
  0
LINE
  8
TENSEN
 10
1589.964866
 20
4800.40011
 30
0.0
 11
1589.964866
 21
4780.40011
 31
0.0
  0
POINT
  8
SUNPOU
 10
1162.259178
 20
2764.981212
 30
0.0
  0
TEXT
  8
SUNPOU
 10
1186.617474
 20
2772.260998
 30
0.0
 40
45.0
  1
R1800
 50
11.425132
  7
K
 72
     1
 11
1289.28066
 21
2815.963258
 31
0.0
 73
     2
  0
LINE
  8
SUNPOU
 10
1196.829521
 20
2751.369904
 30
0.0
 11
1396.913158
 21
2791.805182
 31
0.0
  0
LINE
  8
SUNPOU
 10
1167.423989
 20
2745.427285
 30
0.0
 11
1196.829521
 21
2751.369904
 31
0.0
  0
LINE
  8
SUNPOU
 10
1132.501482
 20
2737.432331
 30
0.0
 11
1167.790164
 21
2745.142839
 31
0.0
  0
LINE
  8
SUNPOU
 10
1174.555488
 20
2778.573464
 30
0.0
 11
1132.501482
 21
2737.432331
 31
0.0
  0
LINE
  8
SUNPOU
 10
1002.306894
 20
2743.097984
 30
0.0
 11
1174.555488
 21
2778.573464
 31
0.0
  0
INSERT
  8
SUNPOU
  2
ARROW
 10
972.923605
 20
2737.046345
 30
0.0
 41
30.0
 42
30.0
 50
191.637634
 43
30.0
  0
LINE
  8
SUNPOU
 10
930.147953
 20
3111.90011
 30
0.0
 11
699.964866
 21
3111.90011
 31
0.0
  0
LINE
  8
SUNPOU
 10
930.147953
 20
2838.90011
 30
0.0
 11
699.964866
 21
2838.90011
 31
0.0
  0
LINE
  8
JISSEN
 10
959.241056
 20
3099.40011
 30
0.0
 11
959.241056
 21
3099.40011
 31
0.0
  0
LINE
  8
ITTEN
 10
779.964866
 20
2975.40011
 30
0.0
 11
2029.964866
 21
2975.40011
 31
0.0
  0
LINE
  8
ITTEN
 10
1554.964866
 20
3450.40011
 30
0.0
 11
1554.964866
 21
2500.40011
 31
0.0
  0
ARC
  8
JISSEN
 10
904.964866
 20
2625.40011
 30
0.0
 40
25.0
 50
180.0
 51
270.0
  0
ARC
  8
JISSEN
 10
904.964866
 20
3325.40011
 30
0.0
 40
25.0
 50
90.0
 51
180.0
  0
LINE
  8
TENSEN
 10
1031.596072
 20
2675.40011
 30
0.0
 11
1554.964866
 21
2675.40011
 31
0.0
  0
ARC
  8
JISSEN
 10
2754.964866
 20
2975.40011
 30
0.0
 40
1835.0
 50
191.792017
 51
191.792017
  0
ARC
  8
TENSEN
 10
1031.596072
 20
2735.40011
 30
0.0
 40
60.0
 50
187.928142
 51
270.0
  0
ARC
  8
TENSEN
 10
2754.964866
 20
2975.40011
 30
0.0
 40
1800.0
 50
172.003017
 51
187.928142
  0
ARC
  8
JISSEN
 10
2754.964866
 20
2975.40011
 30
0.0
 40
1835.0
 50
168.162175
 51
168.207983
  0
ARC
  8
JISSEN
 10
2754.964866
 20
2975.40011
 30
0.0
 40
1828.0
 50
168.162175
 51
168.162175
  0
ARC
  8
TENSEN
 10
1031.596072
 20
3215.40011
 30
0.0
 40
60.0
 50
90.0
 51
180.0
  0
ARC
  8
JISSEN
 10
2754.964866
 20
2975.40011
 30
0.0
 40
1800.0
 50
167.975301
 51
167.975301
  0
LINE
  8
TENSEN
 10
1554.964866
 20
3275.40011
 30
0.0
 11
1031.596072
 21
3275.40011
 31
0.0
  0
LINE
  8
JISSEN
 10
904.964866
 20
2600.40011
 30
0.0
 11
1124.209021
 21
2600.40011
 31
0.0
  0
LINE
  8
JISSEN
 10
879.964866
 20
3325.40011
 30
0.0
 11
879.964866
 21
2625.40011
 31
0.0
  0
LINE
  8
JISSEN
 10
904.964866
 20
3350.40011
 30
0.0
 11
1124.209021
 21
3350.40011
 31
0.0
  0
ARC
  8
TENSEN
 10
1554.964866
 20
2975.40011
 30
0.0
 40
300.0
 50
270.0
 51
90.0
  0
ARC
  8
JISSEN
 10
1554.964866
 20
2975.40011
 30
0.0
 40
375.0
 50
270.0
 51
90.0
  0
LINE
  8
TENSEN
 10
1354.964866
 20
2600.40011
 30
0.0
 11
1354.964866
 21
2650.40011
 31
0.0
  0
LINE
  8
TENSEN
 10
1354.964866
 20
2650.40011
 30
0.0
 11
1334.964866
 21
2650.40011
 31
0.0
  0
LINE
  8
TENSEN
 10
1334.964866
 20
2650.40011
 30
0.0
 11
1334.964866
 21
2600.40011
 31
0.0
  0
LINE
  8
TENSEN
 10
1354.964866
 20
3350.40011
 30
0.0
 11
1354.964866
 21
3300.40011
 31
0.0
  0
LINE
  8
TENSEN
 10
1354.964866
 20
3300.40011
 30
0.0
 11
1334.964866
 21
3300.40011
 31
0.0
  0
LINE
  8
TENSEN
 10
1334.964866
 20
3300.40011
 30
0.0
 11
1334.964866
 21
3350.40011
 31
0.0
  0
CIRCLE
  8
JISSEN
 10
1289.964866
 20
2975.40011
 30
0.0
 40
410.0
  0
CIRCLE
  8
JISSEN
 10
1289.964866
 20
2975.40011
 30
0.0
 40
332.0
  0
CIRCLE
  8
JISSEN
 10
1289.964866
 20
2975.40011
 30
0.0
 40
326.0
  0
CIRCLE
  8
JISSEN
 10
1289.964866
 20
2975.40011
 30
0.0
 40
300.0
  0
CIRCLE
  8
ITTEN
 10
1289.964866
 20
2975.40011
 30
0.0
 40
380.0
  0
CIRCLE
  8
JISSEN
 10
1289.964866
 20
3355.40011
 30
0.0
 40
10.0
  0
LINE
  8
ITTEN
 10
1289.964866
 20
3385.40011
 30
0.0
 11
1289.964866
 21
3325.40011
 31
0.0
  0
LINE
  8
ITTEN
 10
934.89445
 20
2770.40011
 30
0.0
 11
986.855974
 21
2800.40011
 31
0.0
  0
CIRCLE
  8
JISSEN
 10
960.875212
 20
2785.40011
 30
0.0
 40
10.0
  0
LINE
  8
ITTEN
 10
1645.035281
 20
2770.40011
 30
0.0
 11
1593.073757
 21
2800.40011
 31
0.0
  0
CIRCLE
  8
JISSEN
 10
1619.054519
 20
2785.40011
 30
0.0
 40
10.0
  0
LINE
  8
TENSEN
 10
1124.209021
 20
3350.40011
 30
0.0
 11
1455.72071
 21
3350.40011
 31
0.0
  0
LINE
  8
JISSEN
 10
1455.72071
 20
3350.40011
 30
0.0
 11
1554.964866
 21
3350.40011
 31
0.0
  0
LINE
  8
TENSEN
 10
1124.209021
 20
2600.40011
 30
0.0
 11
1455.72071
 21
2600.40011
 31
0.0
  0
LINE
  8
JISSEN
 10
1455.72071
 20
2600.40011
 30
0.0
 11
1554.964866
 21
2600.40011
 31
0.0
  0
LINE
  8
SUNPOU
 10
1851.241285
 20
3022.519994
 30
0.0
 11
1554.964866
 21
2975.40011
 31
0.0
  0
INSERT
  8
SUNPOU
  2
ARROWANG
 10
1851.241285
 20
3022.519994
 30
0.0
 41
30.0
 42
30.0
 50
9.036653
 43
30.0
  0
TEXT
  8
SUNPOU
 10
1702.414736
 20
3023.947786
 30
0.0
 40
36.0
  1
R300
 50
9.036653
  7
K
 72
     1
 11
1771.828069
 21
3034.987302
 31
0.0
  0
LINE
  8
SUNPOU
 10
1882.541533
 20
2792.866477
 30
0.0
 11
1554.964866
 21
2975.40011
 31
0.0
  0
INSERT
  8
SUNPOU
  2
ARROWANG
 10
1882.541533
 20
2792.866477
 30
0.0
 41
30.0
 42
30.0
 50
330.872392
 43
30.0
  0
TEXT
  8
SUNPOU
 10
1700.905756
 20
2923.584076
 30
0.0
 40
36.0
  1
R375
 50
330.872392
  7
K
 72
     1
 11
1762.302983
 21
2889.372058
 31
0.0
  0
LINE
  8
SUNPOU
 10
1619.054519
 20
3165.40011
 30
0.0
 11
960.875212
 21
2785.40011
 31
0.0
  0
INSERT
  8
SUNPOU
  2
ARROWANG
 10
1619.054519
 20
3165.40011
 30
0.0
 41
30.0
 42
30.0
 50
30.0
 43
30.0
  0
INSERT
  8
SUNPOU
  2
ARROWANG
 10
960.875212
 20
2785.40011
 30
0.0
 41
30.0
 42
30.0
 50
210.0
 43
30.0
  0
TEXT
  8
SUNPOU
 10
1196.945654
 20
2973.656967
 30
0.0
 40
45.0
  1
%%C760
 50
30.0
  7
K
 72
     1
 11
1267.464866
 21
3014.371253
 31
0.0
  0
LINE
  8
SUNPOU
 10
879.964866
 20
2595.40011
 30
0.0
 11
879.964866
 21
2235.40011
 31
0.0
  0
LINE
  8
SUNPOU
 10
954.964866
 20
2709.021177
 30
0.0
 11
954.964866
 21
2235.40011
 31
0.0
  0
LINE
  8
SUNPOU
 10
879.964866
 20
2265.40011
 30
0.0
 11
954.964866
 21
2265.40011
 31
0.0
  0
INSERT
  8
SUNPOU
  2
ARROWANG
 10
954.964866
 20
2265.40011
 30
0.0
 41
30.0
 42
30.0
 50
180.0
 43
30.0
  0
INSERT
  8
SUNPOU
  2
ARROWANG
 10
879.964866
 20
2265.40011
 30
0.0
 41
30.0
 42
30.0
 43
30.0
  0
TEXT
  8
SUNPOU
 10
874.607738
 20
2310.40011
 30
0.0
 40
45.0
  1
75
  7
K
 72
     1
 11
917.46488
 21
2310.40011
 31
0.0
  0
LINE
  8
SUNPOU
 10
954.964866
 20
2265.40011
 30
0.0
 11
1014.964866
 21
2265.40011
 31
0.0
  0
LINE
  8
SUNPOU
 10
879.964866
 20
2265.40011
 30
0.0
 11
819.964866
 21
2265.40011
 31
0.0
  0
LINE
  8
SUNPOU
 10
954.964866
 20
2235.40011
 30
0.0
 11
954.964866
 21
2235.40011
 31
0.0
  0
LINE
  8
SUNPOU
 10
1554.964866
 20
2570.40011
 30
0.0
 11
1554.964866
 21
2235.40011
 31
0.0
  0
LINE
  8
SUNPOU
 10
954.964866
 20
2265.40011
 30
0.0
 11
1554.964866
 21
2265.40011
 31
0.0
  0
INSERT
  8
SUNPOU
  2
ARROWANG
 10
954.964866
 20
2265.40011
 30
0.0
 41
30.0
 42
30.0
 50
180.0
 43
30.0
  0
INSERT
  8
SUNPOU
  2
ARROWANG
 10
1554.964866
 20
2265.40011
 30
0.0
 41
30.0
 42
30.0
 43
30.0
  0
TEXT
  8
SUNPOU
 10
1189.607738
 20
2310.40011
 30
0.0
 40
45.0
  1
600
  7
K
 72
     1
 11
1254.96488
 21
2310.40011
 31
0.0
  0
LINE
  8
SUNPOU
 10
954.964866
 20
2385.40011
 30
0.0
 11
954.964866
 21
2385.40011
 31
0.0
  0
LINE
  8
SUNPOU
 10
1289.964866
 20
2535.40011
 30
0.0
 11
1289.964866
 21
2385.40011
 31
0.0
  0
LINE
  8
SUNPOU
 10
954.964866
 20
2415.40011
 30
0.0
 11
1289.964866
 21
2415.40011
 31
0.0
  0
INSERT
  8
SUNPOU
  2
ARROWANG
 10
954.964866
 20
2415.40011
 30
0.0
 41
30.0
 42
30.0
 50
180.0
 43
30.0
  0
INSERT
  8
SUNPOU
  2
ARROWANG
 10
1289.964866
 20
2415.40011
 30
0.0
 41
30.0
 42
30.0
 43
30.0
  0
TEXT
  8
SUNPOU
 10
1058.179166
 20
2460.40011
 30
0.0
 40
45.0
  1
335
  7
K
 72
     1
 11
1122.46488
 21
2460.40011
 31
0.0
  0
LINE
  8
SUNPOU
 10
1289.964866
 20
2385.40011
 30
0.0
 11
1289.964866
 21
2385.40011
 31
0.0
  0
LINE
  8
SUNPOU
 10
1554.964866
 20
2385.40011
 30
0.0
 11
1554.964866
 21
2385.40011
 31
0.0
  0
LINE
  8
SUNPOU
 10
1289.964866
 20
2415.40011
 30
0.0
 11
1554.964866
 21
2415.40011
 31
0.0
  0
INSERT
  8
SUNPOU
  2
ARROWANG
 10
1289.964866
 20
2415.40011
 30
0.0
 41
30.0
 42
30.0
 50
180.0
 43
30.0
  0
INSERT
  8
SUNPOU
  2
ARROWANG
 10
1554.964866
 20
2415.40011
 30
0.0
 41
30.0
 42
30.0
 43
30.0
  0
TEXT
  8
SUNPOU
 10
1358.179166
 20
2460.40011
 30
0.0
 40
45.0
  1
265
  7
K
 72
     1
 11
1422.46488
 21
2460.40011
 31
0.0
  0
ARC
  8
JISSEN
 10
1214.484996
 20
4629.012098
 30
0.0
 40
212.471016
 50
290.808635
 51
332.005226
  0
ARC
  8
JISSEN
 10
1039.448485
 20
4722.251277
 30
0.0
 40
410.792246
 50
331.981694
 51
346.758966
  0
ARC
  8
JISSEN
 10
907.113886
 20
4757.536688
 30
0.0
 40
547.705672
 50
346.336716
 51
356.808086
  0
ARC
  8
JISSEN
 10
1146.989936
 20
4760.2168
 30
0.0
 40
308.767501
 50
353.831731
 51
0.893835
  0
ARC
  8
JISSEN
 10
1289.964866
 20
6186.233443
 30
0.0
 40
1430.833333
 50
270.0
 51
286.651301
  0
LINE
  8
JISSEN
 10
1929.964866
 20
4430.40011
 30
0.0
 11
1289.964866
 21
4430.40011
 31
0.0
  0
ARC
  8
JISSEN
 10
1086.258983
 20
4735.40011
 30
0.0
 40
12.5
 50
270.0
 51
90.0
  0
LINE
  8
JISSEN
 10
987.288395
 20
4747.90011
 30
0.0
 11
1086.258983
 21
4747.90011
 31
0.0
  0
LINE
  8
JISSEN
 10
1086.258983
 20
4722.90011
 30
0.0
 11
985.229572
 21
4722.90011
 31
0.0
  0
ARC
  8
JISSEN
 10
1067.317807
 20
4505.40011
 30
0.0
 40
12.5
 50
270.0
 51
90.0
  0
LINE
  8
JISSEN
 10
968.347219
 20
4517.90011
 30
0.0
 11
1067.317807
 21
4517.90011
 31
0.0
  0
LINE
  8
JISSEN
 10
1067.317807
 20
4492.90011
 30
0.0
 11
966.288395
 21
4492.90011
 31
0.0
  0
LINE
  8
JISSEN
 10
1029.582455
 20
3124.40011
 30
0.0
 11
1061.258983
 21
3124.40011
 31
0.0
  0
LINE
  8
JISSEN
 10
1098.758983
 20
3086.90011
 30
0.0
 11
1098.758983
 21
2863.90011
 31
0.0
  0
LINE
  8
JISSEN
 10
1061.258983
 20
2826.40011
 30
0.0
 11
1029.582455
 21
2826.40011
 31
0.0
  0
LINE
  8
JISSEN
 10
1016.790928
 20
2851.40011
 30
0.0
 11
1061.258983
 21
2851.40011
 31
0.0
  0
LINE
  8
JISSEN
 10
1016.790928
 20
3099.40011
 30
0.0
 11
1061.258983
 21
3099.40011
 31
0.0
  0
LINE
  8
JISSEN
 10
1073.758983
 20
3086.90011
 30
0.0
 11
1073.758983
 21
2863.90011
 31
0.0
  0
ARC
  8
JISSEN
 10
1061.258983
 20
2863.90011
 30
0.0
 40
37.5
 50
270.0
 51
0.0
  0
ARC
  8
JISSEN
 10
1061.258983
 20
2863.90011
 30
0.0
 40
12.5
 50
270.0
 51
0.0
  0
ARC
  8
JISSEN
 10
1061.258983
 20
3086.90011
 30
0.0
 40
12.5
 50
0.0
 51
90.0
  0
ARC
  8
JISSEN
 10
1061.258983
 20
3086.90011
 30
0.0
 40
37.5
 50
0.0
 51
90.0
  0
CIRCLE
  8
JISSEN
 10
1344.964866
 20
4395.40011
 30
0.0
 40
10.0
  0
LINE
  8
ITTEN
 10
1344.964866
 20
4455.40011
 30
0.0
 11
1344.964866
 21
4335.40011
 31
0.0
  0
LINE
  8
ITTEN
 10
1404.964866
 20
4395.40011
 30
0.0
 11
1284.964866
 21
4395.40011
 31
0.0
  0
LINE
  8
ITTEN
 10
936.258983
 20
4735.40011
 30
0.0
 11
1148.758195
 21
4735.40011
 31
0.0
  0
LINE
  8
ITTEN
 10
1148.758195
 20
4505.40011
 30
0.0
 11
936.258983
 21
4505.40011
 31
0.0
  0
LINE
  8
SUNPOU
 10
1109.817807
 20
4505.40011
 30
0.0
 11
1278.758983
 21
4505.40011
 31
0.0
  0
LINE
  8
SUNPOU
 10
1128.758983
 20
4735.40011
 30
0.0
 11
1278.758983
 21
4735.40011
 31
0.0
  0
LINE
  8
SUNPOU
 10
1248.758983
 20
4505.40011
 30
0.0
 11
1248.758983
 21
4735.40011
 31
0.0
  0
INSERT
  8
SUNPOU
  2
ARROWANG
 10
1248.758983
 20
4505.40011
 30
0.0
 41
30.0
 42
30.0
 50
270.0
 43
30.0
  0
INSERT
  8
SUNPOU
  2
ARROWANG
 10
1248.758983
 20
4735.40011
 30
0.0
 41
30.0
 42
30.0
 50
90.0
 43
30.0
  0
TEXT
  8
SUNPOU
 10
1203.758983
 20
4556.114396
 30
0.0
 40
45.0
  1
230
 50
90.0
  7
K
 72
     1
 11
1203.758983
 21
4620.40011
 31
0.0
  0
LINE
  8
SUNPOU
 10
1218.758983
 20
4355.40011
 30
0.0
 11
1218.758983
 21
4355.40011
 31
0.0
  0
LINE
  8
SUNPOU
 10
1218.758983
 20
4505.40011
 30
0.0
 11
1218.758983
 21
4505.40011
 31
0.0
  0
LINE
  8
SUNPOU
 10
1248.758983
 20
4355.40011
 30
0.0
 11
1248.758983
 21
4505.40011
 31
0.0
  0
INSERT
  8
SUNPOU
  2
ARROWANG
 10
1248.758983
 20
4355.40011
 30
0.0
 41
30.0
 42
30.0
 50
270.0
 43
30.0
  0
INSERT
  8
SUNPOU
  2
ARROWANG
 10
1248.758983
 20
4505.40011
 30
0.0
 41
30.0
 42
30.0
 50
90.0
 43
30.0
  0
TEXT
  8
SUNPOU
 10
1203.758983
 20
4362.90011
 30
0.0
 40
45.0
  1
150
 50
90.0
  7
K
 72
     1
 11
1203.758983
 21
4430.40011
 31
0.0
  0
LINE
  8
SUNPOU
 10
849.964866
 20
4370.40011
 30
0.0
 11
549.964866
 21
4370.40011
 31
0.0
  0
LINE
  8
SUNPOU
 10
849.964866
 20
4815.40011
 30
0.0
 11
549.964866
 21
4815.40011
 31
0.0
  0
LINE
  8
SUNPOU
 10
579.964866
 20
4370.40011
 30
0.0
 11
579.964866
 21
4815.40011
 31
0.0
  0
INSERT
  8
SUNPOU
  2
ARROWANG
 10
579.964866
 20
4370.40011
 30
0.0
 41
30.0
 42
30.0
 50
270.0
 43
30.0
  0
INSERT
  8
SUNPOU
  2
ARROWANG
 10
579.964866
 20
4815.40011
 30
0.0
 41
30.0
 42
30.0
 50
90.0
 43
30.0
  0
TEXT
  8
SUNPOU
 10
534.964866
 20
4528.614396
 30
0.0
 40
45.0
  1
445
 50
90.0
  7
K
 72
     1
 11
534.964866
 21
4592.90011
 31
0.0
  0
LINE
  8
SUNPOU
 10
933.964866
 20
4800.40011
 30
0.0
 11
699.964866
 21
4800.40011
 31
0.0
  0
LINE
  8
SUNPOU
 10
699.964866
 20
4815.40011
 30
0.0
 11
699.964866
 21
4815.40011
 31
0.0
  0
LINE
  8
SUNPOU
 10
759.964866
 20
4800.40011
 30
0.0
 11
759.964866
 21
4800.40011
 31
0.0
  0
LINE
  8
SUNPOU
 10
759.964866
 20
4815.40011
 30
0.0
 11
759.964866
 21
4815.40011
 31
0.0
  0
INSERT
  8
SUNPOU
  2
ARROWANG
 10
729.964866
 20
4800.40011
 30
0.0
 41
30.0
 42
30.0
 50
90.0
 43
30.0
  0
INSERT
  8
SUNPOU
  2
ARROWANG
 10
729.964866
 20
4815.40011
 30
0.0
 41
30.0
 42
30.0
 50
270.0
 43
30.0
  0
LINE
  8
SUNPOU
 10
729.964866
 20
4800.40011
 30
0.0
 11
729.964866
 21
4701.40011
 31
0.0
  0
LINE
  8
SUNPOU
 10
729.964866
 20
4815.40011
 30
0.0
 11
729.964866
 21
4875.40011
 31
0.0
  0
TEXT
  8
SUNPOU
 10
684.964866
 20
4704.828681
 30
0.0
 40
45.0
  1
15
 50
90.0
  7
K
 72
     1
 11
684.964866
 21
4750.90011
 31
0.0
  0
LINE
  8
SUNPOU
 10
899.964866
 20
4355.40011
 30
0.0
 11
699.964866
 21
4355.40011
 31
0.0
  0
LINE
  8
SUNPOU
 10
759.964866
 20
4370.40011
 30
0.0
 11
759.964866
 21
4370.40011
 31
0.0
  0
INSERT
  8
SUNPOU
  2
ARROWANG
 10
729.964866
 20
4355.40011
 30
0.0
 41
30.0
 42
30.0
 50
90.0
 43
30.0
  0
INSERT
  8
SUNPOU
  2
ARROWANG
 10
729.964866
 20
4370.40011
 30
0.0
 41
30.0
 42
30.0
 50
270.0
 43
30.0
  0
LINE
  8
SUNPOU
 10
729.964866
 20
4370.40011
 30
0.0
 11
729.964866
 21
4469.40011
 31
0.0
  0
LINE
  8
SUNPOU
 10
729.964866
 20
4355.40011
 30
0.0
 11
729.964867
 21
4295.40011
 31
0.0
  0
TEXT
  8
SUNPOU
 10
684.964866
 20
4373.828681
 30
0.0
 40
45.0
  1
15
 50
90.0
  7
K
 72
     1
 11
684.964866
 21
4419.90011
 31
0.0
  0
LINE
  8
SUNPOU
 10
879.964866
 20
4845.40011
 30
0.0
 11
879.964866
 21
5145.40011
 31
0.0
  0
LINE
  8
SUNPOU
 10
1699.964866
 20
4845.40011
 30
0.0
 11
1699.964866
 21
5145.40011
 31
0.0
  0
LINE
  8
SUNPOU
 10
879.964866
 20
5115.40011
 30
0.0
 11
1699.964866
 21
5115.40011
 31
0.0
  0
INSERT
  8
SUNPOU
  2
ARROWANG
 10
879.964866
 20
5115.40011
 30
0.0
 41
30.0
 42
30.0
 50
180.0
 43
30.0
  0
INSERT
  8
SUNPOU
  2
ARROWANG
 10
1699.964866
 20
5115.40011
 30
0.0
 41
30.0
 42
30.0
 43
30.0
  0
TEXT
  8
SUNPOU
 10
1225.679166
 20
5160.40011
 30
0.0
 40
45.0
  1
820
  7
K
 72
     1
 11
1289.96488
 21
5160.40011
 31
0.0
  0
LINE
  8
SUNPOU
 10
879.964866
 20
4935.40011
 30
0.0
 11
879.964866
 21
4935.40011
 31
0.0
  0
LINE
  8
SUNPOU
 10
989.964866
 20
4830.40011
 30
0.0
 11
989.964866
 21
4995.40011
 31
0.0
  0
LINE
  8
SUNPOU
 10
879.964866
 20
4965.40011
 30
0.0
 11
989.964866
 21
4965.40011
 31
0.0
  0
INSERT
  8
SUNPOU
  2
ARROWANG
 10
879.964866
 20
4965.40011
 30
0.0
 41
30.0
 42
30.0
 50
180.0
 43
30.0
  0
INSERT
  8
SUNPOU
  2
ARROWANG
 10
989.964866
 20
4965.40011
 30
0.0
 41
30.0
 42
30.0
 43
30.0
  0
TEXT
  8
SUNPOU
 10
867.46488
 20
5010.40011
 30
0.0
 40
45.0
  1
110
  7
K
 72
     1
 11
934.96488
 21
5010.40011
 31
0.0
  0
LINE
  8
SUNPOU
 10
1589.964866
 20
4830.40011
 30
0.0
 11
1589.964866
 21
4995.40011
 31
0.0
  0
LINE
  8
SUNPOU
 10
1699.964866
 20
4935.40011
 30
0.0
 11
1699.964866
 21
4935.40011
 31
0.0
  0
LINE
  8
SUNPOU
 10
1589.964866
 20
4965.40011
 30
0.0
 11
1699.964866
 21
4965.40011
 31
0.0
  0
INSERT
  8
SUNPOU
  2
ARROWANG
 10
1589.964866
 20
4965.40011
 30
0.0
 41
30.0
 42
30.0
 50
180.0
 43
30.0
  0
INSERT
  8
SUNPOU
  2
ARROWANG
 10
1699.964866
 20
4965.40011
 30
0.0
 41
30.0
 42
30.0
 43
30.0
  0
TEXT
  8
SUNPOU
 10
1577.46488
 20
5010.40011
 30
0.0
 40
45.0
  1
110
  7
K
 72
     1
 11
1644.96488
 21
5010.40011
 31
0.0
  0
LINE
  8
SUNPOU
 10
989.964866
 20
4935.40011
 30
0.0
 11
989.964866
 21
4935.40011
 31
0.0
  0
LINE
  8
SUNPOU
 10
1589.964866
 20
4935.40011
 30
0.0
 11
1589.964866
 21
4935.40011
 31
0.0
  0
LINE
  8
SUNPOU
 10
989.964866
 20
4965.40011
 30
0.0
 11
1589.964866
 21
4965.40011
 31
0.0
  0
INSERT
  8
SUNPOU
  2
ARROWANG
 10
989.964866
 20
4965.40011
 30
0.0
 41
30.0
 42
30.0
 50
180.0
 43
30.0
  0
INSERT
  8
SUNPOU
  2
ARROWANG
 10
1589.964866
 20
4965.40011
 30
0.0
 41
30.0
 42
30.0
 43
30.0
  0
TEXT
  8
SUNPOU
 10
1224.607738
 20
5010.40011
 30
0.0
 40
45.0
  1
600
  7
K
 72
     1
 11
1289.96488
 21
5010.40011
 31
0.0
  0
LINE
  8
SUNPOU
 10
879.964866
 20
4340.40011
 30
0.0
 11
879.964866
 21
3875.40011
 31
0.0
  0
LINE
  8
SUNPOU
 10
1929.964866
 20
4340.40011
 30
0.0
 11
1929.964866
 21
3875.40011
 31
0.0
  0
LINE
  8
SUNPOU
 10
879.964866
 20
3905.40011
 30
0.0
 11
1929.964866
 21
3905.40011
 31
0.0
  0
INSERT
  8
SUNPOU
  2
ARROWANG
 10
879.964866
 20
3905.40011
 30
0.0
 41
30.0
 42
30.0
 50
180.0
 43
30.0
  0
INSERT
  8
SUNPOU
  2
ARROWANG
 10
1929.964866
 20
3905.40011
 30
0.0
 41
30.0
 42
30.0
 43
30.0
  0
TEXT
  8
SUNPOU
 10
1316.036309
 20
3950.40011
 30
0.0
 40
45.0
  1
1050
  7
K
 72
     1
 11
1404.96488
 21
3950.40011
 31
0.0
  0
LINE
  8
SUNPOU
 10
879.964866
 20
4085.40011
 30
0.0
 11
879.964866
 21
4085.40011
 31
0.0
  0
LINE
  8
SUNPOU
 10
954.964866
 20
4325.40011
 30
0.0
 11
954.964866
 21
4025.40011
 31
0.0
  0
LINE
  8
SUNPOU
 10
879.964866
 20
4055.40011
 30
0.0
 11
954.964866
 21
4055.40011
 31
0.0
  0
INSERT
  8
SUNPOU
  2
ARROWANG
 10
954.964866
 20
4055.40011
 30
0.0
 41
30.0
 42
30.0
 50
180.0
 43
30.0
  0
INSERT
  8
SUNPOU
  2
ARROWANG
 10
879.964866
 20
4055.40011
 30
0.0
 41
30.0
 42
30.0
 43
30.0
  0
TEXT
  8
SUNPOU
 10
874.607738
 20
4100.40011
 30
0.0
 40
45.0
  1
75
  7
K
 72
     1
 11
917.46488
 21
4100.40011
 31
0.0
  0
LINE
  8
SUNPOU
 10
954.964866
 20
4055.40011
 30
0.0
 11
1014.964866
 21
4055.40011
 31
0.0
  0
LINE
  8
SUNPOU
 10
879.964866
 20
4055.40011
 30
0.0
 11
819.964866
 21
4055.40011
 31
0.0
  0
LINE
  8
SUNPOU
 10
954.964866
 20
4025.40011
 30
0.0
 11
954.964866
 21
4025.40011
 31
0.0
  0
LINE
  8
SUNPOU
 10
1854.964866
 20
4325.40011
 30
0.0
 11
1854.964866
 21
4025.40011
 31
0.0
  0
LINE
  8
SUNPOU
 10
954.964866
 20
4055.40011
 30
0.0
 11
1854.964866
 21
4055.40011
 31
0.0
  0
INSERT
  8
SUNPOU
  2
ARROWANG
 10
954.964866
 20
4055.40011
 30
0.0
 41
30.0
 42
30.0
 50
180.0
 43
30.0
  0
INSERT
  8
SUNPOU
  2
ARROWANG
 10
1854.964866
 20
4055.40011
 30
0.0
 41
30.0
 42
30.0
 43
30.0
  0
TEXT
  8
SUNPOU
 10
1340.679166
 20
4100.40011
 30
0.0
 40
45.0
  1
900
  7
K
 72
     1
 11
1404.96488
 21
4100.40011
 31
0.0
  0
LINE
  8
SUNPOU
 10
1854.964866
 20
4085.40011
 30
0.0
 11
1854.964866
 21
4085.40011
 31
0.0
  0
LINE
  8
SUNPOU
 10
1929.964866
 20
4085.40011
 30
0.0
 11
1929.964866
 21
4085.40011
 31
0.0
  0
LINE
  8
SUNPOU
 10
1854.964866
 20
4055.40011
 30
0.0
 11
1929.964866
 21
4055.40011
 31
0.0
  0
INSERT
  8
SUNPOU
  2
ARROWANG
 10
1929.964866
 20
4055.40011
 30
0.0
 41
30.0
 42
30.0
 50
180.0
 43
30.0
  0
INSERT
  8
SUNPOU
  2
ARROWANG
 10
1854.964866
 20
4055.40011
 30
0.0
 41
30.0
 42
30.0
 43
30.0
  0
TEXT
  8
SUNPOU
 10
1849.607738
 20
4100.40011
 30
0.0
 40
45.0
  1
75
  7
K
 72
     1
 11
1892.46488
 21
4100.40011
 31
0.0
  0
LINE
  8
SUNPOU
 10
1929.964866
 20
4055.40011
 30
0.0
 11
1989.964866
 21
4055.40011
 31
0.0
  0
LINE
  8
SUNPOU
 10
1854.964866
 20
4055.40011
 30
0.0
 11
1794.964866
 21
4055.40011
 31
0.0
  0
LINE
  8
SUNPOU
 10
954.964866
 20
4175.40011
 30
0.0
 11
954.964866
 21
4175.40011
 31
0.0
  0
LINE
  8
SUNPOU
 10
1289.964866
 20
4325.40011
 30
0.0
 11
1289.964866
 21
4175.40011
 31
0.0
  0
LINE
  8
SUNPOU
 10
954.964866
 20
4205.40011
 30
0.0
 11
1289.964866
 21
4205.40011
 31
0.0
  0
INSERT
  8
SUNPOU
  2
ARROWANG
 10
954.964866
 20
4205.40011
 30
0.0
 41
30.0
 42
30.0
 50
180.0
 43
30.0
  0
INSERT
  8
SUNPOU
  2
ARROWANG
 10
1289.964866
 20
4205.40011
 30
0.0
 41
30.0
 42
30.0
 43
30.0
  0
TEXT
  8
SUNPOU
 10
1058.179166
 20
4250.40011
 30
0.0
 40
45.0
  1
335
  7
K
 72
     1
 11
1122.46488
 21
4250.40011
 31
0.0
  0
LINE
  8
SUNPOU
 10
1289.964866
 20
4175.40011
 30
0.0
 11
1289.964866
 21
4175.40011
 31
0.0
  0
LINE
  8
SUNPOU
 10
1854.964866
 20
4175.40011
 30
0.0
 11
1854.964866
 21
4175.40011
 31
0.0
  0
LINE
  8
SUNPOU
 10
1289.964866
 20
4205.40011
 30
0.0
 11
1854.964866
 21
4205.40011
 31
0.0
  0
INSERT
  8
SUNPOU
  2
ARROWANG
 10
1289.964866
 20
4205.40011
 30
0.0
 41
30.0
 42
30.0
 50
180.0
 43
30.0
  0
INSERT
  8
SUNPOU
  2
ARROWANG
 10
1854.964866
 20
4205.40011
 30
0.0
 41
30.0
 42
30.0
 43
30.0
  0
TEXT
  8
SUNPOU
 10
1508.179166
 20
4250.40011
 30
0.0
 40
45.0
  1
565
  7
K
 72
     1
 11
1572.46488
 21
4250.40011
 31
0.0
  0
LINE
  8
SUNPOU
 10
1959.964866
 20
4430.40011
 30
0.0
 11
2109.964866
 21
4430.40011
 31
0.0
  0
LINE
  8
SUNPOU
 10
1729.964866
 20
4815.40011
 30
0.0
 11
2109.964866
 21
4815.40011
 31
0.0
  0
LINE
  8
SUNPOU
 10
2079.964866
 20
4430.40011
 30
0.0
 11
2079.964866
 21
4815.40011
 31
0.0
  0
INSERT
  8
SUNPOU
  2
ARROWANG
 10
2079.964866
 20
4430.40011
 30
0.0
 41
30.0
 42
30.0
 50
270.0
 43
30.0
  0
INSERT
  8
SUNPOU
  2
ARROWANG
 10
2079.964866
 20
4815.40011
 30
0.0
 41
30.0
 42
30.0
 50
90.0
 43
30.0
  0
TEXT
  8
SUNPOU
 10
2034.964866
 20
4558.614396
 30
0.0
 40
45.0
  1
385
 50
90.0
  7
K
 72
     1
 11
2034.964866
 21
4622.90011
 31
0.0
  0
LINE
  8
SUNPOU
 10
1959.964866
 20
4370.40011
 30
0.0
 11
2109.964866
 21
4370.40011
 31
0.0
  0
LINE
  8
SUNPOU
 10
2109.964866
 20
4430.40011
 30
0.0
 11
2109.964866
 21
4430.40011
 31
0.0
  0
LINE
  8
SUNPOU
 10
2079.964866
 20
4370.40011
 30
0.0
 11
2079.964866
 21
4430.40011
 31
0.0
  0
INSERT
  8
SUNPOU
  2
ARROWANG
 10
2079.964866
 20
4370.40011
 30
0.0
 41
30.0
 42
30.0
 50
90.0
 43
30.0
  0
INSERT
  8
SUNPOU
  2
ARROWANG
 10
2079.964866
 20
4430.40011
 30
0.0
 41
30.0
 42
30.0
 50
270.0
 43
30.0
  0
LINE
  8
SUNPOU
 10
2079.964866
 20
4370.40011
 30
0.0
 11
2079.964866
 21
4271.40011
 31
0.0
  0
LINE
  8
SUNPOU
 10
2079.964866
 20
4430.40011
 30
0.0
 11
2079.964866
 21
4490.40011
 31
0.0
  0
TEXT
  8
SUNPOU
 10
2034.964866
 20
4276.971538
 30
0.0
 40
45.0
  1
60
 50
90.0
  7
K
 72
     1
 11
2034.964866
 21
4320.90011
 31
0.0
  0
LINE
  8
SUNPOU
 10
1524.964866
 20
4355.40011
 30
0.0
 11
1524.314129
 21
4355.40011
 31
0.0
  0
LINE
  8
SUNPOU
 10
1374.964866
 20
4395.40011
 30
0.0
 11
1584.314129
 21
4395.40011
 31
0.0
  0
INSERT
  8
SUNPOU
  2
ARROWANG
 10
1554.314129
 20
4355.40011
 30
0.0
 41
30.0
 42
30.0
 50
90.0
 43
30.0
  0
INSERT
  8
SUNPOU
  2
ARROWANG
 10
1554.314129
 20
4395.40011
 30
0.0
 41
30.0
 42
30.0
 50
270.0
 43
30.0
  0
LINE
  8
SUNPOU
 10
1554.314129
 20
4395.40011
 30
0.0
 11
1554.314129
 21
4543.994003
 31
0.0
  0
LINE
  8
SUNPOU
 10
1554.314129
 20
4355.40011
 30
0.0
 11
1554.31413
 21
4295.40011
 31
0.0
  0
TEXT
  8
SUNPOU
 10
1509.314129
 20
4456.13686
 30
0.0
 40
45.0
  1
40
 50
90.0
  7
K
 72
     1
 11
1509.314129
 21
4498.994003
 31
0.0
  0
LINE
  8
JISSEN
 10
2689.964866
 20
4355.40011
 30
0.0
 11
2664.964866
 21
4355.40011
 31
0.0
  0
LINE
  8
JISSEN
 10
2664.964866
 20
4355.40011
 30
0.0
 11
2655.964866
 21
4370.40011
 31
0.0
  0
LINE
  8
JISSEN
 10
2655.964866
 20
4370.40011
 30
0.0
 11
2614.964866
 21
4370.40011
 31
0.0
  0
LINE
  8
JISSEN
 10
2614.964866
 20
4430.40011
 30
0.0
 11
2614.964866
 21
4370.40011
 31
0.0
  0
LINE
  8
JISSEN
 10
2579.964866
 20
4815.40011
 30
0.0
 11
2579.964866
 21
4755.40011
 31
0.0
  0
LINE
  8
JISSEN
 10
2579.964866
 20
4755.40011
 30
0.0
 11
2614.964866
 21
4430.40011
 31
0.0
  0
LINE
  8
JISSEN
 10
2689.964866
 20
4800.40011
 30
0.0
 11
2689.964866
 21
4355.40011
 31
0.0
  0
LINE
  8
JISSEN
 10
2579.964866
 20
4815.40011
 30
0.0
 11
2657.964866
 21
4815.40011
 31
0.0
  0
LINE
  8
JISSEN
 10
2657.964866
 20
4815.40011
 30
0.0
 11
2663.964866
 21
4800.40011
 31
0.0
  0
LINE
  8
JISSEN
 10
2663.964866
 20
4800.40011
 30
0.0
 11
2689.964866
 21
4800.40011
 31
0.0
  0
LINE
  8
JISSEN
 10
2614.964866
 20
4420.40011
 30
0.0
 11
2664.964866
 21
4420.40011
 31
0.0
  0
LINE
  8
JISSEN
 10
2664.964866
 20
4420.40011
 30
0.0
 11
2664.964866
 21
4400.40011
 31
0.0
  0
LINE
  8
JISSEN
 10
2664.964866
 20
4400.40011
 30
0.0
 11
2614.964866
 21
4400.40011
 31
0.0
  0
LINE
  8
ITTEN
 10
2564.964866
 20
4410.40011
 30
0.0
 11
2714.964866
 21
4410.40011
 31
0.0
  0
LINE
  8
ITTEN
 10
2789.964866
 20
4505.40011
 30
0.0
 11
2889.964866
 21
4505.40011
 31
0.0
  0
LINE
  8
ITTEN
 10
2789.964866
 20
4735.40011
 30
0.0
 11
2889.964866
 21
4735.40011
 31
0.0
  0
ARC
  8
TENSEN
 10
3126.464866
 20
4505.40011
 30
0.0
 40
12.5
 50
270.0
 51
90.0
  0
ARC
  8
JISSEN
 10
2853.464866
 20
4505.40011
 30
0.0
 40
12.5
 50
90.0
 51
270.0
  0
LINE
  8
JISSEN
 10
2853.464866
 20
4517.90011
 30
0.0
 11
2989.964866
 21
4517.90011
 31
0.0
  0
LINE
  8
TENSEN
 10
2989.964866
 20
4517.90011
 30
0.0
 11
3126.464866
 21
4517.90011
 31
0.0
  0
LINE
  8
TENSEN
 10
3126.464866
 20
4492.90011
 30
0.0
 11
2989.964866
 21
4492.90011
 31
0.0
  0
LINE
  8
JISSEN
 10
2989.964866
 20
4492.90011
 30
0.0
 11
2853.464866
 21
4492.90011
 31
0.0
  0
LINE
  8
ITTEN
 10
2789.964866
 20
4505.40011
 30
0.0
 11
3189.964866
 21
4505.40011
 31
0.0
  0
LINE
  8
ITTEN
 10
2789.964866
 20
4735.40011
 30
0.0
 11
3189.964866
 21
4735.40011
 31
0.0
  0
LINE
  8
JISSEN
 10
2989.964866
 20
4722.90011
 30
0.0
 11
2853.464866
 21
4722.90011
 31
0.0
  0
LINE
  8
TENSEN
 10
3126.464866
 20
4722.90011
 30
0.0
 11
2989.964866
 21
4722.90011
 31
0.0
  0
LINE
  8
TENSEN
 10
2989.964866
 20
4747.90011
 30
0.0
 11
3126.464866
 21
4747.90011
 31
0.0
  0
LINE
  8
JISSEN
 10
2853.464866
 20
4747.90011
 30
0.0
 11
2989.964866
 21
4747.90011
 31
0.0
  0
ARC
  8
JISSEN
 10
2853.464866
 20
4735.40011
 30
0.0
 40
12.5
 50
90.0
 51
270.0
  0
ARC
  8
TENSEN
 10
3126.464866
 20
4735.40011
 30
0.0
 40
12.5
 50
270.0
 51
90.0
  0
LINE
  8
JISSEN
 10
2657.964866
 20
4815.40011
 30
0.0
 11
2989.964866
 21
4815.40011
 31
0.0
  0
LINE
  8
JISSEN
 10
2989.964866
 20
4800.40011
 30
0.0
 11
2689.964866
 21
4800.40011
 31
0.0
  0
LINE
  8
TENSEN
 10
2655.964866
 20
4370.40011
 30
0.0
 11
2989.964866
 21
4370.40011
 31
0.0
  0
LINE
  8
JISSEN
 10
2989.964866
 20
4355.40011
 30
0.0
 11
2689.964866
 21
4355.40011
 31
0.0
  0
ARC
  8
TENSEN
 10
3126.464866
 20
4735.40011
 30
0.0
 40
12.5
 50
270.0
 51
90.0
  0
ARC
  8
TENSEN
 10
3126.464866
 20
4505.40011
 30
0.0
 40
12.5
 50
270.0
 51
90.0
  0
LINE
  8
ITTEN
 10
3189.964866
 20
4735.40011
 30
0.0
 11
3089.964866
 21
4735.40011
 31
0.0
  0
LINE
  8
ITTEN
 10
3189.964866
 20
4505.40011
 30
0.0
 11
3089.964866
 21
4505.40011
 31
0.0
  0
LINE
  8
ITTEN
 10
3414.964866
 20
4410.40011
 30
0.0
 11
3264.964866
 21
4410.40011
 31
0.0
  0
LINE
  8
TENSEN
 10
3314.964866
 20
4400.40011
 30
0.0
 11
3364.964866
 21
4400.40011
 31
0.0
  0
LINE
  8
TENSEN
 10
3314.964866
 20
4420.40011
 30
0.0
 11
3314.964866
 21
4400.40011
 31
0.0
  0
LINE
  8
TENSEN
 10
3364.964866
 20
4420.40011
 30
0.0
 11
3314.964866
 21
4420.40011
 31
0.0
  0
LINE
  8
TENSEN
 10
3315.964866
 20
4800.40011
 30
0.0
 11
3289.964866
 21
4800.40011
 31
0.0
  0
LINE
  8
TENSEN
 10
3321.964866
 20
4815.40011
 30
0.0
 11
3315.964866
 21
4800.40011
 31
0.0
  0
LINE
  8
JISSEN
 10
3399.964866
 20
4815.40011
 30
0.0
 11
3321.964866
 21
4815.40011
 31
0.0
  0
LINE
  8
TENSEN
 10
3289.964866
 20
4800.40011
 30
0.0
 11
3289.964866
 21
4355.40011
 31
0.0
  0
LINE
  8
JISSEN
 10
3399.964866
 20
4755.40011
 30
0.0
 11
3364.964866
 21
4430.40011
 31
0.0
  0
LINE
  8
JISSEN
 10
3399.964866
 20
4815.40011
 30
0.0
 11
3399.964866
 21
4755.40011
 31
0.0
  0
LINE
  8
JISSEN
 10
3364.964866
 20
4430.40011
 30
0.0
 11
3364.964866
 21
4370.40011
 31
0.0
  0
LINE
  8
JISSEN
 10
3323.964866
 20
4370.40011
 30
0.0
 11
3364.964866
 21
4370.40011
 31
0.0
  0
LINE
  8
JISSEN
 10
3314.964866
 20
4355.40011
 30
0.0
 11
3323.964866
 21
4370.40011
 31
0.0
  0
LINE
  8
JISSEN
 10
3289.964866
 20
4355.40011
 30
0.0
 11
3314.964866
 21
4355.40011
 31
0.0
  0
LINE
  8
JISSEN
 10
3321.964866
 20
4815.40011
 30
0.0
 11
2989.964866
 21
4815.40011
 31
0.0
  0
LINE
  8
TENSEN
 10
3289.964866
 20
4800.40011
 30
0.0
 11
2989.964866
 21
4800.40011
 31
0.0
  0
LINE
  8
JISSEN
 10
3323.964866
 20
4370.40011
 30
0.0
 11
2989.964866
 21
4370.40011
 31
0.0
  0
LINE
  8
JISSEN
 10
3289.964866
 20
4355.40011
 30
0.0
 11
2989.964866
 21
4355.40011
 31
0.0
  0
LINE
  8
JISSEN
 10
3364.964866
 20
4430.40011
 30
0.0
 11
2989.964866
 21
4430.40011
 31
0.0
  0
LINE
  8
ITTEN
 10
2989.964866
 20
4915.40011
 30
0.0
 11
2989.964866
 21
4303.534468
 31
0.0
  0
ARC
  8
JISSEN
 10
3399.964866
 20
6186.233443
 30
0.0
 40
1430.833333
 50
253.348699
 51
270.0
  0
LINE
  8
JISSEN
 10
3364.964866
 20
4755.828246
 30
0.0
 11
3364.964866
 21
4430.40011
 31
0.0
  0
LINE
  8
SUNPOU
 10
2579.964866
 20
4845.40011
 30
0.0
 11
2579.964866
 21
5145.40011
 31
0.0
  0
LINE
  8
SUNPOU
 10
3399.964866
 20
4845.40011
 30
0.0
 11
3399.964866
 21
5145.40011
 31
0.0
  0
LINE
  8
SUNPOU
 10
2579.964866
 20
5115.40011
 30
0.0
 11
3399.964866
 21
5115.40011
 31
0.0
  0
INSERT
  8
SUNPOU
  2
ARROWANG
 10
2579.964866
 20
5115.40011
 30
0.0
 41
30.0
 42
30.0
 50
180.0
 43
30.0
  0
INSERT
  8
SUNPOU
  2
ARROWANG
 10
3399.964866
 20
5115.40011
 30
0.0
 41
30.0
 42
30.0
 43
30.0
  0
TEXT
  8
SUNPOU
 10
2925.679166
 20
5160.40011
 30
0.0
 40
45.0
  1
820
  7
K
 72
     1
 11
2989.96488
 21
5160.40011
 31
0.0
  0
LINE
  8
SUNPOU
 10
2579.964866
 20
4935.40011
 30
0.0
 11
2579.964866
 21
4935.40011
 31
0.0
  0
LINE
  8
SUNPOU
 10
2689.964866
 20
4830.40011
 30
0.0
 11
2689.964866
 21
4995.40011
 31
0.0
  0
LINE
  8
SUNPOU
 10
2579.964866
 20
4965.40011
 30
0.0
 11
2689.964866
 21
4965.40011
 31
0.0
  0
INSERT
  8
SUNPOU
  2
ARROWANG
 10
2579.964866
 20
4965.40011
 30
0.0
 41
30.0
 42
30.0
 50
180.0
 43
30.0
  0
INSERT
  8
SUNPOU
  2
ARROWANG
 10
2689.964866
 20
4965.40011
 30
0.0
 41
30.0
 42
30.0
 43
30.0
  0
TEXT
  8
SUNPOU
 10
2567.46488
 20
5010.40011
 30
0.0
 40
45.0
  1
110
  7
K
 72
     1
 11
2634.96488
 21
5010.40011
 31
0.0
  0
LINE
  8
SUNPOU
 10
3289.964866
 20
4830.40011
 30
0.0
 11
3289.964866
 21
4995.40011
 31
0.0
  0
LINE
  8
SUNPOU
 10
3399.964866
 20
4935.40011
 30
0.0
 11
3399.964866
 21
4935.40011
 31
0.0
  0
LINE
  8
SUNPOU
 10
3289.964866
 20
4965.40011
 30
0.0
 11
3399.964866
 21
4965.40011
 31
0.0
  0
INSERT
  8
SUNPOU
  2
ARROWANG
 10
3289.964866
 20
4965.40011
 30
0.0
 41
30.0
 42
30.0
 50
180.0
 43
30.0
  0
INSERT
  8
SUNPOU
  2
ARROWANG
 10
3399.964866
 20
4965.40011
 30
0.0
 41
30.0
 42
30.0
 43
30.0
  0
TEXT
  8
SUNPOU
 10
3277.46488
 20
5010.40011
 30
0.0
 40
45.0
  1
110
  7
K
 72
     1
 11
3344.96488
 21
5010.40011
 31
0.0
  0
LINE
  8
SUNPOU
 10
2689.964866
 20
4935.40011
 30
0.0
 11
2689.964866
 21
4935.40011
 31
0.0
  0
LINE
  8
SUNPOU
 10
3289.964866
 20
4935.40011
 30
0.0
 11
3289.964866
 21
4935.40011
 31
0.0
  0
LINE
  8
SUNPOU
 10
2689.964866
 20
4965.40011
 30
0.0
 11
3289.964866
 21
4965.40011
 31
0.0
  0
INSERT
  8
SUNPOU
  2
ARROWANG
 10
2689.964866
 20
4965.40011
 30
0.0
 41
30.0
 42
30.0
 50
180.0
 43
30.0
  0
INSERT
  8
SUNPOU
  2
ARROWANG
 10
3289.964866
 20
4965.40011
 30
0.0
 41
30.0
 42
30.0
 43
30.0
  0
TEXT
  8
SUNPOU
 10
2924.607738
 20
5010.40011
 30
0.0
 40
45.0
  1
600
  7
K
 72
     1
 11
2989.96488
 21
5010.40011
 31
0.0
  0
LINE
  8
SUNPOU
 10
3429.964866
 20
4755.40011
 30
0.0
 11
3579.964866
 21
4755.40011
 31
0.0
  0
LINE
  8
SUNPOU
 10
3429.964866
 20
4815.40011
 30
0.0
 11
3579.964866
 21
4815.40011
 31
0.0
  0
LINE
  8
SUNPOU
 10
3549.964866
 20
4755.40011
 30
0.0
 11
3549.964866
 21
4815.40011
 31
0.0
  0
INSERT
  8
SUNPOU
  2
ARROWANG
 10
3549.964866
 20
4755.40011
 30
0.0
 41
30.0
 42
30.0
 50
90.0
 43
30.0
  0
INSERT
  8
SUNPOU
  2
ARROWANG
 10
3549.964866
 20
4815.40011
 30
0.0
 41
30.0
 42
30.0
 50
270.0
 43
30.0
  0
LINE
  8
SUNPOU
 10
3549.964866
 20
4815.40011
 30
0.0
 11
3549.964866
 21
4914.40011
 31
0.0
  0
LINE
  8
SUNPOU
 10
3549.964866
 20
4755.40011
 30
0.0
 11
3549.964867
 21
4695.40011
 31
0.0
  0
TEXT
  8
SUNPOU
 10
3504.964866
 20
4820.971538
 30
0.0
 40
45.0
  1
60
 50
90.0
  7
K
 72
     1
 11
3504.964866
 21
4864.90011
 31
0.0
  0
LINE
  8
SUNPOU
 10
3394.964866
 20
4430.40011
 30
0.0
 11
3579.964866
 21
4430.40011
 31
0.0
  0
LINE
  8
SUNPOU
 10
3579.964866
 20
4755.40011
 30
0.0
 11
3579.964866
 21
4755.40011
 31
0.0
  0
LINE
  8
SUNPOU
 10
3549.964866
 20
4430.40011
 30
0.0
 11
3549.964866
 21
4755.40011
 31
0.0
  0
INSERT
  8
SUNPOU
  2
ARROWANG
 10
3549.964866
 20
4430.40011
 30
0.0
 41
30.0
 42
30.0
 50
270.0
 43
30.0
  0
INSERT
  8
SUNPOU
  2
ARROWANG
 10
3549.964866
 20
4755.40011
 30
0.0
 41
30.0
 42
30.0
 50
90.0
 43
30.0
  0
TEXT
  8
SUNPOU
 10
3504.964866
 20
4528.614396
 30
0.0
 40
45.0
  1
325
 50
90.0
  7
K
 72
     1
 11
3504.964866
 21
4592.90011
 31
0.0
  0
LINE
  8
SUNPOU
 10
3394.964866
 20
4370.40011
 30
0.0
 11
3579.964866
 21
4370.40011
 31
0.0
  0
LINE
  8
SUNPOU
 10
3579.964866
 20
4430.40011
 30
0.0
 11
3579.964866
 21
4430.40011
 31
0.0
  0
LINE
  8
SUNPOU
 10
3549.964866
 20
4370.40011
 30
0.0
 11
3549.964866
 21
4430.40011
 31
0.0
  0
INSERT
  8
SUNPOU
  2
ARROWANG
 10
3549.964866
 20
4370.40011
 30
0.0
 41
30.0
 42
30.0
 50
90.0
 43
30.0
  0
INSERT
  8
SUNPOU
  2
ARROWANG
 10
3549.964866
 20
4430.40011
 30
0.0
 41
30.0
 42
30.0
 50
270.0
 43
30.0
  0
LINE
  8
SUNPOU
 10
3549.964866
 20
4370.40011
 30
0.0
 11
3549.964866
 21
4271.40011
 31
0.0
  0
LINE
  8
SUNPOU
 10
3549.964866
 20
4430.40011
 30
0.0
 11
3549.964866
 21
4490.40011
 31
0.0
  0
TEXT
  8
SUNPOU
 10
3504.964866
 20
4276.971538
 30
0.0
 40
45.0
  1
60
 50
90.0
  7
K
 72
     1
 11
3504.964866
 21
4320.90011
 31
0.0
  0
LINE
  8
SUNPOU
 10
2614.964866
 20
4340.40011
 30
0.0
 11
2614.964866
 21
4025.40011
 31
0.0
  0
LINE
  8
SUNPOU
 10
3364.964866
 20
4340.40011
 30
0.0
 11
3364.964866
 21
4025.40011
 31
0.0
  0
LINE
  8
SUNPOU
 10
2614.964866
 20
4055.40011
 30
0.0
 11
3364.964866
 21
4055.40011
 31
0.0
  0
INSERT
  8
SUNPOU
  2
ARROWANG
 10
2614.964866
 20
4055.40011
 30
0.0
 41
30.0
 42
30.0
 50
180.0
 43
30.0
  0
INSERT
  8
SUNPOU
  2
ARROWANG
 10
3364.964866
 20
4055.40011
 30
0.0
 41
30.0
 42
30.0
 43
30.0
  0
TEXT
  8
SUNPOU
 10
2925.679166
 20
4100.40011
 30
0.0
 40
45.0
  1
750
  7
K
 72
     1
 11
2989.96488
 21
4100.40011
 31
0.0
  0
LINE
  8
SUNPOU
 10
2614.964866
 20
4235.40011
 30
0.0
 11
2614.964866
 21
4235.40011
 31
0.0
  0
LINE
  8
SUNPOU
 10
2689.964866
 20
4325.40011
 30
0.0
 11
2689.964866
 21
4175.40011
 31
0.0
  0
LINE
  8
SUNPOU
 10
2614.964866
 20
4205.40011
 30
0.0
 11
2689.964866
 21
4205.40011
 31
0.0
  0
INSERT
  8
SUNPOU
  2
ARROWANG
 10
2689.964866
 20
4205.40011
 30
0.0
 41
30.0
 42
30.0
 50
180.0
 43
30.0
  0
INSERT
  8
SUNPOU
  2
ARROWANG
 10
2614.964866
 20
4205.40011
 30
0.0
 41
30.0
 42
30.0
 43
30.0
  0
TEXT
  8
SUNPOU
 10
2609.607738
 20
4250.40011
 30
0.0
 40
45.0
  1
75
  7
K
 72
     1
 11
2652.46488
 21
4250.40011
 31
0.0
  0
LINE
  8
SUNPOU
 10
2689.964866
 20
4205.40011
 30
0.0
 11
2749.964866
 21
4205.40011
 31
0.0
  0
LINE
  8
SUNPOU
 10
2614.964866
 20
4205.40011
 30
0.0
 11
2554.964866
 21
4205.40011
 31
0.0
  0
LINE
  8
SUNPOU
 10
3289.964866
 20
4325.40011
 30
0.0
 11
3289.964866
 21
4175.40011
 31
0.0
  0
LINE
  8
SUNPOU
 10
3364.964866
 20
4235.40011
 30
0.0
 11
3364.964866
 21
4235.40011
 31
0.0
  0
LINE
  8
SUNPOU
 10
3289.964866
 20
4205.40011
 30
0.0
 11
3364.964866
 21
4205.40011
 31
0.0
  0
INSERT
  8
SUNPOU
  2
ARROWANG
 10
3364.964866
 20
4205.40011
 30
0.0
 41
30.0
 42
30.0
 50
180.0
 43
30.0
  0
INSERT
  8
SUNPOU
  2
ARROWANG
 10
3289.964866
 20
4205.40011
 30
0.0
 41
30.0
 42
30.0
 43
30.0
  0
TEXT
  8
SUNPOU
 10
3284.607738
 20
4250.40011
 30
0.0
 40
45.0
  1
75
  7
K
 72
     1
 11
3327.46488
 21
4250.40011
 31
0.0
  0
LINE
  8
SUNPOU
 10
3364.964866
 20
4205.40011
 30
0.0
 11
3424.964866
 21
4205.40011
 31
0.0
  0
LINE
  8
SUNPOU
 10
3289.964866
 20
4205.40011
 30
0.0
 11
3229.964866
 21
4205.40011
 31
0.0
  0
LINE
  8
SUNPOU
 10
2689.964866
 20
4175.40011
 30
0.0
 11
2689.964866
 21
4175.40011
 31
0.0
  0
LINE
  8
SUNPOU
 10
3289.964866
 20
4175.40011
 30
0.0
 11
3289.964866
 21
4175.40011
 31
0.0
  0
LINE
  8
SUNPOU
 10
2689.964866
 20
4205.40011
 30
0.0
 11
3289.964866
 21
4205.40011
 31
0.0
  0
INSERT
  8
SUNPOU
  2
ARROWANG
 10
2689.964866
 20
4205.40011
 30
0.0
 41
30.0
 42
30.0
 50
180.0
 43
30.0
  0
INSERT
  8
SUNPOU
  2
ARROWANG
 10
3289.964866
 20
4205.40011
 30
0.0
 41
30.0
 42
30.0
 43
30.0
  0
TEXT
  8
SUNPOU
 10
2924.607738
 20
4250.40011
 30
0.0
 40
45.0
  1
600
  7
K
 72
     1
 11
2989.96488
 21
4250.40011
 31
0.0
  0
TEXT
  8
SUNPOU
 10
6442.83698
 20
4100.40011
 30
0.0
 40
45.0
  1
600
  7
K
 72
     1
 11
6508.194123
 21
4100.40011
 31
0.0
  0
INSERT
  8
SUNPOU
  2
ARROWANG
 10
6808.194108
 20
4055.40011
 30
0.0
 41
30.0
 42
30.0
 43
30.0
  0
INSERT
  8
SUNPOU
  2
ARROWANG
 10
6208.194108
 20
4055.40011
 30
0.0
 41
30.0
 42
30.0
 50
180.0
 43
30.0
  0
LINE
  8
SUNPOU
 10
6208.194108
 20
4055.40011
 30
0.0
 11
6808.194108
 21
4055.40011
 31
0.0
  0
LINE
  8
SUNPOU
 10
6808.194108
 20
4025.40011
 30
0.0
 11
6808.194108
 21
4025.40011
 31
0.0
  0
LINE
  8
SUNPOU
 10
6208.194108
 20
4025.40011
 30
0.0
 11
6208.194108
 21
4025.40011
 31
0.0
  0
LINE
  8
SUNPOU
 10
6808.194108
 20
4055.40011
 30
0.0
 11
6748.194108
 21
4055.40011
 31
0.0
  0
LINE
  8
SUNPOU
 10
6883.194108
 20
4055.40011
 30
0.0
 11
6943.194108
 21
4055.40011
 31
0.0
  0
TEXT
  8
SUNPOU
 10
6802.83698
 20
4100.40011
 30
0.0
 40
45.0
  1
75
  7
K
 72
     1
 11
6845.694123
 21
4100.40011
 31
0.0
  0
INSERT
  8
SUNPOU
  2
ARROWANG
 10
6808.194108
 20
4055.40011
 30
0.0
 41
30.0
 42
30.0
 43
30.0
  0
INSERT
  8
SUNPOU
  2
ARROWANG
 10
6883.194108
 20
4055.40011
 30
0.0
 41
30.0
 42
30.0
 50
180.0
 43
30.0
  0
LINE
  8
SUNPOU
 10
6808.194108
 20
4055.40011
 30
0.0
 11
6883.194108
 21
4055.40011
 31
0.0
  0
LINE
  8
SUNPOU
 10
6883.194108
 20
4085.40011
 30
0.0
 11
6883.194108
 21
4085.40011
 31
0.0
  0
LINE
  8
SUNPOU
 10
6808.194108
 20
4175.40011
 30
0.0
 11
6808.194108
 21
4025.40011
 31
0.0
  0
LINE
  8
SUNPOU
 10
6133.194108
 20
4055.40011
 30
0.0
 11
6073.194108
 21
4055.40011
 31
0.0
  0
LINE
  8
SUNPOU
 10
6208.194108
 20
4055.40011
 30
0.0
 11
6268.194108
 21
4055.40011
 31
0.0
  0
TEXT
  8
SUNPOU
 10
6127.83698
 20
4100.40011
 30
0.0
 40
45.0
  1
75
  7
K
 72
     1
 11
6170.694123
 21
4100.40011
 31
0.0
  0
INSERT
  8
SUNPOU
  2
ARROWANG
 10
6133.194108
 20
4055.40011
 30
0.0
 41
30.0
 42
30.0
 43
30.0
  0
INSERT
  8
SUNPOU
  2
ARROWANG
 10
6208.194108
 20
4055.40011
 30
0.0
 41
30.0
 42
30.0
 50
180.0
 43
30.0
  0
LINE
  8
SUNPOU
 10
6133.194108
 20
4055.40011
 30
0.0
 11
6208.194108
 21
4055.40011
 31
0.0
  0
LINE
  8
SUNPOU
 10
6208.194108
 20
4175.40011
 30
0.0
 11
6208.194108
 21
4025.40011
 31
0.0
  0
LINE
  8
SUNPOU
 10
6133.194108
 20
4085.40011
 30
0.0
 11
6133.194108
 21
4085.40011
 31
0.0
  0
TEXT
  8
SUNPOU
 10
6443.908408
 20
3950.40011
 30
0.0
 40
45.0
  1
750
  7
K
 72
     1
 11
6508.194123
 21
3950.40011
 31
0.0
  0
INSERT
  8
SUNPOU
  2
ARROWANG
 10
6883.194108
 20
3905.40011
 30
0.0
 41
30.0
 42
30.0
 43
30.0
  0
INSERT
  8
SUNPOU
  2
ARROWANG
 10
6133.194108
 20
3905.40011
 30
0.0
 41
30.0
 42
30.0
 50
180.0
 43
30.0
  0
LINE
  8
SUNPOU
 10
6133.194108
 20
3905.40011
 30
0.0
 11
6883.194108
 21
3905.40011
 31
0.0
  0
LINE
  8
SUNPOU
 10
6883.194108
 20
4190.40011
 30
0.0
 11
6883.194108
 21
3875.40011
 31
0.0
  0
LINE
  8
SUNPOU
 10
6133.194108
 20
4190.40011
 30
0.0
 11
6133.194108
 21
3875.40011
 31
0.0
  0
TEXT
  8
SUNPOU
 10
7023.194108
 20
4126.971538
 30
0.0
 40
45.0
  1
60
 50
90.0
  7
K
 72
     1
 11
7023.194108
 21
4170.90011
 31
0.0
  0
LINE
  8
SUNPOU
 10
7068.194108
 20
4280.40011
 30
0.0
 11
7068.194108
 21
4340.40011
 31
0.0
  0
LINE
  8
SUNPOU
 10
7068.194108
 20
4220.40011
 30
0.0
 11
7068.194108
 21
4121.40011
 31
0.0
  0
INSERT
  8
SUNPOU
  2
ARROWANG
 10
7068.194108
 20
4220.40011
 30
0.0
 41
30.0
 42
30.0
 50
90.0
 43
30.0
  0
LINE
  8
SUNPOU
 10
7068.194108
 20
4220.40011
 30
0.0
 11
7068.194108
 21
4280.40011
 31
0.0
  0
LINE
  8
SUNPOU
 10
7098.194108
 20
4280.40011
 30
0.0
 11
7098.194108
 21
4280.40011
 31
0.0
  0
LINE
  8
SUNPOU
 10
6913.194108
 20
4220.40011
 30
0.0
 11
7098.194108
 21
4220.40011
 31
0.0
  0
LINE
  8
SUNPOU
 10
7098.194108
 20
4755.40011
 30
0.0
 11
7098.194108
 21
4755.40011
 31
0.0
  0
LINE
  8
SUNPOU
 10
6913.194108
 20
4280.40011
 30
0.0
 11
7098.194108
 21
4280.40011
 31
0.0
  0
TEXT
  8
SUNPOU
 10
7023.194108
 20
4820.971538
 30
0.0
 40
45.0
  1
60
 50
90.0
  7
K
 72
     1
 11
7023.194108
 21
4864.90011
 31
0.0
  0
LINE
  8
SUNPOU
 10
7068.194108
 20
4755.40011
 30
0.0
 11
7068.194109
 21
4695.40011
 31
0.0
  0
LINE
  8
SUNPOU
 10
7068.194108
 20
4815.40011
 30
0.0
 11
7068.194108
 21
4914.40011
 31
0.0
  0
INSERT
  8
SUNPOU
  2
ARROWANG
 10
7068.194108
 20
4815.40011
 30
0.0
 41
30.0
 42
30.0
 50
270.0
 43
30.0
  0
LINE
  8
SUNPOU
 10
7068.194108
 20
4755.40011
 30
0.0
 11
7068.194108
 21
4815.40011
 31
0.0
  0
LINE
  8
SUNPOU
 10
6948.194108
 20
4815.40011
 30
0.0
 11
7098.194108
 21
4815.40011
 31
0.0
  0
LINE
  8
SUNPOU
 10
6948.194108
 20
4755.40011
 30
0.0
 11
7098.194108
 21
4755.40011
 31
0.0
  0
TEXT
  8
SUNPOU
 10
6442.83698
 20
5010.40011
 30
0.0
 40
45.0
  1
600
  7
K
 72
     1
 11
6508.194123
 21
5010.40011
 31
0.0
  0
INSERT
  8
SUNPOU
  2
ARROWANG
 10
6808.194108
 20
4965.40011
 30
0.0
 41
30.0
 42
30.0
 43
30.0
  0
INSERT
  8
SUNPOU
  2
ARROWANG
 10
6208.194108
 20
4965.40011
 30
0.0
 41
30.0
 42
30.0
 50
180.0
 43
30.0
  0
LINE
  8
SUNPOU
 10
6208.194108
 20
4965.40011
 30
0.0
 11
6808.194108
 21
4965.40011
 31
0.0
  0
LINE
  8
SUNPOU
 10
6808.194108
 20
4935.40011
 30
0.0
 11
6808.194108
 21
4935.40011
 31
0.0
  0
LINE
  8
SUNPOU
 10
6208.194108
 20
4935.40011
 30
0.0
 11
6208.194108
 21
4935.40011
 31
0.0
  0
TEXT
  8
SUNPOU
 10
6795.694123
 20
5010.40011
 30
0.0
 40
45.0
  1
110
  7
K
 72
     1
 11
6863.194123
 21
5010.40011
 31
0.0
  0
INSERT
  8
SUNPOU
  2
ARROWANG
 10
6918.194108
 20
4965.40011
 30
0.0
 41
30.0
 42
30.0
 43
30.0
  0
INSERT
  8
SUNPOU
  2
ARROWANG
 10
6808.194108
 20
4965.40011
 30
0.0
 41
30.0
 42
30.0
 50
180.0
 43
30.0
  0
LINE
  8
SUNPOU
 10
6808.194108
 20
4965.40011
 30
0.0
 11
6918.194108
 21
4965.40011
 31
0.0
  0
LINE
  8
SUNPOU
 10
6918.194108
 20
4935.40011
 30
0.0
 11
6918.194108
 21
4935.40011
 31
0.0
  0
LINE
  8
SUNPOU
 10
6808.194108
 20
4830.40011
 30
0.0
 11
6808.194108
 21
4995.40011
 31
0.0
  0
TEXT
  8
SUNPOU
 10
6085.694123
 20
5010.40011
 30
0.0
 40
45.0
  1
110
  7
K
 72
     1
 11
6153.194123
 21
5010.40011
 31
0.0
  0
INSERT
  8
SUNPOU
  2
ARROWANG
 10
6208.194108
 20
4965.40011
 30
0.0
 41
30.0
 42
30.0
 43
30.0
  0
INSERT
  8
SUNPOU
  2
ARROWANG
 10
6098.194108
 20
4965.40011
 30
0.0
 41
30.0
 42
30.0
 50
180.0
 43
30.0
  0
LINE
  8
SUNPOU
 10
6098.194108
 20
4965.40011
 30
0.0
 11
6208.194108
 21
4965.40011
 31
0.0
  0
LINE
  8
SUNPOU
 10
6208.194108
 20
4830.40011
 30
0.0
 11
6208.194108
 21
4995.40011
 31
0.0
  0
LINE
  8
SUNPOU
 10
6098.194108
 20
4935.40011
 30
0.0
 11
6098.194108
 21
4935.40011
 31
0.0
  0
TEXT
  8
SUNPOU
 10
6443.908408
 20
5160.40011
 30
0.0
 40
45.0
  1
820
  7
K
 72
     1
 11
6508.194123
 21
5160.40011
 31
0.0
  0
INSERT
  8
SUNPOU
  2
ARROWANG
 10
6918.194108
 20
5115.40011
 30
0.0
 41
30.0
 42
30.0
 43
30.0
  0
INSERT
  8
SUNPOU
  2
ARROWANG
 10
6098.194108
 20
5115.40011
 30
0.0
 41
30.0
 42
30.0
 50
180.0
 43
30.0
  0
LINE
  8
SUNPOU
 10
6098.194108
 20
5115.40011
 30
0.0
 11
6918.194108
 21
5115.40011
 31
0.0
  0
LINE
  8
SUNPOU
 10
6918.194108
 20
4845.40011
 30
0.0
 11
6918.194108
 21
5145.40011
 31
0.0
  0
LINE
  8
SUNPOU
 10
6098.194108
 20
4845.40011
 30
0.0
 11
6098.194108
 21
5145.40011
 31
0.0
  0
LINE
  8
JISSEN
 10
6883.194108
 20
4755.828246
 30
0.0
 11
6883.194108
 21
4280.40011
 31
0.0
  0
ARC
  8
JISSEN
 10
6918.194108
 20
6186.233443
 30
0.0
 40
1430.833333
 50
253.348699
 51
270.0
  0
LINE
  8
ITTEN
 10
6508.194108
 20
4915.40011
 30
0.0
 11
6508.194108
 21
4154.732045
 31
0.0
  0
LINE
  8
JISSEN
 10
6883.194108
 20
4280.40011
 30
0.0
 11
6508.194108
 21
4280.40011
 31
0.0
  0
LINE
  8
JISSEN
 10
6808.194108
 20
4205.40011
 30
0.0
 11
6508.194108
 21
4205.40011
 31
0.0
  0
LINE
  8
JISSEN
 10
6842.194108
 20
4220.40011
 30
0.0
 11
6508.194108
 21
4220.40011
 31
0.0
  0
LINE
  8
TENSEN
 10
6808.194108
 20
4800.40011
 30
0.0
 11
6508.194108
 21
4800.40011
 31
0.0
  0
LINE
  8
JISSEN
 10
6840.194108
 20
4815.40011
 30
0.0
 11
6508.194108
 21
4815.40011
 31
0.0
  0
LINE
  8
JISSEN
 10
6808.194108
 20
4205.40011
 30
0.0
 11
6833.194108
 21
4205.40011
 31
0.0
  0
LINE
  8
JISSEN
 10
6833.194108
 20
4205.40011
 30
0.0
 11
6842.194108
 21
4220.40011
 31
0.0
  0
LINE
  8
JISSEN
 10
6842.194108
 20
4220.40011
 30
0.0
 11
6883.194108
 21
4220.40011
 31
0.0
  0
LINE
  8
JISSEN
 10
6883.194108
 20
4280.40011
 30
0.0
 11
6883.194108
 21
4220.40011
 31
0.0
  0
LINE
  8
JISSEN
 10
6918.194108
 20
4815.40011
 30
0.0
 11
6918.194108
 21
4755.40011
 31
0.0
  0
LINE
  8
JISSEN
 10
6918.194108
 20
4755.40011
 30
0.0
 11
6883.194108
 21
4280.40011
 31
0.0
  0
LINE
  8
TENSEN
 10
6808.194108
 20
4800.40011
 30
0.0
 11
6808.194108
 21
4205.40011
 31
0.0
  0
LINE
  8
JISSEN
 10
6918.194108
 20
4815.40011
 30
0.0
 11
6840.194108
 21
4815.40011
 31
0.0
  0
LINE
  8
TENSEN
 10
6840.194108
 20
4815.40011
 30
0.0
 11
6834.194108
 21
4800.40011
 31
0.0
  0
LINE
  8
TENSEN
 10
6834.194108
 20
4800.40011
 30
0.0
 11
6808.194108
 21
4800.40011
 31
0.0
  0
LINE
  8
TENSEN
 10
6883.194108
 20
4270.40011
 30
0.0
 11
6833.194108
 21
4270.40011
 31
0.0
  0
LINE
  8
TENSEN
 10
6833.194108
 20
4270.40011
 30
0.0
 11
6833.194108
 21
4250.40011
 31
0.0
  0
LINE
  8
TENSEN
 10
6833.194108
 20
4250.40011
 30
0.0
 11
6883.194108
 21
4250.40011
 31
0.0
  0
LINE
  8
ITTEN
 10
6933.194108
 20
4260.40011
 30
0.0
 11
6783.194108
 21
4260.40011
 31
0.0
  0
LINE
  8
ITTEN
 10
6708.194108
 20
4355.40011
 30
0.0
 11
6608.194108
 21
4355.40011
 31
0.0
  0
LINE
  8
ITTEN
 10
6708.194108
 20
4655.40011
 30
0.0
 11
6608.194108
 21
4655.40011
 31
0.0
  0
ARC
  8
TENSEN
 10
6644.694108
 20
4355.40011
 30
0.0
 40
12.5
 50
270.0
 51
90.0
  0
ARC
  8
TENSEN
 10
6644.694108
 20
4655.40011
 30
0.0
 40
12.5
 50
270.0
 51
90.0
  0
LINE
  8
JISSEN
 10
6508.194108
 20
4205.40011
 30
0.0
 11
6208.194108
 21
4205.40011
 31
0.0
  0
LINE
  8
TENSEN
 10
6174.194108
 20
4220.40011
 30
0.0
 11
6508.194108
 21
4220.40011
 31
0.0
  0
LINE
  8
JISSEN
 10
6508.194108
 20
4800.40011
 30
0.0
 11
6208.194108
 21
4800.40011
 31
0.0
  0
LINE
  8
JISSEN
 10
6176.194108
 20
4815.40011
 30
0.0
 11
6508.194108
 21
4815.40011
 31
0.0
  0
ARC
  8
TENSEN
 10
6644.694108
 20
4655.40011
 30
0.0
 40
12.5
 50
270.0
 51
90.0
  0
ARC
  8
JISSEN
 10
6371.694108
 20
4655.40011
 30
0.0
 40
12.5
 50
90.0
 51
270.0
  0
LINE
  8
JISSEN
 10
6371.694108
 20
4667.90011
 30
0.0
 11
6508.194108
 21
4667.90011
 31
0.0
  0
LINE
  8
TENSEN
 10
6508.194108
 20
4667.90011
 30
0.0
 11
6644.694108
 21
4667.90011
 31
0.0
  0
LINE
  8
TENSEN
 10
6644.694108
 20
4642.90011
 30
0.0
 11
6508.194108
 21
4642.90011
 31
0.0
  0
LINE
  8
JISSEN
 10
6508.194108
 20
4642.90011
 30
0.0
 11
6371.694108
 21
4642.90011
 31
0.0
  0
LINE
  8
ITTEN
 10
6308.194108
 20
4655.40011
 30
0.0
 11
6708.194108
 21
4655.40011
 31
0.0
  0
LINE
  8
ITTEN
 10
6308.194108
 20
4355.40011
 30
0.0
 11
6708.194108
 21
4355.40011
 31
0.0
  0
LINE
  8
JISSEN
 10
6508.194108
 20
4342.90011
 30
0.0
 11
6371.694108
 21
4342.90011
 31
0.0
  0
LINE
  8
TENSEN
 10
6644.694108
 20
4342.90011
 30
0.0
 11
6508.194108
 21
4342.90011
 31
0.0
  0
LINE
  8
TENSEN
 10
6508.194108
 20
4367.90011
 30
0.0
 11
6644.694108
 21
4367.90011
 31
0.0
  0
LINE
  8
JISSEN
 10
6371.694108
 20
4367.90011
 30
0.0
 11
6508.194108
 21
4367.90011
 31
0.0
  0
ARC
  8
JISSEN
 10
6371.694108
 20
4355.40011
 30
0.0
 40
12.5
 50
90.0
 51
270.0
  0
ARC
  8
TENSEN
 10
6644.694108
 20
4355.40011
 30
0.0
 40
12.5
 50
270.0
 51
90.0
  0
LINE
  8
ITTEN
 10
6308.194108
 20
4655.40011
 30
0.0
 11
6408.194108
 21
4655.40011
 31
0.0
  0
LINE
  8
ITTEN
 10
6308.194108
 20
4355.40011
 30
0.0
 11
6408.194108
 21
4355.40011
 31
0.0
  0
LINE
  8
ITTEN
 10
6083.194108
 20
4260.40011
 30
0.0
 11
6233.194108
 21
4260.40011
 31
0.0
  0
LINE
  8
JISSEN
 10
6183.194108
 20
4250.40011
 30
0.0
 11
6133.194108
 21
4250.40011
 31
0.0
  0
LINE
  8
JISSEN
 10
6183.194108
 20
4270.40011
 30
0.0
 11
6183.194108
 21
4250.40011
 31
0.0
  0
LINE
  8
JISSEN
 10
6133.194108
 20
4270.40011
 30
0.0
 11
6183.194108
 21
4270.40011
 31
0.0
  0
LINE
  8
JISSEN
 10
6182.194108
 20
4800.40011
 30
0.0
 11
6208.194108
 21
4800.40011
 31
0.0
  0
LINE
  8
JISSEN
 10
6176.194108
 20
4815.40011
 30
0.0
 11
6182.194108
 21
4800.40011
 31
0.0
  0
LINE
  8
JISSEN
 10
6098.194108
 20
4815.40011
 30
0.0
 11
6176.194108
 21
4815.40011
 31
0.0
  0
LINE
  8
JISSEN
 10
6208.194108
 20
4800.40011
 30
0.0
 11
6208.194108
 21
4205.40011
 31
0.0
  0
LINE
  8
JISSEN
 10
6098.194108
 20
4755.40011
 30
0.0
 11
6133.194108
 21
4280.40011
 31
0.0
  0
LINE
  8
JISSEN
 10
6098.194108
 20
4815.40011
 30
0.0
 11
6098.194108
 21
4755.40011
 31
0.0
  0
LINE
  8
JISSEN
 10
6133.194108
 20
4280.40011
 30
0.0
 11
6133.194108
 21
4220.40011
 31
0.0
  0
LINE
  8
JISSEN
 10
6174.194108
 20
4220.40011
 30
0.0
 11
6133.194108
 21
4220.40011
 31
0.0
  0
LINE
  8
JISSEN
 10
6183.194108
 20
4205.40011
 30
0.0
 11
6174.194108
 21
4220.40011
 31
0.0
  0
LINE
  8
JISSEN
 10
6208.194108
 20
4205.40011
 30
0.0
 11
6183.194108
 21
4205.40011
 31
0.0
  0
TEXT
  8
SUNPOU
 10
5027.543371
 20
4306.13686
 30
0.0
 40
45.0
  1
40
 50
90.0
  7
K
 72
     1
 11
5027.543371
 21
4348.994003
 31
0.0
  0
LINE
  8
SUNPOU
 10
5072.543371
 20
4205.40011
 30
0.0
 11
5072.543373
 21
4145.40011
 31
0.0
  0
LINE
  8
SUNPOU
 10
5072.543371
 20
4245.40011
 30
0.0
 11
5072.543371
 21
4393.994003
 31
0.0
  0
INSERT
  8
SUNPOU
  2
ARROWANG
 10
5072.543371
 20
4245.40011
 30
0.0
 41
30.0
 42
30.0
 50
270.0
 43
30.0
  0
INSERT
  8
SUNPOU
  2
ARROWANG
 10
5072.543371
 20
4205.40011
 30
0.0
 41
30.0
 42
30.0
 50
90.0
 43
30.0
  0
LINE
  8
SUNPOU
 10
4893.194108
 20
4245.40011
 30
0.0
 11
5102.543371
 21
4245.40011
 31
0.0
  0
LINE
  8
SUNPOU
 10
5043.194108
 20
4205.40011
 30
0.0
 11
5042.543371
 21
4205.40011
 31
0.0
  0
TEXT
  8
SUNPOU
 10
5553.194108
 20
4126.971538
 30
0.0
 40
45.0
  1
60
 50
90.0
  7
K
 72
     1
 11
5553.194108
 21
4170.90011
 31
0.0
  0
LINE
  8
SUNPOU
 10
5598.194108
 20
4280.40011
 30
0.0
 11
5598.194108
 21
4340.40011
 31
0.0
  0
LINE
  8
SUNPOU
 10
5598.194108
 20
4220.40011
 30
0.0
 11
5598.194108
 21
4121.40011
 31
0.0
  0
INSERT
  8
SUNPOU
  2
ARROWANG
 10
5598.194108
 20
4280.40011
 30
0.0
 41
30.0
 42
30.0
 50
270.0
 43
30.0
  0
INSERT
  8
SUNPOU
  2
ARROWANG
 10
5598.194108
 20
4220.40011
 30
0.0
 41
30.0
 42
30.0
 50
90.0
 43
30.0
  0
LINE
  8
SUNPOU
 10
5598.194108
 20
4220.40011
 30
0.0
 11
5598.194108
 21
4280.40011
 31
0.0
  0
LINE
  8
SUNPOU
 10
5628.194108
 20
4280.40011
 30
0.0
 11
5628.194108
 21
4280.40011
 31
0.0
  0
LINE
  8
SUNPOU
 10
5478.194108
 20
4220.40011
 30
0.0
 11
5628.194108
 21
4220.40011
 31
0.0
  0
LINE
  8
SUNPOU
 10
5248.194108
 20
4815.40011
 30
0.0
 11
5628.194108
 21
4815.40011
 31
0.0
  0
LINE
  8
SUNPOU
 10
5478.194108
 20
4280.40011
 30
0.0
 11
5628.194108
 21
4280.40011
 31
0.0
  0
TEXT
  8
SUNPOU
 10
5026.408408
 20
4100.40011
 30
0.0
 40
45.0
  1
565
  7
K
 72
     1
 11
5090.694123
 21
4100.40011
 31
0.0
  0
INSERT
  8
SUNPOU
  2
ARROWANG
 10
5373.194108
 20
4055.40011
 30
0.0
 41
30.0
 42
30.0
 43
30.0
  0
INSERT
  8
SUNPOU
  2
ARROWANG
 10
4808.194108
 20
4055.40011
 30
0.0
 41
30.0
 42
30.0
 50
180.0
 43
30.0
  0
LINE
  8
SUNPOU
 10
4808.194108
 20
4055.40011
 30
0.0
 11
5373.194108
 21
4055.40011
 31
0.0
  0
LINE
  8
SUNPOU
 10
5373.194108
 20
4025.40011
 30
0.0
 11
5373.194108
 21
4025.40011
 31
0.0
  0
LINE
  8
SUNPOU
 10
4808.194108
 20
4025.40011
 30
0.0
 11
4808.194108
 21
4025.40011
 31
0.0
  0
TEXT
  8
SUNPOU
 10
4576.408408
 20
4100.40011
 30
0.0
 40
45.0
  1
335
  7
K
 72
     1
 11
4640.694123
 21
4100.40011
 31
0.0
  0
INSERT
  8
SUNPOU
  2
ARROWANG
 10
4808.194108
 20
4055.40011
 30
0.0
 41
30.0
 42
30.0
 43
30.0
  0
INSERT
  8
SUNPOU
  2
ARROWANG
 10
4473.194108
 20
4055.40011
 30
0.0
 41
30.0
 42
30.0
 50
180.0
 43
30.0
  0
LINE
  8
SUNPOU
 10
4473.194108
 20
4055.40011
 30
0.0
 11
4808.194108
 21
4055.40011
 31
0.0
  0
LINE
  8
SUNPOU
 10
4808.194108
 20
4175.40011
 30
0.0
 11
4808.194108
 21
4025.40011
 31
0.0
  0
LINE
  8
SUNPOU
 10
4473.194108
 20
4025.40011
 30
0.0
 11
4473.194108
 21
4025.40011
 31
0.0
  0
LINE
  8
SUNPOU
 10
5373.194108
 20
3905.40011
 30
0.0
 11
5313.194108
 21
3905.40011
 31
0.0
  0
LINE
  8
SUNPOU
 10
5448.194108
 20
3905.40011
 30
0.0
 11
5508.194108
 21
3905.40011
 31
0.0
  0
TEXT
  8
SUNPOU
 10
5367.83698
 20
3950.40011
 30
0.0
 40
45.0
  1
75
  7
K
 72
     1
 11
5410.694123
 21
3950.40011
 31
0.0
  0
INSERT
  8
SUNPOU
  2
ARROWANG
 10
5373.194108
 20
3905.40011
 30
0.0
 41
30.0
 42
30.0
 43
30.0
  0
INSERT
  8
SUNPOU
  2
ARROWANG
 10
5448.194108
 20
3905.40011
 30
0.0
 41
30.0
 42
30.0
 50
180.0
 43
30.0
  0
LINE
  8
SUNPOU
 10
5373.194108
 20
3905.40011
 30
0.0
 11
5448.194108
 21
3905.40011
 31
0.0
  0
LINE
  8
SUNPOU
 10
5448.194108
 20
3935.40011
 30
0.0
 11
5448.194108
 21
3935.40011
 31
0.0
  0
LINE
  8
SUNPOU
 10
5373.194108
 20
3935.40011
 30
0.0
 11
5373.194108
 21
3935.40011
 31
0.0
  0
TEXT
  8
SUNPOU
 10
4858.908408
 20
3950.40011
 30
0.0
 40
45.0
  1
900
  7
K
 72
     1
 11
4923.194123
 21
3950.40011
 31
0.0
  0
INSERT
  8
SUNPOU
  2
ARROWANG
 10
5373.194108
 20
3905.40011
 30
0.0
 41
30.0
 42
30.0
 43
30.0
  0
INSERT
  8
SUNPOU
  2
ARROWANG
 10
4473.194108
 20
3905.40011
 30
0.0
 41
30.0
 42
30.0
 50
180.0
 43
30.0
  0
LINE
  8
SUNPOU
 10
4473.194108
 20
3905.40011
 30
0.0
 11
5373.194108
 21
3905.40011
 31
0.0
  0
LINE
  8
SUNPOU
 10
5373.194108
 20
4175.40011
 30
0.0
 11
5373.194108
 21
3875.40011
 31
0.0
  0
LINE
  8
SUNPOU
 10
4473.194108
 20
3875.40011
 30
0.0
 11
4473.194108
 21
3875.40011
 31
0.0
  0
LINE
  8
SUNPOU
 10
4398.194108
 20
3905.40011
 30
0.0
 11
4338.194108
 21
3905.40011
 31
0.0
  0
LINE
  8
SUNPOU
 10
4473.194108
 20
3905.40011
 30
0.0
 11
4533.194108
 21
3905.40011
 31
0.0
  0
TEXT
  8
SUNPOU
 10
4392.83698
 20
3950.40011
 30
0.0
 40
45.0
  1
75
  7
K
 72
     1
 11
4435.694123
 21
3950.40011
 31
0.0
  0
INSERT
  8
SUNPOU
  2
ARROWANG
 10
4398.194108
 20
3905.40011
 30
0.0
 41
30.0
 42
30.0
 43
30.0
  0
INSERT
  8
SUNPOU
  2
ARROWANG
 10
4473.194108
 20
3905.40011
 30
0.0
 41
30.0
 42
30.0
 50
180.0
 43
30.0
  0
LINE
  8
SUNPOU
 10
4398.194108
 20
3905.40011
 30
0.0
 11
4473.194108
 21
3905.40011
 31
0.0
  0
LINE
  8
SUNPOU
 10
4473.194108
 20
4175.40011
 30
0.0
 11
4473.194108
 21
3875.40011
 31
0.0
  0
LINE
  8
SUNPOU
 10
4398.194108
 20
3935.40011
 30
0.0
 11
4398.194108
 21
3935.40011
 31
0.0
  0
TEXT
  8
SUNPOU
 10
4834.265551
 20
3800.40011
 30
0.0
 40
45.0
  1
1050
  7
K
 72
     1
 11
4923.194123
 21
3800.40011
 31
0.0
  0
INSERT
  8
SUNPOU
  2
ARROWANG
 10
5448.194108
 20
3755.40011
 30
0.0
 41
30.0
 42
30.0
 43
30.0
  0
INSERT
  8
SUNPOU
  2
ARROWANG
 10
4398.194108
 20
3755.40011
 30
0.0
 41
30.0
 42
30.0
 50
180.0
 43
30.0
  0
LINE
  8
SUNPOU
 10
4398.194108
 20
3755.40011
 30
0.0
 11
5448.194108
 21
3755.40011
 31
0.0
  0
LINE
  8
SUNPOU
 10
5448.194108
 20
4190.40011
 30
0.0
 11
5448.194108
 21
3725.40011
 31
0.0
  0
LINE
  8
SUNPOU
 10
4398.194108
 20
4190.40011
 30
0.0
 11
4398.194108
 21
3725.40011
 31
0.0
  0
TEXT
  8
SUNPOU
 10
4742.83698
 20
5010.40011
 30
0.0
 40
45.0
  1
600
  7
K
 72
     1
 11
4808.194123
 21
5010.40011
 31
0.0
  0
INSERT
  8
SUNPOU
  2
ARROWANG
 10
5108.194108
 20
4965.40011
 30
0.0
 41
30.0
 42
30.0
 43
30.0
  0
INSERT
  8
SUNPOU
  2
ARROWANG
 10
4508.194108
 20
4965.40011
 30
0.0
 41
30.0
 42
30.0
 50
180.0
 43
30.0
  0
LINE
  8
SUNPOU
 10
4508.194108
 20
4965.40011
 30
0.0
 11
5108.194108
 21
4965.40011
 31
0.0
  0
LINE
  8
SUNPOU
 10
5108.194108
 20
4935.40011
 30
0.0
 11
5108.194108
 21
4935.40011
 31
0.0
  0
LINE
  8
SUNPOU
 10
4508.194108
 20
4935.40011
 30
0.0
 11
4508.194108
 21
4935.40011
 31
0.0
  0
TEXT
  8
SUNPOU
 10
5095.694123
 20
5010.40011
 30
0.0
 40
45.0
  1
110
  7
K
 72
     1
 11
5163.194123
 21
5010.40011
 31
0.0
  0
INSERT
  8
SUNPOU
  2
ARROWANG
 10
5218.194108
 20
4965.40011
 30
0.0
 41
30.0
 42
30.0
 43
30.0
  0
INSERT
  8
SUNPOU
  2
ARROWANG
 10
5108.194108
 20
4965.40011
 30
0.0
 41
30.0
 42
30.0
 50
180.0
 43
30.0
  0
LINE
  8
SUNPOU
 10
5108.194108
 20
4965.40011
 30
0.0
 11
5218.194108
 21
4965.40011
 31
0.0
  0
LINE
  8
SUNPOU
 10
5218.194108
 20
4935.40011
 30
0.0
 11
5218.194108
 21
4935.40011
 31
0.0
  0
LINE
  8
SUNPOU
 10
5108.194108
 20
4830.40011
 30
0.0
 11
5108.194108
 21
4995.40011
 31
0.0
  0
TEXT
  8
SUNPOU
 10
4385.694123
 20
5010.40011
 30
0.0
 40
45.0
  1
110
  7
K
 72
     1
 11
4453.194123
 21
5010.40011
 31
0.0
  0
INSERT
  8
SUNPOU
  2
ARROWANG
 10
4508.194108
 20
4965.40011
 30
0.0
 41
30.0
 42
30.0
 43
30.0
  0
INSERT
  8
SUNPOU
  2
ARROWANG
 10
4398.194108
 20
4965.40011
 30
0.0
 41
30.0
 42
30.0
 50
180.0
 43
30.0
  0
LINE
  8
SUNPOU
 10
4398.194108
 20
4965.40011
 30
0.0
 11
4508.194108
 21
4965.40011
 31
0.0
  0
LINE
  8
SUNPOU
 10
4508.194108
 20
4830.40011
 30
0.0
 11
4508.194108
 21
4995.40011
 31
0.0
  0
LINE
  8
SUNPOU
 10
4398.194108
 20
4935.40011
 30
0.0
 11
4398.194108
 21
4935.40011
 31
0.0
  0
TEXT
  8
SUNPOU
 10
4743.908408
 20
5160.40011
 30
0.0
 40
45.0
  1
820
  7
K
 72
     1
 11
4808.194123
 21
5160.40011
 31
0.0
  0
INSERT
  8
SUNPOU
  2
ARROWANG
 10
5218.194108
 20
5115.40011
 30
0.0
 41
30.0
 42
30.0
 43
30.0
  0
INSERT
  8
SUNPOU
  2
ARROWANG
 10
4398.194108
 20
5115.40011
 30
0.0
 41
30.0
 42
30.0
 50
180.0
 43
30.0
  0
LINE
  8
SUNPOU
 10
4398.194108
 20
5115.40011
 30
0.0
 11
5218.194108
 21
5115.40011
 31
0.0
  0
LINE
  8
SUNPOU
 10
5218.194108
 20
4845.40011
 30
0.0
 11
5218.194108
 21
5145.40011
 31
0.0
  0
LINE
  8
SUNPOU
 10
4398.194108
 20
4845.40011
 30
0.0
 11
4398.194108
 21
5145.40011
 31
0.0
  0
TEXT
  8
SUNPOU
 10
4203.194108
 20
4223.828681
 30
0.0
 40
45.0
  1
15
 50
90.0
  7
K
 72
     1
 11
4203.194108
 21
4269.90011
 31
0.0
  0
LINE
  8
SUNPOU
 10
4248.194108
 20
4205.40011
 30
0.0
 11
4248.194109
 21
4145.40011
 31
0.0
  0
LINE
  8
SUNPOU
 10
4248.194108
 20
4220.40011
 30
0.0
 11
4248.194108
 21
4319.40011
 31
0.0
  0
INSERT
  8
SUNPOU
  2
ARROWANG
 10
4248.194108
 20
4220.40011
 30
0.0
 41
30.0
 42
30.0
 50
270.0
 43
30.0
  0
INSERT
  8
SUNPOU
  2
ARROWANG
 10
4248.194108
 20
4205.40011
 30
0.0
 41
30.0
 42
30.0
 50
90.0
 43
30.0
  0
LINE
  8
SUNPOU
 10
4278.194108
 20
4220.40011
 30
0.0
 11
4278.194108
 21
4220.40011
 31
0.0
  0
LINE
  8
SUNPOU
 10
4418.194108
 20
4205.40011
 30
0.0
 11
4218.194108
 21
4205.40011
 31
0.0
  0
TEXT
  8
SUNPOU
 10
4203.194108
 20
4704.828681
 30
0.0
 40
45.0
  1
15
 50
90.0
  7
K
 72
     1
 11
4203.194108
 21
4750.90011
 31
0.0
  0
LINE
  8
SUNPOU
 10
4248.194108
 20
4815.40011
 30
0.0
 11
4248.194108
 21
4875.40011
 31
0.0
  0
LINE
  8
SUNPOU
 10
4248.194108
 20
4800.40011
 30
0.0
 11
4248.194108
 21
4701.40011
 31
0.0
  0
INSERT
  8
SUNPOU
  2
ARROWANG
 10
4248.194108
 20
4815.40011
 30
0.0
 41
30.0
 42
30.0
 50
270.0
 43
30.0
  0
INSERT
  8
SUNPOU
  2
ARROWANG
 10
4248.194108
 20
4800.40011
 30
0.0
 41
30.0
 42
30.0
 50
90.0
 43
30.0
  0
LINE
  8
SUNPOU
 10
4278.194108
 20
4815.40011
 30
0.0
 11
4278.194108
 21
4815.40011
 31
0.0
  0
LINE
  8
SUNPOU
 10
4278.194108
 20
4800.40011
 30
0.0
 11
4278.194108
 21
4800.40011
 31
0.0
  0
LINE
  8
SUNPOU
 10
4218.194108
 20
4815.40011
 30
0.0
 11
4218.194108
 21
4815.40011
 31
0.0
  0
LINE
  8
SUNPOU
 10
4452.194108
 20
4800.40011
 30
0.0
 11
4218.194108
 21
4800.40011
 31
0.0
  0
LINE
  8
SUNPOU
 10
4368.194108
 20
4815.40011
 30
0.0
 11
4068.194108
 21
4815.40011
 31
0.0
  0
LINE
  8
SUNPOU
 10
4368.194108
 20
4220.40011
 30
0.0
 11
4068.194108
 21
4220.40011
 31
0.0
  0
TEXT
  8
SUNPOU
 10
4721.988226
 20
4212.90011
 30
0.0
 40
45.0
  1
150
 50
90.0
  7
K
 72
     1
 11
4721.988226
 21
4280.40011
 31
0.0
  0
INSERT
  8
SUNPOU
  2
ARROWANG
 10
4766.988226
 20
4355.40011
 30
0.0
 41
30.0
 42
30.0
 50
90.0
 43
30.0
  0
INSERT
  8
SUNPOU
  2
ARROWANG
 10
4766.988226
 20
4205.40011
 30
0.0
 41
30.0
 42
30.0
 50
270.0
 43
30.0
  0
LINE
  8
SUNPOU
 10
4766.988226
 20
4205.40011
 30
0.0
 11
4766.988226
 21
4355.40011
 31
0.0
  0
LINE
  8
SUNPOU
 10
4736.988226
 20
4355.40011
 30
0.0
 11
4736.988226
 21
4355.40011
 31
0.0
  0
LINE
  8
SUNPOU
 10
4736.988226
 20
4205.40011
 30
0.0
 11
4736.988226
 21
4205.40011
 31
0.0
  0
LINE
  8
SUNPOU
 10
4628.047049
 20
4355.40011
 30
0.0
 11
4796.988226
 21
4355.40011
 31
0.0
  0
LINE
  8
ITTEN
 10
4666.987437
 20
4355.40011
 30
0.0
 11
4454.488226
 21
4355.40011
 31
0.0
  0
LINE
  8
ITTEN
 10
4449.61866
 20
4655.40011
 30
0.0
 11
4662.117872
 21
4655.40011
 31
0.0
  0
LINE
  8
ITTEN
 10
4923.194108
 20
4245.40011
 30
0.0
 11
4803.194108
 21
4245.40011
 31
0.0
  0
LINE
  8
ITTEN
 10
4863.194108
 20
4305.40011
 30
0.0
 11
4863.194108
 21
4185.40011
 31
0.0
  0
CIRCLE
  8
JISSEN
 10
4863.194108
 20
4245.40011
 30
0.0
 40
10.0
  0
LINE
  8
JISSEN
 10
4585.547049
 20
4342.90011
 30
0.0
 11
4484.517637
 21
4342.90011
 31
0.0
  0
LINE
  8
JISSEN
 10
4486.576461
 20
4367.90011
 30
0.0
 11
4585.547049
 21
4367.90011
 31
0.0
  0
ARC
  8
JISSEN
 10
4585.547049
 20
4355.40011
 30
0.0
 40
12.5
 50
270.0
 51
90.0
  0
LINE
  8
JISSEN
 10
4599.61866
 20
4642.90011
 30
0.0
 11
4498.589249
 21
4642.90011
 31
0.0
  0
LINE
  8
JISSEN
 10
4500.648072
 20
4667.90011
 30
0.0
 11
4599.61866
 21
4667.90011
 31
0.0
  0
ARC
  8
JISSEN
 10
4599.61866
 20
4655.40011
 30
0.0
 40
12.5
 50
270.0
 51
90.0
  0
LINE
  8
JISSEN
 10
5448.194108
 20
4280.40011
 30
0.0
 11
4808.194108
 21
4280.40011
 31
0.0
  0
ARC
  8
JISSEN
 10
4808.194108
 20
6186.233443
 30
0.0
 40
1430.833333
 50
270.0
 51
286.651301
  0
ARC
  8
JISSEN
 10
4665.219179
 20
4760.2168
 30
0.0
 40
308.767501
 50
353.831731
 51
0.893835
  0
ARC
  8
JISSEN
 10
1571.917138
 20
4802.322143
 30
0.0
 40
3401.115238
 50
354.530808
 51
358.731682
  0
ARC
  8
JISSEN
 10
4557.677727
 20
4572.251277
 30
0.0
 40
410.792246
 50
331.981694
 51
346.758966
  0
ARC
  8
JISSEN
 10
4732.714238
 20
4479.012098
 30
0.0
 40
212.471016
 50
290.808635
 51
332.005226
  0
LINE
  8
TENSEN
 10
5108.194108
 20
4800.40011
 30
0.0
 11
5108.194108
 21
4780.40011
 31
0.0
  0
LINE
  8
JISSEN
 10
4508.194108
 20
4800.40011
 30
0.0
 11
4508.194108
 21
4780.40011
 31
0.0
  0
LINE
  8
JISSEN
 10
5448.194108
 20
4280.40011
 30
0.0
 11
5448.194108
 21
4220.40011
 31
0.0
  0
LINE
  8
JISSEN
 10
5218.194108
 20
4815.40011
 30
0.0
 11
5448.194108
 21
4280.40011
 31
0.0
  0
LINE
  8
ITTEN
 10
4808.194108
 20
4915.40011
 30
0.0
 11
4808.194108
 21
4105.40011
 31
0.0
  0
LINE
  8
JISSEN
 10
4808.194108
 20
4220.40011
 30
0.0
 11
5407.194108
 21
4220.40011
 31
0.0
  0
LINE
  8
TENSEN
 10
4439.194108
 20
4220.40011
 30
0.0
 11
4808.194108
 21
4220.40011
 31
0.0
  0
LINE
  8
JISSEN
 10
4473.194108
 20
4205.40011
 30
0.0
 11
5373.194108
 21
4205.40011
 31
0.0
  0
LINE
  8
TENSEN
 10
5108.194108
 20
4780.40011
 30
0.0
 11
5373.194108
 21
4205.40011
 31
0.0
  0
LINE
  8
JISSEN
 10
4398.194108
 20
4815.40011
 30
0.0
 11
4398.194108
 21
4220.40011
 31
0.0
  0
LINE
  8
JISSEN
 10
4508.194108
 20
4780.40011
 30
0.0
 11
4473.194108
 21
4205.40011
 31
0.0
  0
LINE
  8
JISSEN
 10
5448.194108
 20
4220.40011
 30
0.0
 11
5407.194108
 21
4220.40011
 31
0.0
  0
LINE
  8
JISSEN
 10
5407.194108
 20
4220.40011
 30
0.0
 11
5398.194108
 21
4205.40011
 31
0.0
  0
LINE
  8
JISSEN
 10
5398.194108
 20
4205.40011
 30
0.0
 11
5373.194108
 21
4205.40011
 31
0.0
  0
LINE
  8
JISSEN
 10
4448.194108
 20
4205.40011
 30
0.0
 11
4473.194108
 21
4205.40011
 31
0.0
  0
LINE
  8
JISSEN
 10
4439.194108
 20
4220.40011
 30
0.0
 11
4448.194108
 21
4205.40011
 31
0.0
  0
LINE
  8
JISSEN
 10
4398.194108
 20
4220.40011
 30
0.0
 11
4439.194108
 21
4220.40011
 31
0.0
  0
LINE
  8
TENSEN
 10
4808.194108
 20
4780.40011
 30
0.0
 11
5108.194108
 21
4780.40011
 31
0.0
  0
LINE
  8
JISSEN
 10
4508.194108
 20
4780.40011
 30
0.0
 11
4808.194108
 21
4780.40011
 31
0.0
  0
LINE
  8
TENSEN
 10
4808.194108
 20
4800.40011
 30
0.0
 11
5134.194108
 21
4800.40011
 31
0.0
  0
LINE
  8
JISSEN
 10
4482.194108
 20
4800.40011
 30
0.0
 11
4808.194108
 21
4800.40011
 31
0.0
  0
LINE
  8
JISSEN
 10
4476.194108
 20
4815.40011
 30
0.0
 11
5140.194108
 21
4815.40011
 31
0.0
  0
LINE
  8
JISSEN
 10
5218.194108
 20
4815.40011
 30
0.0
 11
5140.194108
 21
4815.40011
 31
0.0
  0
LINE
  8
TENSEN
 10
5140.194108
 20
4815.40011
 30
0.0
 11
5134.194108
 21
4800.40011
 31
0.0
  0
LINE
  8
JISSEN
 10
4476.194108
 20
4815.40011
 30
0.0
 11
4482.194108
 21
4800.40011
 31
0.0
  0
LINE
  8
JISSEN
 10
4398.194108
 20
4815.40011
 30
0.0
 11
4476.194108
 21
4815.40011
 31
0.0
  0
LINE
  8
SUNPOU
 10
4736.988226
 20
4355.40011
 30
0.0
 11
4736.988226
 21
4355.40011
 31
0.0
  0
LINE
  8
SUNPOU
 10
4642.11866
 20
4655.40011
 30
0.0
 11
4796.988226
 21
4655.40011
 31
0.0
  0
LINE
  8
SUNPOU
 10
4766.988226
 20
4355.40011
 30
0.0
 11
4766.988226
 21
4655.40011
 31
0.0
  0
INSERT
  8
SUNPOU
  2
ARROWANG
 10
4766.988226
 20
4355.40011
 30
0.0
 41
30.0
 42
30.0
 50
270.0
 43
30.0
  0
INSERT
  8
SUNPOU
  2
ARROWANG
 10
4766.988226
 20
4655.40011
 30
0.0
 41
30.0
 42
30.0
 50
90.0
 43
30.0
  0
TEXT
  8
SUNPOU
 10
4721.988226
 20
4441.114396
 30
0.0
 40
45.0
  1
300
 50
90.0
  7
K
 72
     1
 11
4721.988226
 21
4505.40011
 31
0.0
  0
LINE
  8
SUNPOU
 10
4068.194108
 20
4220.40011
 30
0.0
 11
4068.194108
 21
4220.40011
 31
0.0
  0
LINE
  8
SUNPOU
 10
4068.194108
 20
4815.40011
 30
0.0
 11
4068.194108
 21
4815.40011
 31
0.0
  0
LINE
  8
SUNPOU
 10
4098.194108
 20
4220.40011
 30
0.0
 11
4098.194108
 21
4815.40011
 31
0.0
  0
INSERT
  8
SUNPOU
  2
ARROWANG
 10
4098.194108
 20
4220.40011
 30
0.0
 41
30.0
 42
30.0
 50
270.0
 43
30.0
  0
INSERT
  8
SUNPOU
  2
ARROWANG
 10
4098.194108
 20
4815.40011
 30
0.0
 41
30.0
 42
30.0
 50
90.0
 43
30.0
  0
TEXT
  8
SUNPOU
 10
4053.194108
 20
4453.614396
 30
0.0
 40
45.0
  1
595
 50
90.0
  7
K
 72
     1
 11
4053.194108
 21
4517.90011
 31
0.0
  0
LINE
  8
SUNPOU
 10
5568.194108
 20
4280.40011
 30
0.0
 11
5568.194108
 21
4280.40011
 31
0.0
  0
LINE
  8
SUNPOU
 10
5568.194108
 20
4815.40011
 30
0.0
 11
5568.194108
 21
4815.40011
 31
0.0
  0
LINE
  8
SUNPOU
 10
5598.194108
 20
4280.40011
 30
0.0
 11
5598.194108
 21
4815.40011
 31
0.0
  0
INSERT
  8
SUNPOU
  2
ARROWANG
 10
5598.194108
 20
4280.40011
 30
0.0
 41
30.0
 42
30.0
 50
270.0
 43
30.0
  0
INSERT
  8
SUNPOU
  2
ARROWANG
 10
5598.194108
 20
4815.40011
 30
0.0
 41
30.0
 42
30.0
 50
90.0
 43
30.0
  0
TEXT
  8
SUNPOU
 10
5553.194108
 20
4483.614396
 30
0.0
 40
45.0
  1
535
 50
90.0
  7
K
 72
     1
 11
5553.194108
 21
4547.90011
 31
0.0
  0
LINE
  8
SUNPOU
 10
7098.194108
 20
4280.40011
 30
0.0
 11
7098.194108
 21
4280.40011
 31
0.0
  0
LINE
  8
SUNPOU
 10
7098.194108
 20
4755.40011
 30
0.0
 11
7098.194108
 21
4755.40011
 31
0.0
  0
LINE
  8
SUNPOU
 10
7068.194108
 20
4280.40011
 30
0.0
 11
7068.194108
 21
4755.40011
 31
0.0
  0
INSERT
  8
SUNPOU
  2
ARROWANG
 10
7068.194108
 20
4280.40011
 30
0.0
 41
30.0
 42
30.0
 50
270.0
 43
30.0
  0
INSERT
  8
SUNPOU
  2
ARROWANG
 10
7068.194108
 20
4755.40011
 30
0.0
 41
30.0
 42
30.0
 50
90.0
 43
30.0
  0
TEXT
  8
SUNPOU
 10
7023.194108
 20
4453.614396
 30
0.0
 40
45.0
  1
475
 50
90.0
  7
K
 72
     1
 11
7023.194108
 21
4517.90011
 31
0.0
  0
LINE
  8
SUNPOU
 10
8395.463065
 20
4845.40011
 30
0.0
 11
8395.463065
 21
5295.40011
 31
0.0
  0
LINE
  8
SUNPOU
 10
9445.463065
 20
4845.40011
 30
0.0
 11
9445.463065
 21
5295.40011
 31
0.0
  0
LINE
  8
SUNPOU
 10
8395.463065
 20
5265.40011
 30
0.0
 11
9445.463065
 21
5265.40011
 31
0.0
  0
INSERT
  8
SUNPOU
  2
ARROWANG
 10
8395.463065
 20
5265.40011
 30
0.0
 41
30.0
 42
30.0
 50
180.0
 43
30.0
  0
INSERT
  8
SUNPOU
  2
ARROWANG
 10
9445.463065
 20
5265.40011
 30
0.0
 41
30.0
 42
30.0
 43
30.0
  0
TEXT
  8
SUNPOU
 10
8831.534508
 20
5310.40011
 30
0.0
 40
45.0
  1
1050
  7
K
 72
     1
 11
8920.46308
 21
5310.40011
 31
0.0
  0
LINE
  8
SUNPOU
 10
8360.463065
 20
4845.40011
 30
0.0
 11
8360.463065
 21
5145.40011
 31
0.0
  0
LINE
  8
SUNPOU
 10
8470.463065
 20
4830.40011
 30
0.0
 11
8470.463065
 21
5145.40011
 31
0.0
  0
LINE
  8
SUNPOU
 10
8360.463065
 20
5115.40011
 30
0.0
 11
8470.463065
 21
5115.40011
 31
0.0
  0
INSERT
  8
SUNPOU
  2
ARROWANG
 10
8470.463065
 20
5115.40011
 30
0.0
 41
30.0
 42
30.0
 50
180.0
 43
30.0
  0
INSERT
  8
SUNPOU
  2
ARROWANG
 10
8360.463065
 20
5115.40011
 30
0.0
 41
30.0
 42
30.0
 43
30.0
  0
LINE
  8
SUNPOU
 10
8360.463065
 20
5115.40011
 30
0.0
 11
8211.963065
 21
5115.40011
 31
0.0
  0
LINE
  8
SUNPOU
 10
8470.463065
 20
5115.40011
 30
0.0
 11
8530.463065
 21
5115.40011
 31
0.0
  0
TEXT
  8
SUNPOU
 10
8218.713065
 20
5160.40011
 30
0.0
 40
45.0
  1
110
  7
K
 72
     1
 11
8286.213065
 21
5160.40011
 31
0.0
  0
LINE
  8
SUNPOU
 10
8470.463065
 20
5085.40011
 30
0.0
 11
8470.463065
 21
5085.40011
 31
0.0
  0
LINE
  8
SUNPOU
 10
9070.463065
 20
4830.40011
 30
0.0
 11
9070.463065
 21
5145.40011
 31
0.0
  0
LINE
  8
SUNPOU
 10
8470.463065
 20
5115.40011
 30
0.0
 11
9070.463065
 21
5115.40011
 31
0.0
  0
INSERT
  8
SUNPOU
  2
ARROWANG
 10
8470.463065
 20
5115.40011
 30
0.0
 41
30.0
 42
30.0
 50
180.0
 43
30.0
  0
INSERT
  8
SUNPOU
  2
ARROWANG
 10
9070.463065
 20
5115.40011
 30
0.0
 41
30.0
 42
30.0
 43
30.0
  0
TEXT
  8
SUNPOU
 10
8705.105937
 20
5160.40011
 30
0.0
 40
45.0
  1
600
  7
K
 72
     1
 11
8770.46308
 21
5160.40011
 31
0.0
  0
LINE
  8
SUNPOU
 10
9070.463065
 20
5145.40011
 30
0.0
 11
9070.463065
 21
5145.40011
 31
0.0
  0
LINE
  8
SUNPOU
 10
9445.463065
 20
5145.40011
 30
0.0
 11
9445.463065
 21
5145.40011
 31
0.0
  0
LINE
  8
SUNPOU
 10
9070.463065
 20
5115.40011
 30
0.0
 11
9445.463065
 21
5115.40011
 31
0.0
  0
INSERT
  8
SUNPOU
  2
ARROWANG
 10
9445.463065
 20
5115.40011
 30
0.0
 41
30.0
 42
30.0
 43
30.0
  0
INSERT
  8
SUNPOU
  2
ARROWANG
 10
9070.463065
 20
5115.40011
 30
0.0
 41
30.0
 42
30.0
 50
180.0
 43
30.0
  0
TEXT
  8
SUNPOU
 10
9193.677351
 20
5160.40011
 30
0.0
 40
45.0
  1
375
  7
K
 72
     1
 11
9257.963065
 21
5160.40011
 31
0.0
  0
LINE
  8
SUNPOU
 10
8360.463065
 20
4995.40011
 30
0.0
 11
8360.463065
 21
4995.40011
 31
0.0
  0
LINE
  8
SUNPOU
 10
8395.463065
 20
4995.40011
 30
0.0
 11
8395.463065
 21
4995.40011
 31
0.0
  0
INSERT
  8
SUNPOU
  2
ARROWANG
 10
8395.463065
 20
4965.40011
 30
0.0
 41
30.0
 42
30.0
 50
180.0
 43
30.0
  0
INSERT
  8
SUNPOU
  2
ARROWANG
 10
8360.463065
 20
4965.40011
 30
0.0
 41
30.0
 42
30.0
 43
30.0
  0
LINE
  8
SUNPOU
 10
8360.463065
 20
4965.40011
 30
0.0
 11
8261.463065
 21
4965.40011
 31
0.0
  0
LINE
  8
SUNPOU
 10
8395.463065
 20
4965.40011
 30
0.0
 11
8455.463065
 21
4965.40011
 31
0.0
  0
TEXT
  8
SUNPOU
 10
8268.105922
 20
5010.40011
 30
0.0
 40
45.0
  1
35
  7
K
 72
     1
 11
8310.963065
 21
5010.40011
 31
0.0
  0
LINE
  8
SUNPOU
 10
10195.463065
 20
4640.40011
 30
0.0
 11
10195.463065
 21
4325.40011
 31
0.0
  0
LINE
  8
SUNPOU
 10
10945.463065
 20
4640.40011
 30
0.0
 11
10945.463065
 21
4325.40011
 31
0.0
  0
LINE
  8
SUNPOU
 10
10195.463065
 20
4355.40011
 30
0.0
 11
10945.463065
 21
4355.40011
 31
0.0
  0
INSERT
  8
SUNPOU
  2
ARROWANG
 10
10195.463065
 20
4355.40011
 30
0.0
 41
30.0
 42
30.0
 50
180.0
 43
30.0
  0
INSERT
  8
SUNPOU
  2
ARROWANG
 10
10945.463065
 20
4355.40011
 30
0.0
 41
30.0
 42
30.0
 43
30.0
  0
TEXT
  8
SUNPOU
 10
10506.177366
 20
4400.40011
 30
0.0
 40
45.0
  1
750
  7
K
 72
     1
 11
10570.46308
 21
4400.40011
 31
0.0
  0
LINE
  8
SUNPOU
 10
10195.463065
 20
4535.40011
 30
0.0
 11
10195.463065
 21
4535.40011
 31
0.0
  0
LINE
  8
SUNPOU
 10
10270.463065
 20
4625.40011
 30
0.0
 11
10270.463065
 21
4475.40011
 31
0.0
  0
LINE
  8
SUNPOU
 10
10195.463065
 20
4505.40011
 30
0.0
 11
10270.463065
 21
4505.40011
 31
0.0
  0
INSERT
  8
SUNPOU
  2
ARROWANG
 10
10270.463065
 20
4505.40011
 30
0.0
 41
30.0
 42
30.0
 50
180.0
 43
30.0
  0
INSERT
  8
SUNPOU
  2
ARROWANG
 10
10195.463065
 20
4505.40011
 30
0.0
 41
30.0
 42
30.0
 43
30.0
  0
TEXT
  8
SUNPOU
 10
10190.105937
 20
4550.40011
 30
0.0
 40
45.0
  1
75
  7
K
 72
     1
 11
10232.96308
 21
4550.40011
 31
0.0
  0
LINE
  8
SUNPOU
 10
10270.463065
 20
4505.40011
 30
0.0
 11
10330.463065
 21
4505.40011
 31
0.0
  0
LINE
  8
SUNPOU
 10
10195.463065
 20
4505.40011
 30
0.0
 11
10135.463065
 21
4505.40011
 31
0.0
  0
LINE
  8
SUNPOU
 10
10270.463065
 20
4475.40011
 30
0.0
 11
10270.463065
 21
4475.40011
 31
0.0
  0
LINE
  8
SUNPOU
 10
10870.463065
 20
4625.40011
 30
0.0
 11
10870.463065
 21
4475.40011
 31
0.0
  0
LINE
  8
SUNPOU
 10
10270.463065
 20
4505.40011
 30
0.0
 11
10870.463065
 21
4505.40011
 31
0.0
  0
INSERT
  8
SUNPOU
  2
ARROWANG
 10
10270.463065
 20
4505.40011
 30
0.0
 41
30.0
 42
30.0
 50
180.0
 43
30.0
  0
INSERT
  8
SUNPOU
  2
ARROWANG
 10
10870.463065
 20
4505.40011
 30
0.0
 41
30.0
 42
30.0
 43
30.0
  0
TEXT
  8
SUNPOU
 10
10505.105937
 20
4550.40011
 30
0.0
 40
45.0
  1
600
  7
K
 72
     1
 11
10570.46308
 21
4550.40011
 31
0.0
  0
LINE
  8
SUNPOU
 10
10870.463065
 20
4475.40011
 30
0.0
 11
10870.463065
 21
4475.40011
 31
0.0
  0
LINE
  8
SUNPOU
 10
10945.463065
 20
4475.40011
 30
0.0
 11
10945.463065
 21
4475.40011
 31
0.0
  0
LINE
  8
SUNPOU
 10
10870.463065
 20
4505.40011
 30
0.0
 11
10945.463065
 21
4505.40011
 31
0.0
  0
INSERT
  8
SUNPOU
  2
ARROWANG
 10
10870.463065
 20
4505.40011
 30
0.0
 41
30.0
 42
30.0
 50
180.0
 43
30.0
  0
INSERT
  8
SUNPOU
  2
ARROWANG
 10
10945.463065
 20
4505.40011
 30
0.0
 41
30.0
 42
30.0
 43
30.0
  0
TEXT
  8
SUNPOU
 10
10865.105937
 20
4550.40011
 30
0.0
 40
45.0
  1
75
  7
K
 72
     1
 11
10907.96308
 21
4550.40011
 31
0.0
  0
LINE
  8
SUNPOU
 10
8395.463065
 20
4640.40011
 30
0.0
 11
8395.463065
 21
4475.40011
 31
0.0
  0
LINE
  8
SUNPOU
 10
8470.463065
 20
4625.40011
 30
0.0
 11
8470.463065
 21
4475.40011
 31
0.0
  0
LINE
  8
SUNPOU
 10
8395.463065
 20
4505.40011
 30
0.0
 11
8470.463065
 21
4505.40011
 31
0.0
  0
INSERT
  8
SUNPOU
  2
ARROWANG
 10
8470.463065
 20
4505.40011
 30
0.0
 41
30.0
 42
30.0
 50
180.0
 43
30.0
  0
INSERT
  8
SUNPOU
  2
ARROWANG
 10
8395.463065
 20
4505.40011
 30
0.0
 41
30.0
 42
30.0
 43
30.0
  0
TEXT
  8
SUNPOU
 10
8390.105937
 20
4550.40011
 30
0.0
 40
45.0
  1
75
  7
K
 72
     1
 11
8432.96308
 21
4550.40011
 31
0.0
  0
LINE
  8
SUNPOU
 10
8470.463065
 20
4505.40011
 30
0.0
 11
8530.463065
 21
4505.40011
 31
0.0
  0
LINE
  8
SUNPOU
 10
8395.463065
 20
4505.40011
 30
0.0
 11
8335.463065
 21
4505.40011
 31
0.0
  0
LINE
  8
SUNPOU
 10
8470.463065
 20
4475.40011
 30
0.0
 11
8470.463065
 21
4475.40011
 31
0.0
  0
LINE
  8
SUNPOU
 10
9070.463065
 20
4625.40011
 30
0.0
 11
9070.463065
 21
4475.40011
 31
0.0
  0
LINE
  8
SUNPOU
 10
8470.463065
 20
4505.40011
 30
0.0
 11
9070.463065
 21
4505.40011
 31
0.0
  0
INSERT
  8
SUNPOU
  2
ARROWANG
 10
8470.463065
 20
4505.40011
 30
0.0
 41
30.0
 42
30.0
 50
180.0
 43
30.0
  0
INSERT
  8
SUNPOU
  2
ARROWANG
 10
9070.463065
 20
4505.40011
 30
0.0
 41
30.0
 42
30.0
 43
30.0
  0
TEXT
  8
SUNPOU
 10
8705.105937
 20
4550.40011
 30
0.0
 40
45.0
  1
600
  7
K
 72
     1
 11
8770.46308
 21
4550.40011
 31
0.0
  0
LINE
  8
SUNPOU
 10
9070.463065
 20
4475.40011
 30
0.0
 11
9070.463065
 21
4475.40011
 31
0.0
  0
LINE
  8
SUNPOU
 10
9445.463065
 20
4640.40011
 30
0.0
 11
9445.463065
 21
4475.40011
 31
0.0
  0
LINE
  8
SUNPOU
 10
9070.463065
 20
4505.40011
 30
0.0
 11
9445.463065
 21
4505.40011
 31
0.0
  0
INSERT
  8
SUNPOU
  2
ARROWANG
 10
9070.463065
 20
4505.40011
 30
0.0
 41
30.0
 42
30.0
 50
180.0
 43
30.0
  0
INSERT
  8
SUNPOU
  2
ARROWANG
 10
9445.463065
 20
4505.40011
 30
0.0
 41
30.0
 42
30.0
 43
30.0
  0
TEXT
  8
SUNPOU
 10
9193.677366
 20
4550.40011
 30
0.0
 40
45.0
  1
375
  7
K
 72
     1
 11
9257.96308
 21
4550.40011
 31
0.0
  0
INSERT
  8
HATCH
  2
*X2
 10
0.0
 20
0.0
 30
0.0
  0
INSERT
  8
HATCH
  2
*X3
 10
0.0
 20
0.0
 30
0.0
  0
INSERT
  8
HATCH
  2
STDGX5
 10
0.0
 20
0.0
 30
0.0
  0
TEXT
  8
TEXT
 10
3681.070097
 20
5882.266738
 30
0.0
 40
240.0
  1
斜壁
  7
K
  0
TEXT
  8
TEXT
 10
9134.797732
 20
5936.187961
 30
0.0
 40
240.0
  1
床版斜壁
  7
K
  0
TEXT
  8
TEXT
 10
1573.775666
 20
5304.738939
 30
0.0
 40
150.0
  1
MA1T45
  7
K
  0
TEXT
  8
TEXT
 10
5091.351935
 20
5295.240912
 30
0.0
 40
150.0
  1
MA1T60
  7
K
  0
TEXT
  8
TEXT
 10
9132.294607
 20
5443.130239
 30
0.0
 40
150.0
  1
MA1TP
  7
K
  0
TEXT
  8
JISSEN
 10
2660.235132
 20
7732.929112
 30
0.0
 40
300.0
  1
組立マンホール構造図
  7
K
  0
TEXT
  8
TEXT
 10
6665.080589
 20
7755.824135
 30
0.0
 40
240.0
  1
( 600 x 900 方円形 )
  7
K
  0
LINE
  8
ITTEN
 10
1289.964866
 20
3485.40011
 30
0.0
 11
1289.964866
 21
2465.40011
 31
0.0
  0
POLYLINE
  8
WAKU
 66
     1
 10
0.0
 20
0.0
 30
0.0
 70
     1
  0
VERTEX
  8
WAKU
 10
0.0
 20
0.0
 30
0.0
  0
VERTEX
  8
WAKU
 10
11850.0
 20
0.0
 30
0.0
  0
VERTEX
  8
WAKU
 10
11850.0
 20
8190.0
 30
0.0
  0
VERTEX
  8
WAKU
 10
0.0
 20
8190.0
 30
0.0
  0
SEQEND
  8
WAKU
  0
TEXT
  8
TEXT
 10
11177.193915
 20
812.161355
 30
0.0
 40
150.0
  1
1/30
  7
K
  0
ENDSEC
  0
EOF
