  0
SECTION
  2
HEADER
  9
$ACADVER
  1
AC1009
  9
$INSBASE
 10
0.0
 20
0.0
 30
0.0
  9
$EXTMIN
 10
0.0
 20
0.0
 30
0.0
  9
$EXTMAX
 10
20000.0
 20
14000.0
 30
0.0
  9
$LIMMIN
 10
0.0
 20
0.0
  9
$LIMMAX
 10
9875.0
 20
6825.0
  9
$ORTHOMODE
 70
     0
  9
$REGENMODE
 70
     1
  9
$FILLMODE
 70
     1
  9
$QTEXTMODE
 70
     0
  9
$MIRRTEXT
 70
     0
  9
$DRAGMODE
 70
     2
  9
$LTSCALE
 40
125.0
  9
$OSMODE
 70
    33
  9
$ATTMODE
 70
     1
  9
$TEXTSIZE
 40
150.0
  9
$TRACEWID
 40
0.05
  9
$TEXTSTYLE
  7
K
  9
$CLAYER
  8
TEXT
  9
$CELTYPE
  6
BYLAYER
  9
$CECOLOR
 62
   256
  9
$DIMSCALE
 40
25.0
  9
$DIMASZ
 40
1.5
  9
$DIMEXO
 40
1.0
  9
$DIMDLI
 40
6.0
  9
$DIMRND
 40
0.0
  9
$DIMDLE
 40
0.0
  9
$DIMEXE
 40
1.0
  9
$DIMTP
 40
495.0
  9
$DIMTM
 40
0.0
  9
$DIMTXT
 40
3.0
  9
$DIMCEN
 40
0.0
  9
$DIMTSZ
 40
0.0
  9
$DIMTOL
 70
     0
  9
$DIMLIM
 70
     0
  9
$DIMTIH
 70
     0
  9
$DIMTOH
 70
     0
  9
$DIMSE1
 70
     0
  9
$DIMSE2
 70
     0
  9
$DIMTAD
 70
     1
  9
$DIMZIN
 70
     8
  9
$DIMBLK
  1
ARROW
  9
$DIMASO
 70
     0
  9
$DIMSHO
 70
     0
  9
$DIMPOST
  1

  9
$DIMAPOST
  1

  9
$DIMALT
 70
     0
  9
$DIMALTD
 70
     2
  9
$DIMALTF
 40
25.4
  9
$DIMLFAC
 40
1.0
  9
$DIMTOFL
 70
     1
  9
$DIMTVP
 40
0.0
  9
$DIMTIX
 70
     1
  9
$DIMSOXD
 70
     0
  9
$DIMSAH
 70
     0
  9
$DIMBLK1
  1

  9
$DIMBLK2
  1

  9
$DIMSTYLE
  2
*UNNAMED
  9
$DIMCLRD
 70
     0
  9
$DIMCLRE
 70
     0
  9
$DIMCLRT
 70
     0
  9
$DIMTFAC
 40
1.0
  9
$DIMGAP
 40
0.09
  9
$LUNITS
 70
     2
  9
$LUPREC
 70
     2
  9
$AXISMODE
 70
     1
  9
$AXISUNIT
 10
100.0
 20
100.0
  9
$SKETCHINC
 40
0.1
  9
$FILLETRAD
 40
10.0
  9
$AUNITS
 70
     0
  9
$AUPREC
 70
     2
  9
$MENU
  1
d:stdgx5
  9
$ELEVATION
 40
0.0
  9
$PELEVATION
 40
0.0
  9
$THICKNESS
 40
0.0
  9
$LIMCHECK
 70
     0
  9
$BLIPMODE
 70
     1
  9
$CHAMFERA
 40
0.0
  9
$CHAMFERB
 40
0.0
  9
$SKPOLY
 70
     0
  9
$TDCREATE
 40
2449293.366585648
  9
$TDUPDATE
 40
2450245.664027778
  9
$TDINDWG
 40
0.2015046296
  9
$TDUSRTIMER
 40
0.2015046296
  9
$USRTIMER
 70
     1
  9
$ANGBASE
 50
0.0
  9
$ANGDIR
 70
     0
  9
$PDMODE
 70
     0
  9
$PDSIZE
 40
0.0
  9
$PLINEWID
 40
0.0
  9
$COORDS
 70
     2
  9
$SPLFRAME
 70
     0
  9
$SPLINETYPE
 70
     6
  9
$SPLINESEGS
 70
     8
  9
$ATTDIA
 70
     0
  9
$ATTREQ
 70
     1
  9
$HANDLING
 70
     0
  9
$HANDSEED
  5
0
  9
$SURFTAB1
 70
     6
  9
$SURFTAB2
 70
     6
  9
$SURFTYPE
 70
     6
  9
$SURFU
 70
     6
  9
$SURFV
 70
     6
  9
$UCSNAME
  2

  9
$UCSORG
 10
0.0
 20
0.0
 30
0.0
  9
$UCSXDIR
 10
1.0
 20
0.0
 30
0.0
  9
$UCSYDIR
 10
0.0
 20
1.0
 30
0.0
  9
$PUCSNAME
  2

  9
$PUCSORG
 10
0.0
 20
0.0
 30
0.0
  9
$PUCSXDIR
 10
1.0
 20
0.0
 30
0.0
  9
$PUCSYDIR
 10
0.0
 20
1.0
 30
0.0
  9
$USERI1
 70
     3
  9
$USERI2
 70
    33
  9
$USERI3
 70
     0
  9
$USERI4
 70
     1
  9
$USERI5
 70
     0
  9
$USERR1
 40
25.0
  9
$USERR2
 40
3.0
  9
$USERR3
 40
3.0
  9
$USERR4
 40
1.5
  9
$USERR5
 40
10.0
  9
$WORLDVIEW
 70
     1
  9
$SHADEDGE
 70
     3
  9
$SHADEDIF
 70
    70
  9
$TILEMODE
 70
     1
  9
$MAXACTVP
 70
    16
  9
$PINSBASE
 10
0.0
 20
0.0
 30
0.0
  9
$PLIMCHECK
 70
     0
  9
$PEXTMIN
 10
1.000000E+20
 20
1.000000E+20
 30
1.000000E+20
  9
$PEXTMAX
 10
-1.000000E+20
 20
-1.000000E+20
 30
-1.000000E+20
  9
$PLIMMIN
 10
0.0
 20
0.0
  9
$PLIMMAX
 10
12.0
 20
9.0
  9
$UNITMODE
 70
     0
  9
$VISRETAIN
 70
     0
  0
ENDSEC
  0
SECTION
  2
TABLES
  0
TABLE
  2
VPORT
 70
    10
  0
VPORT
  2
*ACTIVE
 70
     0
 10
0.0
 20
0.0
 11
1.0
 21
1.0
 12
5576.263114
 22
3412.5
 13
0.0
 23
0.0
 14
1.0
 24
1.0
 15
10.0
 25
10.0
 16
0.0
 26
0.0
 36
1.0
 17
0.0
 27
0.0
 37
0.0
 40
6825.0
 41
1.63407
 42
50.0
 43
0.0
 44
0.0
 50
0.0
 51
0.0
 71
     0
 72
   500
 73
     1
 74
     0
 75
     0
 76
     0
 77
     0
 78
     0
  0
VPORT
  2
2
 70
     0
 10
0.5
 20
0.0
 11
1.0
 21
1.0
 12
0.924031
 22
1.052651
 13
0.0
 23
0.0
 14
1.0
 24
1.0
 15
10.0
 25
10.0
 16
0.0
 26
0.0
 36
1.0
 17
0.0
 27
0.0
 37
0.0
 40
2.105302
 41
0.877814
 42
50.0
 43
0.0
 44
0.0
 50
0.0
 51
0.0
 71
     0
 72
   500
 73
     1
 74
     1
 75
     0
 76
     0
 77
     0
 78
     0
  0
VPORT
  2
2
 70
     0
 10
0.0
 20
0.0
 11
0.5
 21
1.0
 12
0.924031
 22
1.052651
 13
0.0
 23
0.0
 14
1.0
 24
1.0
 15
10.0
 25
10.0
 16
0.0
 26
0.0
 36
1.0
 17
0.0
 27
0.0
 37
0.0
 40
2.105302
 41
0.877814
 42
50.0
 43
0.0
 44
0.0
 50
0.0
 51
0.0
 71
     0
 72
   500
 73
     1
 74
     1
 75
     0
 76
     0
 77
     0
 78
     0
  0
VPORT
  2
3
 70
     0
 10
0.0
 20
0.5
 11
1.0
 21
1.0
 12
2.83217
 22
1.052651
 13
0.0
 23
0.0
 14
1.0
 24
1.0
 15
10.0
 25
10.0
 16
0.0
 26
0.0
 36
1.0
 17
0.0
 27
0.0
 37
0.0
 40
2.105302
 41
3.571429
 42
50.0
 43
0.0
 44
0.0
 50
0.0
 51
0.0
 71
     0
 72
   500
 73
     1
 74
     1
 75
     0
 76
     0
 77
     0
 78
     0
  0
VPORT
  2
3
 70
     0
 10
0.0
 20
0.0
 11
1.0
 21
0.5
 12
2.856742
 22
1.052651
 13
0.0
 23
0.0
 14
1.0
 24
1.0
 15
10.0
 25
10.0
 16
0.0
 26
0.0
 36
1.0
 17
0.0
 27
0.0
 37
0.0
 40
2.105302
 41
3.594771
 42
50.0
 43
0.0
 44
0.0
 50
0.0
 51
0.0
 71
     0
 72
   500
 73
     1
 74
     1
 75
     0
 76
     0
 77
     0
 78
     0
  0
VPORT
  2
4
 70
     0
 10
0.5
 20
0.0
 11
1.0
 21
0.5
 12
2.886858
 22
1.052651
 13
0.0
 23
0.0
 14
1.0
 24
1.0
 15
10.0
 25
10.0
 16
0.0
 26
0.0
 36
1.0
 17
0.0
 27
0.0
 37
0.0
 40
4.275207
 41
1.784314
 42
50.0
 43
0.0
 44
0.0
 50
0.0
 51
0.0
 71
     0
 72
   500
 73
     1
 74
     1
 75
     0
 76
     0
 77
     0
 78
     0
  0
VPORT
  2
4
 70
     0
 10
0.5
 20
0.5
 11
1.0
 21
1.0
 12
2.86209
 22
1.052651
 13
0.0
 23
0.0
 14
1.0
 24
1.0
 15
10.0
 25
10.0
 16
0.0
 26
0.0
 36
1.0
 17
0.0
 27
0.0
 37
0.0
 40
4.275207
 41
1.772727
 42
50.0
 43
0.0
 44
0.0
 50
0.0
 51
0.0
 71
     0
 72
   500
 73
     1
 74
     1
 75
     0
 76
     0
 77
     0
 78
     0
  0
VPORT
  2
4
 70
     0
 10
0.0
 20
0.5
 11
0.5
 21
1.0
 12
2.86209
 22
1.052651
 13
0.0
 23
0.0
 14
1.0
 24
1.0
 15
10.0
 25
10.0
 16
0.0
 26
0.0
 36
1.0
 17
0.0
 27
0.0
 37
0.0
 40
4.275207
 41
1.772727
 42
50.0
 43
0.0
 44
0.0
 50
0.0
 51
0.0
 71
     0
 72
   500
 73
     1
 74
     1
 75
     0
 76
     0
 77
     0
 78
     0
  0
VPORT
  2
4
 70
     0
 10
0.0
 20
0.0
 11
0.5
 21
0.5
 12
2.886858
 22
1.052651
 13
0.0
 23
0.0
 14
1.0
 24
1.0
 15
10.0
 25
10.0
 16
0.0
 26
0.0
 36
1.0
 17
0.0
 27
0.0
 37
0.0
 40
4.275207
 41
1.784314
 42
50.0
 43
0.0
 44
0.0
 50
0.0
 51
0.0
 71
     0
 72
   500
 73
     1
 74
     1
 75
     0
 76
     0
 77
     0
 78
     0
  0
ENDTAB
  0
TABLE
  2
LTYPE
 70
     5
  0
LTYPE
  2
CONTINUOUS
 70
    64
  3
実線
 72
    65
 73
     0
 40
0.0
  0
LTYPE
  2
DASHED
 70
    64
  3
__ __ __ __ __ __ __ __ __ __ __ __ __ __ __
 72
    65
 73
     2
 40
0.75
 49
0.5
 49
-0.25
  0
LTYPE
  2
CENTER
 70
    64
  3
____ _ ____ _ ____ _ ____ _ ____ _ ____ _ ____
 72
    65
 73
     4
 40
2.0
 49
1.25
 49
-0.25
 49
0.25
 49
-0.25
  0
LTYPE
  2
PHANTOM
 70
    64
  3
_____ _ _ _____ _ _ _____ _ _ _____ _ _ ____
 72
    65
 73
     6
 40
2.5
 49
1.25
 49
-0.25
 49
0.25
 49
-0.25
 49
0.25
 49
-0.25
  0
LTYPE
  2
HIDDEN
 70
    64
  3
_ _ _ _ _ _ _ _ _ _ _ _ _ _ _ _ _ _ _ _ _ _ _
 72
    65
 73
     2
 40
0.375
 49
0.25
 49
-0.125
  0
ENDTAB
  0
TABLE
  2
LAYER
 70
    14
  0
LAYER
  2
0
 70
     0
 62
     7
  6
CONTINUOUS
  0
LAYER
  2
HASEN
 70
    64
 62
     2
  6
DASHED
  0
LAYER
  2
ITTEN
 70
    64
 62
     1
  6
CENTER
  0
LAYER
  2
SUNPOU
 70
    64
 62
     3
  6
CONTINUOUS
  0
LAYER
  2
TEXT
 70
    64
 62
     3
  6
CONTINUOUS
  0
LAYER
  2
SAISEN
 70
    64
 62
     4
  6
CONTINUOUS
  0
LAYER
  2
JISSEN
 70
    64
 62
     7
  6
CONTINUOUS
  0
LAYER
  2
WAKU
 70
    64
 62
    -5
  6
CONTINUOUS
  0
ENDTAB
  0
TABLE
  2
STYLE
 70
     2
  0
STYLE
  2
STANDARD
 70
     0
 40
0.0
 41
1.0
 50
0.0
 71
     0
 42
0.2
  3
ROMANS
  4
EXTFONT
  0
STYLE
  2
K
 70
    64
 40
0.0
 41
1.0
 50
0.0
 71
     0
 42
150.0
  3
ROMANS
  4
EXTFONT
  0
ENDTAB
  0
TABLE
  2
VIEW
 70
     0
  0
ENDTAB
  0
TABLE
  2
UCS
 70
     0
  0
ENDTAB
  0
TABLE
  2
APPID
 70
     1
  0
APPID
  2
ACAD
 70
    64
  0
ENDTAB
  0
TABLE
  2
DIMSTYLE
 70
     0
  0
ENDTAB
  0
ENDSEC
  0
SECTION
  2
BLOCKS
  0
BLOCK
  8
SUNPOU
  2
ARROWANG
 70
    64
 10
0.0
 20
0.0
 30
0.0
  3
ARROWANG
  0
LINE
  8
SUNPOU
 10
0.0
 20
0.0
 30
0.0
 11
-1.5
 21
0.401924
 31
0.0
  0
LINE
  8
SUNPOU
 10
0.0
 20
0.0
 30
0.0
 11
-1.5
 21
-0.401924
 31
0.0
  0
ENDBLK
  8
SUNPOU
  0
ENDSEC
  0
SECTION
  2
ENTITIES
  0
TEXT
  8
JISSEN
 10
2223.284439
 20
6170.811207
 30
0.0
 40
250.0
  1
組立マンホール構造図（内径７５０ｍｍ)
  7
K
  0
LINE
  8
HASEN
 10
2698.707321
 20
1309.37008
 30
0.0
 11
2663.419332
 21
1344.658069
 31
0.0
  0
LINE
  8
HASEN
 10
2649.277196
 20
1330.515933
 30
0.0
 11
2663.419332
 21
1344.658069
 31
0.0
  0
LINE
  8
HASEN
 10
2649.277196
 20
1330.515933
 30
0.0
 11
2684.565185
 21
1295.227944
 31
0.0
  0
LINE
  8
ITTEN
 10
2620.992925
 20
1372.94234
 30
0.0
 11
2727.058942
 21
1266.876323
 31
0.0
  0
POINT
  8
HASEN
 10
2372.798445
 20
1621.136821
 30
0.0
  0
LINE
  8
ITTEN
 10
1798.505551
 20
1620.429714
 30
0.0
 11
2948.505551
 21
1620.429714
 31
0.0
  0
LINE
  8
ITTEN
 10
2373.505551
 20
2195.429714
 30
0.0
 11
2373.505551
 21
1045.429714
 31
0.0
  0
LINE
  8
JISSEN
 10
2029.812374
 20
1470.429714
 30
0.0
 11
2088.505551
 21
1470.429714
 31
0.0
  0
LINE
  8
JISSEN
 10
2098.505551
 20
1760.429714
 30
0.0
 11
2098.505551
 21
1480.429714
 31
0.0
  0
LINE
  8
JISSEN
 10
2088.505551
 20
1770.429714
 30
0.0
 11
2029.812374
 21
1770.429714
 31
0.0
  0
LINE
  8
JISSEN
 10
2021.759905
 20
1490.429714
 30
0.0
 11
2068.505551
 21
1490.429714
 31
0.0
  0
LINE
  8
JISSEN
 10
2078.505551
 20
1500.429714
 30
0.0
 11
2078.505551
 21
1740.429714
 31
0.0
  0
LINE
  8
JISSEN
 10
2068.505551
 20
1750.429714
 30
0.0
 11
2021.759905
 21
1750.429714
 31
0.0
  0
ARC
  8
JISSEN
 10
2088.505551
 20
1480.429714
 30
0.0
 40
10.0
 50
270.0
 51
0.0
  0
ARC
  8
JISSEN
 10
2068.505551
 20
1500.429714
 30
0.0
 40
10.0
 50
270.0
 51
0.0
  0
ARC
  8
JISSEN
 10
2068.505551
 20
1740.429714
 30
0.0
 40
10.0
 50
0.0
 51
90.0
  0
ARC
  8
JISSEN
 10
2088.505551
 20
1760.429714
 30
0.0
 40
10.0
 50
0.0
 51
90.0
  0
CIRCLE
  8
JISSEN
 10
2373.505551
 20
1620.429714
 30
0.0
 40
375.0
  0
CIRCLE
  8
JISSEN
 10
2373.505551
 20
1620.429714
 30
0.0
 40
403.0
  0
CIRCLE
  8
JISSEN
 10
2373.505551
 20
1620.429714
 30
0.0
 40
410.0
  0
CIRCLE
  8
JISSEN
 10
2373.505551
 20
1620.429714
 30
0.0
 40
450.0
  0
LINE
  8
HASEN
 10
2097.733907
 20
1910.343494
 30
0.0
 11
2062.445917
 21
1945.631483
 31
0.0
  0
LINE
  8
HASEN
 10
2097.733907
 20
1910.343494
 30
0.0
 11
2083.591771
 21
1896.201358
 31
0.0
  0
LINE
  8
HASEN
 10
2048.303782
 20
1931.489348
 30
0.0
 11
2083.591771
 21
1896.201358
 31
0.0
  0
LINE
  8
ITTEN
 10
2126.018178
 20
1867.917087
 30
0.0
 11
2019.952161
 21
1973.983104
 31
0.0
  0
TEXT
  8
TEXT
 10
2015.751692
 20
4763.84667
 30
0.0
 40
100.0
  1
Ｍ０Ｓ１８０
  7
K
  0
TEXT
  8
TEXT
 10
3805.179958
 20
4777.712263
 30
0.0
 40
100.0
  1
Ｍ０Ｓ１５０
  7
K
  0
TEXT
  8
TEXT
 10
5634.488981
 20
4781.83605
 30
0.0
 40
100.0
  1
Ｍ０Ｓ１２０
  7
K
  0
TEXT
  8
TEXT
 10
7474.689807
 20
4780.319844
 30
0.0
 40
100.0
  1
Ｍ０Ｓ９０
  7
K
  0
TEXT
  8
TEXT
 10
5693.998829
 20
2304.08106
 30
0.0
 40
100.0
  1
Ｍ０Ｓ６０
  7
K
  0
TEXT
  8
TEXT
 10
7457.134263
 20
2246.677654
 30
0.0
 40
100.0
  1
Ｍ０Ｓ３０
  7
K
  0
LINE
  8
SUNPOU
 10
7323.505551
 20
2086.194226
 30
0.0
 11
8223.505551
 21
2086.194226
 31
0.0
  0
INSERT
  8
SUNPOU
  2
ARROWANG
 10
7323.505551
 20
2086.194226
 30
0.0
 41
30.0
 42
30.0
 50
180.0
 43
30.0
  0
INSERT
  8
SUNPOU
  2
ARROWANG
 10
8223.505551
 20
2086.194226
 30
0.0
 41
30.0
 42
30.0
 43
30.0
  0
TEXT
  8
SUNPOU
 10
7687.79128
 20
2131.194226
 30
0.0
 40
60.0
  1
900
  7
K
 72
     1
 11
7773.505566
 21
2131.194226
 31
0.0
  0
LINE
  8
SUNPOU
 10
7323.505551
 20
1953.910761
 30
0.0
 11
7398.505551
 21
1953.910761
 31
0.0
  0
INSERT
  8
SUNPOU
  2
ARROWANG
 10
7398.505551
 20
1953.910761
 30
0.0
 41
30.0
 42
30.0
 50
180.0
 43
30.0
  0
INSERT
  8
SUNPOU
  2
ARROWANG
 10
7323.505551
 20
1953.910761
 30
0.0
 41
30.0
 42
30.0
 43
30.0
  0
LINE
  8
SUNPOU
 10
7323.505551
 20
1953.910761
 30
0.0
 11
7191.505551
 21
1953.910761
 31
0.0
  0
LINE
  8
SUNPOU
 10
7398.505551
 20
1953.910761
 30
0.0
 11
7458.505551
 21
1953.910761
 31
0.0
  0
TEXT
  8
SUNPOU
 10
7200.362694
 20
1998.910761
 30
0.0
 40
60.0
  1
75
  7
K
 72
     1
 11
7257.505551
 21
1998.910761
 31
0.0
  0
LINE
  8
SUNPOU
 10
7398.505551
 20
1953.910761
 30
0.0
 11
8148.505551
 21
1953.910761
 31
0.0
  0
INSERT
  8
SUNPOU
  2
ARROWANG
 10
7398.505551
 20
1953.910761
 30
0.0
 41
30.0
 42
30.0
 50
180.0
 43
30.0
  0
INSERT
  8
SUNPOU
  2
ARROWANG
 10
8148.505551
 20
1953.910761
 30
0.0
 41
30.0
 42
30.0
 43
30.0
  0
TEXT
  8
SUNPOU
 10
7687.791266
 20
1998.910761
 30
0.0
 40
60.0
  1
750
  7
K
 72
     1
 11
7773.505551
 21
1998.910761
 31
0.0
  0
LINE
  8
SUNPOU
 10
8148.505551
 20
1953.910761
 30
0.0
 11
8223.505551
 21
1953.910761
 31
0.0
  0
INSERT
  8
SUNPOU
  2
ARROWANG
 10
8223.505551
 20
1953.910761
 30
0.0
 41
30.0
 42
30.0
 50
180.0
 43
30.0
  0
INSERT
  8
SUNPOU
  2
ARROWANG
 10
8148.505551
 20
1953.910761
 30
0.0
 41
30.0
 42
30.0
 43
30.0
  0
LINE
  8
SUNPOU
 10
8223.505551
 20
1953.910761
 30
0.0
 11
8355.505551
 21
1953.910761
 31
0.0
  0
TEXT
  8
SUNPOU
 10
8313.505551
 20
1998.910761
 30
0.0
 40
60.0
  1
75
  7
K
  0
LINE
  8
SUNPOU
 10
8148.505551
 20
1953.910761
 30
0.0
 11
8088.505551
 21
1953.910761
 31
0.0
  0
LINE
  8
SUNPOU
 10
7323.505551
 20
1887.518159
 30
0.0
 11
7323.505551
 21
2116.194226
 31
0.0
  0
LINE
  8
SUNPOU
 10
7398.505551
 20
1864.518159
 30
0.0
 11
7398.505551
 21
1983.910761
 31
0.0
  0
LINE
  8
SUNPOU
 10
8148.505551
 20
1864.518159
 30
0.0
 11
8148.505551
 21
1983.910761
 31
0.0
  0
LINE
  8
SUNPOU
 10
8223.505551
 20
1887.518159
 30
0.0
 11
8223.505551
 21
2116.194226
 31
0.0
  0
LINE
  8
SUNPOU
 10
5523.505551
 20
2086.194226
 30
0.0
 11
6423.505551
 21
2086.194226
 31
0.0
  0
INSERT
  8
SUNPOU
  2
ARROWANG
 10
5523.505551
 20
2086.194226
 30
0.0
 41
30.0
 42
30.0
 50
180.0
 43
30.0
  0
INSERT
  8
SUNPOU
  2
ARROWANG
 10
6423.505551
 20
2086.194226
 30
0.0
 41
30.0
 42
30.0
 43
30.0
  0
TEXT
  8
SUNPOU
 10
5887.79128
 20
2131.194226
 30
0.0
 40
60.0
  1
900
  7
K
 72
     1
 11
5973.505566
 21
2131.194226
 31
0.0
  0
LINE
  8
SUNPOU
 10
5523.505551
 20
1953.910761
 30
0.0
 11
5598.505551
 21
1953.910761
 31
0.0
  0
INSERT
  8
SUNPOU
  2
ARROWANG
 10
5598.505551
 20
1953.910761
 30
0.0
 41
30.0
 42
30.0
 50
180.0
 43
30.0
  0
INSERT
  8
SUNPOU
  2
ARROWANG
 10
5523.505551
 20
1953.910761
 30
0.0
 41
30.0
 42
30.0
 43
30.0
  0
LINE
  8
SUNPOU
 10
5523.505551
 20
1953.910761
 30
0.0
 11
5391.505551
 21
1953.910761
 31
0.0
  0
LINE
  8
SUNPOU
 10
5598.505551
 20
1953.910761
 30
0.0
 11
5658.505551
 21
1953.910761
 31
0.0
  0
TEXT
  8
SUNPOU
 10
5400.362694
 20
1998.910761
 30
0.0
 40
60.0
  1
75
  7
K
 72
     1
 11
5457.505551
 21
1998.910761
 31
0.0
  0
LINE
  8
SUNPOU
 10
5598.505551
 20
1953.910761
 30
0.0
 11
6348.505551
 21
1953.910761
 31
0.0
  0
INSERT
  8
SUNPOU
  2
ARROWANG
 10
5598.505551
 20
1953.910761
 30
0.0
 41
30.0
 42
30.0
 50
180.0
 43
30.0
  0
INSERT
  8
SUNPOU
  2
ARROWANG
 10
6348.505551
 20
1953.910761
 30
0.0
 41
30.0
 42
30.0
 43
30.0
  0
TEXT
  8
SUNPOU
 10
5887.791266
 20
1998.910761
 30
0.0
 40
60.0
  1
750
  7
K
 72
     1
 11
5973.505551
 21
1998.910761
 31
0.0
  0
LINE
  8
SUNPOU
 10
6348.505551
 20
1953.910761
 30
0.0
 11
6423.505551
 21
1953.910761
 31
0.0
  0
INSERT
  8
SUNPOU
  2
ARROWANG
 10
6423.505551
 20
1953.910761
 30
0.0
 41
30.0
 42
30.0
 50
180.0
 43
30.0
  0
INSERT
  8
SUNPOU
  2
ARROWANG
 10
6348.505551
 20
1953.910761
 30
0.0
 41
30.0
 42
30.0
 43
30.0
  0
LINE
  8
SUNPOU
 10
6423.505551
 20
1953.910761
 30
0.0
 11
6555.505551
 21
1953.910761
 31
0.0
  0
TEXT
  8
SUNPOU
 10
6513.505551
 20
1998.910761
 30
0.0
 40
60.0
  1
75
  7
K
  0
LINE
  8
SUNPOU
 10
6348.505551
 20
1953.910761
 30
0.0
 11
6288.505551
 21
1953.910761
 31
0.0
  0
LINE
  8
SUNPOU
 10
5523.505551
 20
1887.518159
 30
0.0
 11
5523.505551
 21
2116.194226
 31
0.0
  0
LINE
  8
SUNPOU
 10
5598.505551
 20
1864.518159
 30
0.0
 11
5598.505551
 21
1983.910761
 31
0.0
  0
LINE
  8
SUNPOU
 10
6348.505551
 20
1864.518159
 30
0.0
 11
6348.505551
 21
1983.910761
 31
0.0
  0
LINE
  8
SUNPOU
 10
6423.505551
 20
1887.518159
 30
0.0
 11
6423.505551
 21
2116.194226
 31
0.0
  0
LINE
  8
JISSEN
 10
7773.505551
 20
1857.518159
 30
0.0
 11
8223.505551
 21
1857.518159
 31
0.0
  0
LINE
  8
JISSEN
 10
5973.505551
 20
1857.518159
 30
0.0
 11
6423.505551
 21
1857.518159
 31
0.0
  0
LINE
  8
SUNPOU
 10
8223.505551
 20
4378.135262
 30
0.0
 11
8223.505551
 21
4606.811329
 31
0.0
  0
LINE
  8
SUNPOU
 10
8148.505551
 20
4355.135262
 30
0.0
 11
8148.505551
 21
4474.527864
 31
0.0
  0
LINE
  8
SUNPOU
 10
7398.505551
 20
4355.135262
 30
0.0
 11
7398.505551
 21
4474.527864
 31
0.0
  0
LINE
  8
SUNPOU
 10
7323.505551
 20
4378.135262
 30
0.0
 11
7323.505551
 21
4606.811329
 31
0.0
  0
LINE
  8
SUNPOU
 10
8148.505551
 20
4444.527864
 30
0.0
 11
8088.505551
 21
4444.527864
 31
0.0
  0
TEXT
  8
SUNPOU
 10
8313.505551
 20
4489.527864
 30
0.0
 40
60.0
  1
75
  7
K
  0
LINE
  8
SUNPOU
 10
8223.505551
 20
4444.527864
 30
0.0
 11
8355.505551
 21
4444.527864
 31
0.0
  0
INSERT
  8
SUNPOU
  2
ARROWANG
 10
8148.505551
 20
4444.527864
 30
0.0
 41
30.0
 42
30.0
 43
30.0
  0
INSERT
  8
SUNPOU
  2
ARROWANG
 10
8223.505551
 20
4444.527864
 30
0.0
 41
30.0
 42
30.0
 50
180.0
 43
30.0
  0
LINE
  8
SUNPOU
 10
8148.505551
 20
4444.527864
 30
0.0
 11
8223.505551
 21
4444.527864
 31
0.0
  0
TEXT
  8
SUNPOU
 10
7687.791266
 20
4489.527864
 30
0.0
 40
60.0
  1
750
  7
K
 72
     1
 11
7773.505551
 21
4489.527864
 31
0.0
  0
INSERT
  8
SUNPOU
  2
ARROWANG
 10
8148.505551
 20
4444.527864
 30
0.0
 41
30.0
 42
30.0
 43
30.0
  0
INSERT
  8
SUNPOU
  2
ARROWANG
 10
7398.505551
 20
4444.527864
 30
0.0
 41
30.0
 42
30.0
 50
180.0
 43
30.0
  0
LINE
  8
SUNPOU
 10
7398.505551
 20
4444.527864
 30
0.0
 11
8148.505551
 21
4444.527864
 31
0.0
  0
TEXT
  8
SUNPOU
 10
7200.362694
 20
4489.527864
 30
0.0
 40
60.0
  1
75
  7
K
 72
     1
 11
7257.505551
 21
4489.527864
 31
0.0
  0
LINE
  8
SUNPOU
 10
7398.505551
 20
4444.527864
 30
0.0
 11
7458.505551
 21
4444.527864
 31
0.0
  0
LINE
  8
SUNPOU
 10
7323.505551
 20
4444.527864
 30
0.0
 11
7191.505551
 21
4444.527864
 31
0.0
  0
INSERT
  8
SUNPOU
  2
ARROWANG
 10
7323.505551
 20
4444.527864
 30
0.0
 41
30.0
 42
30.0
 43
30.0
  0
INSERT
  8
SUNPOU
  2
ARROWANG
 10
7398.505551
 20
4444.527864
 30
0.0
 41
30.0
 42
30.0
 50
180.0
 43
30.0
  0
LINE
  8
SUNPOU
 10
7323.505551
 20
4444.527864
 30
0.0
 11
7398.505551
 21
4444.527864
 31
0.0
  0
TEXT
  8
SUNPOU
 10
7687.79128
 20
4621.811329
 30
0.0
 40
60.0
  1
900
  7
K
 72
     1
 11
7773.505566
 21
4621.811329
 31
0.0
  0
INSERT
  8
SUNPOU
  2
ARROWANG
 10
8223.505551
 20
4576.811329
 30
0.0
 41
30.0
 42
30.0
 43
30.0
  0
INSERT
  8
SUNPOU
  2
ARROWANG
 10
7323.505551
 20
4576.811329
 30
0.0
 41
30.0
 42
30.0
 50
180.0
 43
30.0
  0
LINE
  8
SUNPOU
 10
7323.505551
 20
4576.811329
 30
0.0
 11
8223.505551
 21
4576.811329
 31
0.0
  0
LINE
  8
JISSEN
 10
7773.505551
 20
4348.135262
 30
0.0
 11
8223.505551
 21
4348.135262
 31
0.0
  0
LINE
  8
SUNPOU
 10
5523.505551
 20
4378.135262
 30
0.0
 11
5523.505551
 21
4606.811329
 31
0.0
  0
LINE
  8
SUNPOU
 10
6423.505551
 20
4378.135262
 30
0.0
 11
6423.505551
 21
4606.811329
 31
0.0
  0
LINE
  8
SUNPOU
 10
5523.505551
 20
4576.811329
 30
0.0
 11
6423.505551
 21
4576.811329
 31
0.0
  0
INSERT
  8
SUNPOU
  2
ARROWANG
 10
5523.505551
 20
4576.811329
 30
0.0
 41
30.0
 42
30.0
 50
180.0
 43
30.0
  0
INSERT
  8
SUNPOU
  2
ARROWANG
 10
6423.505551
 20
4576.811329
 30
0.0
 41
30.0
 42
30.0
 43
30.0
  0
TEXT
  8
SUNPOU
 10
5887.79128
 20
4621.811329
 30
0.0
 40
60.0
  1
900
  7
K
 72
     1
 11
5973.505566
 21
4621.811329
 31
0.0
  0
LINE
  8
SUNPOU
 10
5523.505551
 20
4378.135262
 30
0.0
 11
5523.505551
 21
4474.527864
 31
0.0
  0
LINE
  8
SUNPOU
 10
5598.505551
 20
4355.135262
 30
0.0
 11
5598.505551
 21
4474.527864
 31
0.0
  0
LINE
  8
SUNPOU
 10
5523.505551
 20
4444.527864
 30
0.0
 11
5598.505551
 21
4444.527864
 31
0.0
  0
INSERT
  8
SUNPOU
  2
ARROWANG
 10
5598.505551
 20
4444.527864
 30
0.0
 41
30.0
 42
30.0
 50
180.0
 43
30.0
  0
INSERT
  8
SUNPOU
  2
ARROWANG
 10
5523.505551
 20
4444.527864
 30
0.0
 41
30.0
 42
30.0
 43
30.0
  0
LINE
  8
SUNPOU
 10
5523.505551
 20
4444.527864
 30
0.0
 11
5391.505551
 21
4444.527864
 31
0.0
  0
LINE
  8
SUNPOU
 10
5598.505551
 20
4444.527864
 30
0.0
 11
5658.505551
 21
4444.527864
 31
0.0
  0
TEXT
  8
SUNPOU
 10
5400.362694
 20
4489.527864
 30
0.0
 40
60.0
  1
75
  7
K
 72
     1
 11
5457.505551
 21
4489.527864
 31
0.0
  0
LINE
  8
SUNPOU
 10
5598.505551
 20
4444.527864
 30
0.0
 11
6348.505551
 21
4444.527864
 31
0.0
  0
LINE
  8
SUNPOU
 10
6348.505551
 20
4355.135262
 30
0.0
 11
6348.505551
 21
4474.527864
 31
0.0
  0
INSERT
  8
SUNPOU
  2
ARROWANG
 10
5598.505551
 20
4444.527864
 30
0.0
 41
30.0
 42
30.0
 50
180.0
 43
30.0
  0
INSERT
  8
SUNPOU
  2
ARROWANG
 10
6348.505551
 20
4444.527864
 30
0.0
 41
30.0
 42
30.0
 43
30.0
  0
TEXT
  8
SUNPOU
 10
5887.791266
 20
4489.527864
 30
0.0
 40
60.0
  1
750
  7
K
 72
     1
 11
5973.505551
 21
4489.527864
 31
0.0
  0
LINE
  8
SUNPOU
 10
6348.505551
 20
4444.527864
 30
0.0
 11
6423.505551
 21
4444.527864
 31
0.0
  0
LINE
  8
SUNPOU
 10
6423.505551
 20
4378.135262
 30
0.0
 11
6423.505551
 21
4474.527864
 31
0.0
  0
INSERT
  8
SUNPOU
  2
ARROWANG
 10
6423.505551
 20
4444.527864
 30
0.0
 41
30.0
 42
30.0
 50
180.0
 43
30.0
  0
INSERT
  8
SUNPOU
  2
ARROWANG
 10
6348.505551
 20
4444.527864
 30
0.0
 41
30.0
 42
30.0
 43
30.0
  0
LINE
  8
SUNPOU
 10
6423.505551
 20
4444.527864
 30
0.0
 11
6555.505551
 21
4444.527864
 31
0.0
  0
TEXT
  8
SUNPOU
 10
6513.505551
 20
4489.527864
 30
0.0
 40
60.0
  1
75
  7
K
  0
LINE
  8
SUNPOU
 10
6348.505551
 20
4444.527864
 30
0.0
 11
6288.505551
 21
4444.527864
 31
0.0
  0
LINE
  8
JISSEN
 10
5973.505551
 20
4348.135262
 30
0.0
 11
6423.505551
 21
4348.135262
 31
0.0
  0
LINE
  8
SUNPOU
 10
4541.351052
 20
4439.400598
 30
0.0
 11
4481.351052
 21
4439.400598
 31
0.0
  0
TEXT
  8
SUNPOU
 10
4713.505551
 20
4484.400598
 30
0.0
 40
60.0
  1
75
  7
K
  0
LINE
  8
SUNPOU
 10
4623.505551
 20
4439.400598
 30
0.0
 11
4755.505551
 21
4439.400598
 31
0.0
  0
INSERT
  8
SUNPOU
  2
ARROWANG
 10
4541.351052
 20
4439.400598
 30
0.0
 41
30.0
 42
30.0
 43
30.0
  0
INSERT
  8
SUNPOU
  2
ARROWANG
 10
4623.505551
 20
4439.400598
 30
0.0
 41
30.0
 42
30.0
 50
180.0
 43
30.0
  0
LINE
  8
SUNPOU
 10
4623.505551
 20
4378.135262
 30
0.0
 11
4623.505551
 21
4469.400598
 31
0.0
  0
LINE
  8
SUNPOU
 10
4541.351052
 20
4439.400598
 30
0.0
 11
4623.505551
 21
4439.400598
 31
0.0
  0
TEXT
  8
SUNPOU
 10
4084.214016
 20
4484.400598
 30
0.0
 40
60.0
  1
750
  7
K
 72
     1
 11
4169.928302
 21
4484.400598
 31
0.0
  0
INSERT
  8
SUNPOU
  2
ARROWANG
 10
4541.351052
 20
4439.400598
 30
0.0
 41
30.0
 42
30.0
 43
30.0
  0
INSERT
  8
SUNPOU
  2
ARROWANG
 10
3798.505551
 20
4439.400598
 30
0.0
 41
30.0
 42
30.0
 50
180.0
 43
30.0
  0
LINE
  8
SUNPOU
 10
4541.351052
 20
4355.135262
 30
0.0
 11
4541.351052
 21
4469.400598
 31
0.0
  0
LINE
  8
SUNPOU
 10
3798.505551
 20
4439.400598
 30
0.0
 11
4541.351052
 21
4439.400598
 31
0.0
  0
TEXT
  8
SUNPOU
 10
3600.362694
 20
4484.400598
 30
0.0
 40
60.0
  1
75
  7
K
 72
     1
 11
3657.505551
 21
4484.400598
 31
0.0
  0
LINE
  8
SUNPOU
 10
3798.505551
 20
4439.400598
 30
0.0
 11
3858.505551
 21
4439.400598
 31
0.0
  0
LINE
  8
SUNPOU
 10
3723.505551
 20
4439.400598
 30
0.0
 11
3591.505551
 21
4439.400598
 31
0.0
  0
INSERT
  8
SUNPOU
  2
ARROWANG
 10
3723.505551
 20
4439.400598
 30
0.0
 41
30.0
 42
30.0
 43
30.0
  0
INSERT
  8
SUNPOU
  2
ARROWANG
 10
3798.505551
 20
4439.400598
 30
0.0
 41
30.0
 42
30.0
 50
180.0
 43
30.0
  0
LINE
  8
SUNPOU
 10
3723.505551
 20
4439.400598
 30
0.0
 11
3798.505551
 21
4439.400598
 31
0.0
  0
LINE
  8
SUNPOU
 10
3798.505551
 20
4355.135262
 30
0.0
 11
3798.505551
 21
4469.400598
 31
0.0
  0
LINE
  8
SUNPOU
 10
3723.505551
 20
4378.135262
 30
0.0
 11
3723.505551
 21
4469.400598
 31
0.0
  0
TEXT
  8
SUNPOU
 10
4087.79128
 20
4621.811329
 30
0.0
 40
60.0
  1
900
  7
K
 72
     1
 11
4173.505566
 21
4621.811329
 31
0.0
  0
INSERT
  8
SUNPOU
  2
ARROWANG
 10
4623.505551
 20
4576.811329
 30
0.0
 41
30.0
 42
30.0
 43
30.0
  0
INSERT
  8
SUNPOU
  2
ARROWANG
 10
3723.505551
 20
4576.811329
 30
0.0
 41
30.0
 42
30.0
 50
180.0
 43
30.0
  0
LINE
  8
SUNPOU
 10
3723.505551
 20
4576.811329
 30
0.0
 11
4623.505551
 21
4576.811329
 31
0.0
  0
LINE
  8
SUNPOU
 10
4623.505551
 20
4378.135262
 30
0.0
 11
4623.505551
 21
4606.811329
 31
0.0
  0
LINE
  8
SUNPOU
 10
3723.505551
 20
4378.135262
 30
0.0
 11
3723.505551
 21
4606.811329
 31
0.0
  0
LINE
  8
JISSEN
 10
4173.505551
 20
4348.135262
 30
0.0
 11
4623.505551
 21
4348.135262
 31
0.0
  0
LINE
  8
SUNPOU
 10
2748.505551
 20
4444.527864
 30
0.0
 11
2688.505551
 21
4444.527864
 31
0.0
  0
TEXT
  8
SUNPOU
 10
2913.505551
 20
4489.527864
 30
0.0
 40
60.0
  1
75
  7
K
  0
LINE
  8
SUNPOU
 10
2823.505551
 20
4444.527864
 30
0.0
 11
2955.505551
 21
4444.527864
 31
0.0
  0
INSERT
  8
SUNPOU
  2
ARROWANG
 10
2748.505551
 20
4444.527864
 30
0.0
 41
30.0
 42
30.0
 43
30.0
  0
INSERT
  8
SUNPOU
  2
ARROWANG
 10
2823.505551
 20
4444.527864
 30
0.0
 41
30.0
 42
30.0
 50
180.0
 43
30.0
  0
LINE
  8
SUNPOU
 10
2823.505551
 20
4378.135262
 30
0.0
 11
2823.505551
 21
4474.527864
 31
0.0
  0
LINE
  8
SUNPOU
 10
2748.505551
 20
4444.527864
 30
0.0
 11
2823.505551
 21
4444.527864
 31
0.0
  0
TEXT
  8
SUNPOU
 10
2287.791266
 20
4489.527864
 30
0.0
 40
60.0
  1
750
  7
K
 72
     1
 11
2373.505551
 21
4489.527864
 31
0.0
  0
INSERT
  8
SUNPOU
  2
ARROWANG
 10
2748.505551
 20
4444.527864
 30
0.0
 41
30.0
 42
30.0
 43
30.0
  0
INSERT
  8
SUNPOU
  2
ARROWANG
 10
1998.505551
 20
4444.527864
 30
0.0
 41
30.0
 42
30.0
 50
180.0
 43
30.0
  0
LINE
  8
SUNPOU
 10
2748.505551
 20
4355.135262
 30
0.0
 11
2748.505551
 21
4474.527864
 31
0.0
  0
LINE
  8
SUNPOU
 10
1998.505551
 20
4444.527864
 30
0.0
 11
2748.505551
 21
4444.527864
 31
0.0
  0
TEXT
  8
SUNPOU
 10
1800.362694
 20
4489.527864
 30
0.0
 40
60.0
  1
75
  7
K
 72
     1
 11
1857.505551
 21
4489.527864
 31
0.0
  0
LINE
  8
SUNPOU
 10
1998.505551
 20
4444.527864
 30
0.0
 11
2058.505551
 21
4444.527864
 31
0.0
  0
LINE
  8
SUNPOU
 10
1923.505551
 20
4444.527864
 30
0.0
 11
1791.505551
 21
4444.527864
 31
0.0
  0
INSERT
  8
SUNPOU
  2
ARROWANG
 10
1923.505551
 20
4444.527864
 30
0.0
 41
30.0
 42
30.0
 43
30.0
  0
INSERT
  8
SUNPOU
  2
ARROWANG
 10
1998.505551
 20
4444.527864
 30
0.0
 41
30.0
 42
30.0
 50
180.0
 43
30.0
  0
LINE
  8
SUNPOU
 10
1923.505551
 20
4444.527864
 30
0.0
 11
1998.505551
 21
4444.527864
 31
0.0
  0
LINE
  8
SUNPOU
 10
1998.505551
 20
4355.135262
 30
0.0
 11
1998.505551
 21
4474.527864
 31
0.0
  0
LINE
  8
SUNPOU
 10
1923.505551
 20
4378.135262
 30
0.0
 11
1923.505551
 21
4474.527864
 31
0.0
  0
TEXT
  8
SUNPOU
 10
2287.79128
 20
4621.811329
 30
0.0
 40
60.0
  1
900
  7
K
 72
     1
 11
2373.505566
 21
4621.811329
 31
0.0
  0
INSERT
  8
SUNPOU
  2
ARROWANG
 10
2823.505551
 20
4576.811329
 30
0.0
 41
30.0
 42
30.0
 43
30.0
  0
INSERT
  8
SUNPOU
  2
ARROWANG
 10
1923.505551
 20
4576.811329
 30
0.0
 41
30.0
 42
30.0
 50
180.0
 43
30.0
  0
LINE
  8
SUNPOU
 10
1923.505551
 20
4576.811329
 30
0.0
 11
2823.505551
 21
4576.811329
 31
0.0
  0
LINE
  8
SUNPOU
 10
2823.505551
 20
4378.135262
 30
0.0
 11
2823.505551
 21
4606.811329
 31
0.0
  0
LINE
  8
SUNPOU
 10
1923.505551
 20
4378.135262
 30
0.0
 11
1923.505551
 21
4606.811329
 31
0.0
  0
LINE
  8
JISSEN
 10
2373.505551
 20
4348.135262
 30
0.0
 11
2823.505551
 21
4348.135262
 31
0.0
  0
TEXT
  8
TEXT
 10
4827.680269
 20
5151.372764
 30
0.0
 40
120.0
  1
直　　壁
  7
K
  0
LINE
  8
SUNPOU
 10
7759.186478
 20
1857.518159
 30
0.0
 11
7759.186478
 21
1917.518159
 31
0.0
  0
LINE
  8
SUNPOU
 10
7759.186478
 20
1834.518159
 30
0.0
 11
7759.186478
 21
1774.518159
 31
0.0
  0
TEXT
  8
SUNPOU
 10
7714.186478
 20
1870.860038
 30
0.0
 40
60.0
  1
23
 50
90.0
  7
K
  0
LINE
  8
SUNPOU
 10
7759.186478
 20
1857.518159
 30
0.0
 11
7759.186478
 21
1989.518159
 31
0.0
  0
INSERT
  8
SUNPOU
  2
ARROWANG
 10
7759.186478
 20
1857.518159
 30
0.0
 41
30.0
 42
30.0
 50
270.0
 43
30.0
  0
INSERT
  8
SUNPOU
  2
ARROWANG
 10
7759.186478
 20
1834.518159
 30
0.0
 41
30.0
 42
30.0
 50
90.0
 43
30.0
  0
LINE
  8
SUNPOU
 10
7818.505551
 20
1857.518159
 30
0.0
 11
7729.186478
 21
1857.518159
 31
0.0
  0
LINE
  8
SUNPOU
 10
7759.186478
 20
1857.518159
 30
0.0
 11
7759.186478
 21
1834.518159
 31
0.0
  0
TEXT
  8
SUNPOU
 10
7714.186478
 20
1602.803873
 30
0.0
 40
60.0
  1
292
 50
90.0
  7
K
 72
     1
 11
7714.186478
 21
1688.518159
 31
0.0
  0
INSERT
  8
SUNPOU
  2
ARROWANG
 10
7759.186478
 20
1834.518159
 30
0.0
 41
30.0
 42
30.0
 50
90.0
 43
30.0
  0
INSERT
  8
SUNPOU
  2
ARROWANG
 10
7759.186478
 20
1542.518159
 30
0.0
 41
30.0
 42
30.0
 50
270.0
 43
30.0
  0
LINE
  8
SUNPOU
 10
7759.186478
 20
1542.518159
 30
0.0
 11
7759.186478
 21
1834.518159
 31
0.0
  0
LINE
  8
SUNPOU
 10
7818.505551
 20
1834.518159
 30
0.0
 11
7729.186478
 21
1834.518159
 31
0.0
  0
LINE
  8
SUNPOU
 10
7643.912857
 20
1542.518159
 30
0.0
 11
7789.186478
 21
1542.518159
 31
0.0
  0
TEXT
  8
SUNPOU
 10
7082.461865
 20
1621.803873
 30
0.0
 40
60.0
  1
300
 50
90.0
  7
K
 72
     1
 11
7082.461865
 21
1707.518159
 31
0.0
  0
INSERT
  8
SUNPOU
  2
ARROWANG
 10
7127.461865
 20
1857.518159
 30
0.0
 41
30.0
 42
30.0
 50
90.0
 43
30.0
  0
INSERT
  8
SUNPOU
  2
ARROWANG
 10
7127.461865
 20
1557.518159
 30
0.0
 41
30.0
 42
30.0
 50
270.0
 43
30.0
  0
LINE
  8
SUNPOU
 10
7127.461865
 20
1557.518159
 30
0.0
 11
7127.461865
 21
1857.518159
 31
0.0
  0
LINE
  8
SUNPOU
 10
7293.505551
 20
1857.518159
 30
0.0
 11
7097.461865
 21
1857.518159
 31
0.0
  0
LINE
  8
SUNPOU
 10
7293.505551
 20
1557.518159
 30
0.0
 11
7097.461865
 21
1557.518159
 31
0.0
  0
TEXT
  8
SUNPOU
 10
8332.986535
 20
1517.518159
 30
0.0
 40
60.0
  1
100
 50
90.0
  7
K
 72
     1
 11
8332.986535
 21
1607.518159
 31
0.0
  0
INSERT
  8
SUNPOU
  2
ARROWANG
 10
8377.986535
 20
1657.518159
 30
0.0
 41
30.0
 42
30.0
 50
90.0
 43
30.0
  0
INSERT
  8
SUNPOU
  2
ARROWANG
 10
8377.986535
 20
1557.518159
 30
0.0
 41
30.0
 42
30.0
 50
270.0
 43
30.0
  0
LINE
  8
SUNPOU
 10
8377.986535
 20
1557.518159
 30
0.0
 11
8377.986535
 21
1657.518159
 31
0.0
  0
LINE
  8
SUNPOU
 10
8099.736611
 20
1657.518159
 30
0.0
 11
8407.986535
 21
1657.518159
 31
0.0
  0
LINE
  8
SUNPOU
 10
8253.505551
 20
1557.518159
 30
0.0
 11
8407.986535
 21
1557.518159
 31
0.0
  0
CIRCLE
  8
HASEN
 10
8069.736611
 20
1657.518159
 30
0.0
 40
10.0
  0
TEXT
  8
SUNPOU
 10
8380.742905
 20
1717.518159
 30
0.0
 40
60.0
  1
100
 50
90.0
  7
K
 72
     1
 11
8380.742905
 21
1807.518159
 31
0.0
  0
INSERT
  8
SUNPOU
  2
ARROWANG
 10
8425.742905
 20
1857.518159
 30
0.0
 41
30.0
 42
30.0
 50
90.0
 43
30.0
  0
INSERT
  8
SUNPOU
  2
ARROWANG
 10
8425.742905
 20
1757.518159
 30
0.0
 41
30.0
 42
30.0
 50
270.0
 43
30.0
  0
LINE
  8
SUNPOU
 10
8425.742905
 20
1757.518159
 30
0.0
 11
8425.742905
 21
1857.518159
 31
0.0
  0
LINE
  8
SUNPOU
 10
8253.505551
 20
1857.518159
 30
0.0
 11
8455.742905
 21
1857.518159
 31
0.0
  0
LINE
  8
SUNPOU
 10
8099.736611
 20
1757.518159
 30
0.0
 11
8455.742905
 21
1757.518159
 31
0.0
  0
CIRCLE
  8
HASEN
 10
8069.736611
 20
1757.518159
 30
0.0
 40
10.0
  0
LINE
  8
HASEN
 10
8148.505551
 20
1834.518159
 30
0.0
 11
8148.505551
 21
1542.518159
 31
0.0
  0
LINE
  8
JISSEN
 10
7773.505551
 20
1557.518159
 30
0.0
 11
8182.505551
 21
1557.518159
 31
0.0
  0
LINE
  8
JISSEN
 10
8173.505551
 20
1542.518159
 30
0.0
 11
7773.505551
 21
1542.518159
 31
0.0
  0
LINE
  8
JISSEN
 10
8182.505551
 20
1557.518159
 30
0.0
 11
8173.505551
 21
1542.518159
 31
0.0
  0
LINE
  8
JISSEN
 10
8223.505551
 20
1557.518159
 30
0.0
 11
8182.505551
 21
1557.518159
 31
0.0
  0
LINE
  8
JISSEN
 10
7373.505551
 20
1542.518159
 30
0.0
 11
7773.505551
 21
1542.518159
 31
0.0
  0
LINE
  8
JISSEN
 10
7364.505551
 20
1557.518159
 30
0.0
 11
7373.505551
 21
1542.518159
 31
0.0
  0
LINE
  8
JISSEN
 10
7323.505551
 20
1557.518159
 30
0.0
 11
7364.505551
 21
1557.518159
 31
0.0
  0
LINE
  8
HASEN
 10
8176.505551
 20
1834.518159
 30
0.0
 11
7773.505551
 21
1834.518159
 31
0.0
  0
LINE
  8
HASEN
 10
8183.505551
 20
1857.518159
 30
0.0
 11
8176.505551
 21
1834.518159
 31
0.0
  0
LINE
  8
JISSEN
 10
7370.505551
 20
1834.518159
 30
0.0
 11
7773.505551
 21
1834.518159
 31
0.0
  0
LINE
  8
JISSEN
 10
7363.505551
 20
1857.518159
 30
0.0
 11
7370.505551
 21
1834.518159
 31
0.0
  0
LINE
  8
JISSEN
 10
7398.505551
 20
1834.518159
 30
0.0
 11
7398.505551
 21
1542.518159
 31
0.0
  0
LINE
  8
JISSEN
 10
7323.505551
 20
1857.518159
 30
0.0
 11
7323.505551
 21
1557.518159
 31
0.0
  0
LINE
  8
JISSEN
 10
8223.505551
 20
1857.518159
 30
0.0
 11
8223.505551
 21
1557.518159
 31
0.0
  0
LINE
  8
JISSEN
 10
7323.505551
 20
1857.518159
 30
0.0
 11
7773.505551
 21
1857.518159
 31
0.0
  0
LINE
  8
ITTEN
 10
7773.505551
 20
1907.518159
 30
0.0
 11
7773.505551
 21
1492.518159
 31
0.0
  0
LINE
  8
ITTEN
 10
7363.505551
 20
1692.518159
 30
0.0
 11
7548.505551
 21
1692.518159
 31
0.0
  0
LINE
  8
JISSEN
 10
7488.505551
 20
1702.518159
 30
0.0
 11
7398.505551
 21
1702.518159
 31
0.0
  0
LINE
  8
JISSEN
 10
7488.505551
 20
1682.518159
 30
0.0
 11
7398.505551
 21
1682.518159
 31
0.0
  0
ARC
  8
JISSEN
 10
7488.505551
 20
1692.518159
 30
0.0
 40
10.0
 50
270.0
 51
90.0
  0
CIRCLE
  8
HASEN
 10
7477.274491
 20
1757.518159
 30
0.0
 40
10.0
  0
LINE
  8
SUNPOU
 10
7528.505551
 20
1692.518159
 30
0.0
 11
7643.912857
 21
1692.518159
 31
0.0
  0
LINE
  8
SUNPOU
 10
7528.505551
 20
1692.518159
 30
0.0
 11
7643.912857
 21
1692.518159
 31
0.0
  0
INSERT
  8
SUNPOU
  2
ARROWANG
 10
7613.912857
 20
1692.518159
 30
0.0
 41
30.0
 42
30.0
 50
90.0
 43
30.0
  0
LINE
  8
SUNPOU
 10
7643.912857
 20
1692.518159
 30
0.0
 11
7647.59303
 21
1692.518159
 31
0.0
  0
LINE
  8
SUNPOU
 10
7428.505551
 20
1542.518159
 30
0.0
 11
7643.912857
 21
1542.518159
 31
0.0
  0
LINE
  8
SUNPOU
 10
7583.912857
 20
1692.518159
 30
0.0
 11
7583.912857
 21
1692.518159
 31
0.0
  0
LINE
  8
SUNPOU
 10
7613.912857
 20
1542.518159
 30
0.0
 11
7613.912857
 21
1692.518159
 31
0.0
  0
INSERT
  8
SUNPOU
  2
ARROWANG
 10
7613.912857
 20
1542.518159
 30
0.0
 41
30.0
 42
30.0
 50
270.0
 43
30.0
  0
INSERT
  8
SUNPOU
  2
ARROWANG
 10
7613.912857
 20
1692.518159
 30
0.0
 41
30.0
 42
30.0
 50
90.0
 43
30.0
  0
TEXT
  8
SUNPOU
 10
7568.912857
 20
1527.518159
 30
0.0
 40
60.0
  1
150
 50
90.0
  7
K
 72
     1
 11
7568.912857
 21
1617.518159
 31
0.0
  0
LINE
  8
SUNPOU
 10
7643.912857
 20
1542.518159
 30
0.0
 11
7798.40262
 21
1542.518159
 31
0.0
  0
LINE
  8
SUNPOU
 10
7818.505551
 20
1834.518159
 30
0.0
 11
7738.40262
 21
1834.518159
 31
0.0
  0
LINE
  8
SUNPOU
 10
7818.505551
 20
1857.518159
 30
0.0
 11
7738.40262
 21
1857.518159
 31
0.0
  0
CIRCLE
  8
HASEN
 10
7477.274491
 20
1657.518159
 30
0.0
 40
10.0
  0
CIRCLE
  8
HASEN
 10
5677.274491
 20
1357.518159
 30
0.0
 40
10.0
  0
CIRCLE
  8
HASEN
 10
7477.274491
 20
3548.135262
 30
0.0
 40
10.0
  0
LINE
  8
SUNPOU
 10
5968.40262
 20
1857.518159
 30
0.0
 11
5968.40262
 21
1917.518159
 31
0.0
  0
LINE
  8
SUNPOU
 10
5968.40262
 20
1834.518159
 30
0.0
 11
5968.40262
 21
1774.518159
 31
0.0
  0
TEXT
  8
SUNPOU
 10
5923.40262
 20
1668.803873
 30
0.0
 40
60.0
  1
23
 50
90.0
  7
K
 72
     2
 11
5923.40262
 21
1774.518159
 31
0.0
  0
LINE
  8
SUNPOU
 10
5968.40262
 20
1834.518159
 30
0.0
 11
5968.40262
 21
1702.518159
 31
0.0
  0
INSERT
  8
SUNPOU
  2
ARROWANG
 10
5968.40262
 20
1857.518159
 30
0.0
 41
30.0
 42
30.0
 50
270.0
 43
30.0
  0
INSERT
  8
SUNPOU
  2
ARROWANG
 10
5968.40262
 20
1834.518159
 30
0.0
 41
30.0
 42
30.0
 50
90.0
 43
30.0
  0
LINE
  8
SUNPOU
 10
6018.505551
 20
1857.518159
 30
0.0
 11
5938.40262
 21
1857.518159
 31
0.0
  0
LINE
  8
SUNPOU
 10
5968.40262
 20
1857.518159
 30
0.0
 11
5968.40262
 21
1834.518159
 31
0.0
  0
TEXT
  8
SUNPOU
 10
5923.40262
 20
1452.803873
 30
0.0
 40
60.0
  1
592
 50
90.0
  7
K
 72
     1
 11
5923.40262
 21
1538.518159
 31
0.0
  0
INSERT
  8
SUNPOU
  2
ARROWANG
 10
5968.40262
 20
1834.518159
 30
0.0
 41
30.0
 42
30.0
 50
90.0
 43
30.0
  0
INSERT
  8
SUNPOU
  2
ARROWANG
 10
5968.40262
 20
1242.518159
 30
0.0
 41
30.0
 42
30.0
 50
270.0
 43
30.0
  0
LINE
  8
SUNPOU
 10
5968.40262
 20
1242.518159
 30
0.0
 11
5968.40262
 21
1834.518159
 31
0.0
  0
LINE
  8
SUNPOU
 10
6018.505551
 20
1834.518159
 30
0.0
 11
5938.40262
 21
1834.518159
 31
0.0
  0
LINE
  8
SUNPOU
 10
5843.912857
 20
1242.518159
 30
0.0
 11
5998.40262
 21
1242.518159
 31
0.0
  0
TEXT
  8
SUNPOU
 10
5768.912857
 20
1227.518159
 30
0.0
 40
60.0
  1
150
 50
90.0
  7
K
 72
     1
 11
5768.912857
 21
1317.518159
 31
0.0
  0
INSERT
  8
SUNPOU
  2
ARROWANG
 10
5813.912857
 20
1392.518159
 30
0.0
 41
30.0
 42
30.0
 50
90.0
 43
30.0
  0
INSERT
  8
SUNPOU
  2
ARROWANG
 10
5813.912857
 20
1242.518159
 30
0.0
 41
30.0
 42
30.0
 50
270.0
 43
30.0
  0
LINE
  8
SUNPOU
 10
5813.912857
 20
1242.518159
 30
0.0
 11
5813.912857
 21
1392.518159
 31
0.0
  0
LINE
  8
SUNPOU
 10
5783.912857
 20
1392.518159
 30
0.0
 11
5783.912857
 21
1392.518159
 31
0.0
  0
LINE
  8
SUNPOU
 10
5628.505551
 20
1242.518159
 30
0.0
 11
5843.912857
 21
1242.518159
 31
0.0
  0
LINE
  8
SUNPOU
 10
5843.912857
 20
1392.518159
 30
0.0
 11
5847.59303
 21
1392.518159
 31
0.0
  0
TEXT
  8
SUNPOU
 10
5768.912857
 20
1456.803873
 30
0.0
 40
60.0
  1
300
 50
90.0
  7
K
 72
     1
 11
5768.912857
 21
1542.518159
 31
0.0
  0
INSERT
  8
SUNPOU
  2
ARROWANG
 10
5813.912857
 20
1692.518159
 30
0.0
 41
30.0
 42
30.0
 50
90.0
 43
30.0
  0
INSERT
  8
SUNPOU
  2
ARROWANG
 10
5813.912857
 20
1392.518159
 30
0.0
 41
30.0
 42
30.0
 50
270.0
 43
30.0
  0
LINE
  8
SUNPOU
 10
5728.505551
 20
1692.518159
 30
0.0
 11
5843.912857
 21
1692.518159
 31
0.0
  0
LINE
  8
SUNPOU
 10
5728.505551
 20
1392.518159
 30
0.0
 11
5843.912857
 21
1392.518159
 31
0.0
  0
CIRCLE
  8
HASEN
 10
5677.274491
 20
1757.518159
 30
0.0
 40
10.0
  0
LINE
  8
ITTEN
 10
5563.505551
 20
1692.518159
 30
0.0
 11
5748.505551
 21
1692.518159
 31
0.0
  0
LINE
  8
JISSEN
 10
5688.505551
 20
1702.518159
 30
0.0
 11
5598.505551
 21
1702.518159
 31
0.0
  0
LINE
  8
JISSEN
 10
5688.505551
 20
1682.518159
 30
0.0
 11
5598.505551
 21
1682.518159
 31
0.0
  0
ARC
  8
JISSEN
 10
5688.505551
 20
1692.518159
 30
0.0
 40
10.0
 50
270.0
 51
90.0
  0
ARC
  8
JISSEN
 10
5688.505551
 20
1392.518159
 30
0.0
 40
10.0
 50
270.0
 51
90.0
  0
LINE
  8
JISSEN
 10
5688.505551
 20
1382.518159
 30
0.0
 11
5598.505551
 21
1382.518159
 31
0.0
  0
LINE
  8
JISSEN
 10
5688.505551
 20
1402.518159
 30
0.0
 11
5598.505551
 21
1402.518159
 31
0.0
  0
LINE
  8
ITTEN
 10
5563.505551
 20
1392.518159
 30
0.0
 11
5748.505551
 21
1392.518159
 31
0.0
  0
LINE
  8
SUNPOU
 10
5813.912857
 20
1392.518159
 30
0.0
 11
5813.912857
 21
1692.518159
 31
0.0
  0
LINE
  8
SUNPOU
 10
7780.093346
 20
4348.135262
 30
0.0
 11
7780.093346
 21
4408.135262
 31
0.0
  0
LINE
  8
SUNPOU
 10
7780.093346
 20
4325.135262
 30
0.0
 11
7780.093346
 21
4265.135262
 31
0.0
  0
TEXT
  8
SUNPOU
 10
7735.093346
 20
4159.420976
 30
0.0
 40
60.0
  1
23
 50
90.0
  7
K
 72
     2
 11
7735.093346
 21
4265.135262
 31
0.0
  0
LINE
  8
SUNPOU
 10
7780.093346
 20
4325.135262
 30
0.0
 11
7780.093346
 21
4193.135262
 31
0.0
  0
INSERT
  8
SUNPOU
  2
ARROWANG
 10
7780.093346
 20
4348.135262
 30
0.0
 41
30.0
 42
30.0
 50
270.0
 43
30.0
  0
INSERT
  8
SUNPOU
  2
ARROWANG
 10
7780.093346
 20
4325.135262
 30
0.0
 41
30.0
 42
30.0
 50
90.0
 43
30.0
  0
LINE
  8
SUNPOU
 10
7818.505551
 20
4348.135262
 30
0.0
 11
7750.093346
 21
4348.135262
 31
0.0
  0
LINE
  8
SUNPOU
 10
7780.093346
 20
4348.135262
 30
0.0
 11
7780.093346
 21
4325.135262
 31
0.0
  0
TEXT
  8
SUNPOU
 10
7735.093346
 20
3793.420976
 30
0.0
 40
60.0
  1
892
 50
90.0
  7
K
 72
     1
 11
7735.093346
 21
3879.135262
 31
0.0
  0
INSERT
  8
SUNPOU
  2
ARROWANG
 10
7780.093346
 20
4325.135262
 30
0.0
 41
30.0
 42
30.0
 50
90.0
 43
30.0
  0
INSERT
  8
SUNPOU
  2
ARROWANG
 10
7780.093346
 20
3433.135262
 30
0.0
 41
30.0
 42
30.0
 50
270.0
 43
30.0
  0
LINE
  8
SUNPOU
 10
7780.093346
 20
3433.135262
 30
0.0
 11
7780.093346
 21
4325.135262
 31
0.0
  0
LINE
  8
SUNPOU
 10
7818.505551
 20
4325.135262
 30
0.0
 11
7750.093346
 21
4325.135262
 31
0.0
  0
LINE
  8
SUNPOU
 10
7643.912857
 20
3433.135262
 30
0.0
 11
7810.093346
 21
3433.135262
 31
0.0
  0
TEXT
  8
SUNPOU
 10
7568.912857
 20
3418.135262
 30
0.0
 40
60.0
  1
150
 50
90.0
  7
K
 72
     1
 11
7568.912857
 21
3508.135262
 31
0.0
  0
INSERT
  8
SUNPOU
  2
ARROWANG
 10
7613.912857
 20
3583.135262
 30
0.0
 41
30.0
 42
30.0
 50
90.0
 43
30.0
  0
INSERT
  8
SUNPOU
  2
ARROWANG
 10
7613.912857
 20
3433.135262
 30
0.0
 41
30.0
 42
30.0
 50
270.0
 43
30.0
  0
LINE
  8
SUNPOU
 10
7613.912857
 20
3433.135262
 30
0.0
 11
7613.912857
 21
3583.135262
 31
0.0
  0
LINE
  8
SUNPOU
 10
7583.912857
 20
3583.135262
 30
0.0
 11
7583.912857
 21
3583.135262
 31
0.0
  0
LINE
  8
SUNPOU
 10
7428.505551
 20
3433.135262
 30
0.0
 11
7643.912857
 21
3433.135262
 31
0.0
  0
LINE
  8
SUNPOU
 10
7613.912857
 20
3583.135262
 30
0.0
 11
7613.912857
 21
3883.135262
 31
0.0
  0
LINE
  8
SUNPOU
 10
7613.912857
 20
3883.135262
 30
0.0
 11
7613.912857
 21
4183.135262
 31
0.0
  0
LINE
  8
ITTEN
 10
7363.505551
 20
3583.135262
 30
0.0
 11
7548.505551
 21
3583.135262
 31
0.0
  0
LINE
  8
JISSEN
 10
7488.505551
 20
3593.135262
 30
0.0
 11
7398.505551
 21
3593.135262
 31
0.0
  0
LINE
  8
JISSEN
 10
7488.505551
 20
3573.135262
 30
0.0
 11
7398.505551
 21
3573.135262
 31
0.0
  0
ARC
  8
JISSEN
 10
7488.505551
 20
3583.135262
 30
0.0
 40
10.0
 50
270.0
 51
90.0
  0
LINE
  8
ITTEN
 10
7363.505551
 20
3883.135262
 30
0.0
 11
7548.505551
 21
3883.135262
 31
0.0
  0
LINE
  8
JISSEN
 10
7488.505551
 20
3893.135262
 30
0.0
 11
7398.505551
 21
3893.135262
 31
0.0
  0
LINE
  8
JISSEN
 10
7488.505551
 20
3873.135262
 30
0.0
 11
7398.505551
 21
3873.135262
 31
0.0
  0
ARC
  8
JISSEN
 10
7488.505551
 20
3883.135262
 30
0.0
 40
10.0
 50
270.0
 51
90.0
  0
ARC
  8
JISSEN
 10
7488.505551
 20
4183.135262
 30
0.0
 40
10.0
 50
270.0
 51
90.0
  0
LINE
  8
JISSEN
 10
7488.505551
 20
4173.135262
 30
0.0
 11
7398.505551
 21
4173.135262
 31
0.0
  0
LINE
  8
JISSEN
 10
7488.505551
 20
4193.135262
 30
0.0
 11
7398.505551
 21
4193.135262
 31
0.0
  0
LINE
  8
ITTEN
 10
7363.505551
 20
4183.135262
 30
0.0
 11
7548.505551
 21
4183.135262
 31
0.0
  0
CIRCLE
  8
HASEN
 10
7477.274491
 20
4248.135262
 30
0.0
 40
10.0
  0
LINE
  8
SUNPOU
 10
7528.505551
 20
3583.135262
 30
0.0
 11
7643.912857
 21
3583.135262
 31
0.0
  0
LINE
  8
SUNPOU
 10
7528.505551
 20
3883.135262
 30
0.0
 11
7643.912857
 21
3883.135262
 31
0.0
  0
INSERT
  8
SUNPOU
  2
ARROWANG
 10
7613.912857
 20
3583.135262
 30
0.0
 41
30.0
 42
30.0
 50
270.0
 43
30.0
  0
INSERT
  8
SUNPOU
  2
ARROWANG
 10
7613.912857
 20
3883.135262
 30
0.0
 41
30.0
 42
30.0
 50
90.0
 43
30.0
  0
TEXT
  8
SUNPOU
 10
7568.912857
 20
3647.420976
 30
0.0
 40
60.0
  1
300
 50
90.0
  7
K
 72
     1
 11
7568.912857
 21
3733.135262
 31
0.0
  0
LINE
  8
SUNPOU
 10
7528.505551
 20
4183.135262
 30
0.0
 11
7643.912857
 21
4183.135262
 31
0.0
  0
INSERT
  8
SUNPOU
  2
ARROWANG
 10
7613.912857
 20
3883.135262
 30
0.0
 41
30.0
 42
30.0
 50
270.0
 43
30.0
  0
INSERT
  8
SUNPOU
  2
ARROWANG
 10
7613.912857
 20
4183.135262
 30
0.0
 41
30.0
 42
30.0
 50
90.0
 43
30.0
  0
TEXT
  8
SUNPOU
 10
7568.912857
 20
3947.420976
 30
0.0
 40
60.0
  1
300
 50
90.0
  7
K
 72
     1
 11
7568.912857
 21
4033.135262
 31
0.0
  0
LINE
  8
SUNPOU
 10
5976.757086
 20
4348.135262
 30
0.0
 11
5976.757086
 21
4408.135262
 31
0.0
  0
LINE
  8
SUNPOU
 10
5976.757086
 20
4325.135262
 30
0.0
 11
5976.757086
 21
4265.135262
 31
0.0
  0
TEXT
  8
SUNPOU
 10
5931.757086
 20
4159.420976
 30
0.0
 40
60.0
  1
23
 50
90.0
  7
K
 72
     2
 11
5931.757086
 21
4265.135262
 31
0.0
  0
LINE
  8
SUNPOU
 10
5976.757086
 20
4325.135262
 30
0.0
 11
5976.757086
 21
4193.135262
 31
0.0
  0
INSERT
  8
SUNPOU
  2
ARROWANG
 10
5976.757086
 20
4348.135262
 30
0.0
 41
30.0
 42
30.0
 50
270.0
 43
30.0
  0
INSERT
  8
SUNPOU
  2
ARROWANG
 10
5976.757086
 20
4325.135262
 30
0.0
 41
30.0
 42
30.0
 50
90.0
 43
30.0
  0
LINE
  8
SUNPOU
 10
5973.505551
 20
4348.135262
 30
0.0
 11
5946.757086
 21
4348.135262
 31
0.0
  0
LINE
  8
SUNPOU
 10
5976.757086
 20
4348.135262
 30
0.0
 11
5976.757086
 21
4325.135262
 31
0.0
  0
TEXT
  8
SUNPOU
 10
5931.757086
 20
3610.563834
 30
0.0
 40
60.0
  1
1192
 50
90.0
  7
K
 72
     1
 11
5931.757086
 21
3729.135262
 31
0.0
  0
INSERT
  8
SUNPOU
  2
ARROWANG
 10
5976.757086
 20
4325.135262
 30
0.0
 41
30.0
 42
30.0
 50
90.0
 43
30.0
  0
INSERT
  8
SUNPOU
  2
ARROWANG
 10
5976.757086
 20
3133.135262
 30
0.0
 41
30.0
 42
30.0
 50
270.0
 43
30.0
  0
LINE
  8
SUNPOU
 10
5976.757086
 20
3133.135262
 30
0.0
 11
5976.757086
 21
4325.135262
 31
0.0
  0
LINE
  8
SUNPOU
 10
5973.505551
 20
4325.135262
 30
0.0
 11
5946.757086
 21
4325.135262
 31
0.0
  0
LINE
  8
SUNPOU
 10
5843.912857
 20
3133.135262
 30
0.0
 11
5973.505551
 21
3133.135262
 31
0.0
  0
TEXT
  8
SUNPOU
 10
5768.912857
 20
3118.135262
 30
0.0
 40
60.0
  1
150
 50
90.0
  7
K
 72
     1
 11
5768.912857
 21
3208.135262
 31
0.0
  0
INSERT
  8
SUNPOU
  2
ARROWANG
 10
5813.912857
 20
3283.135262
 30
0.0
 41
30.0
 42
30.0
 50
90.0
 43
30.0
  0
INSERT
  8
SUNPOU
  2
ARROWANG
 10
5813.912857
 20
3133.135262
 30
0.0
 41
30.0
 42
30.0
 50
270.0
 43
30.0
  0
LINE
  8
SUNPOU
 10
5813.912857
 20
3133.135262
 30
0.0
 11
5813.912857
 21
3283.135262
 31
0.0
  0
LINE
  8
SUNPOU
 10
5783.912857
 20
3283.135262
 30
0.0
 11
5783.912857
 21
3283.135262
 31
0.0
  0
LINE
  8
SUNPOU
 10
5628.505551
 20
3133.135262
 30
0.0
 11
5843.912857
 21
3133.135262
 31
0.0
  0
CIRCLE
  8
HASEN
 10
5677.274491
 20
3248.135262
 30
0.0
 40
10.0
  0
TEXT
  8
SUNPOU
 10
5768.912857
 20
3947.420976
 30
0.0
 40
60.0
  1
300
 50
90.0
  7
K
 72
     1
 11
5768.912857
 21
4033.135262
 31
0.0
  0
INSERT
  8
SUNPOU
  2
ARROWANG
 10
5813.912857
 20
4183.135262
 30
0.0
 41
30.0
 42
30.0
 50
90.0
 43
30.0
  0
INSERT
  8
SUNPOU
  2
ARROWANG
 10
5813.912857
 20
3883.135262
 30
0.0
 41
30.0
 42
30.0
 50
270.0
 43
30.0
  0
LINE
  8
SUNPOU
 10
5728.505551
 20
4183.135262
 30
0.0
 11
5843.912857
 21
4183.135262
 31
0.0
  0
TEXT
  8
SUNPOU
 10
5768.912857
 20
3647.420976
 30
0.0
 40
60.0
  1
300
 50
90.0
  7
K
 72
     1
 11
5768.912857
 21
3733.135262
 31
0.0
  0
INSERT
  8
SUNPOU
  2
ARROWANG
 10
5813.912857
 20
3883.135262
 30
0.0
 41
30.0
 42
30.0
 50
90.0
 43
30.0
  0
INSERT
  8
SUNPOU
  2
ARROWANG
 10
5813.912857
 20
3583.135262
 30
0.0
 41
30.0
 42
30.0
 50
270.0
 43
30.0
  0
LINE
  8
SUNPOU
 10
5728.505551
 20
3883.135262
 30
0.0
 11
5843.912857
 21
3883.135262
 31
0.0
  0
TEXT
  8
SUNPOU
 10
5768.912857
 20
3347.420976
 30
0.0
 40
60.0
  1
300
 50
90.0
  7
K
 72
     1
 11
5768.912857
 21
3433.135262
 31
0.0
  0
INSERT
  8
SUNPOU
  2
ARROWANG
 10
5813.912857
 20
3583.135262
 30
0.0
 41
30.0
 42
30.0
 50
90.0
 43
30.0
  0
INSERT
  8
SUNPOU
  2
ARROWANG
 10
5813.912857
 20
3283.135262
 30
0.0
 41
30.0
 42
30.0
 50
270.0
 43
30.0
  0
LINE
  8
SUNPOU
 10
5728.505551
 20
3583.135262
 30
0.0
 11
5843.912857
 21
3583.135262
 31
0.0
  0
LINE
  8
SUNPOU
 10
5728.505551
 20
3283.135262
 30
0.0
 11
5843.912857
 21
3283.135262
 31
0.0
  0
CIRCLE
  8
HASEN
 10
5677.274491
 20
4248.135262
 30
0.0
 40
10.0
  0
LINE
  8
ITTEN
 10
5563.505551
 20
4183.135262
 30
0.0
 11
5748.505551
 21
4183.135262
 31
0.0
  0
LINE
  8
JISSEN
 10
5688.505551
 20
4193.135262
 30
0.0
 11
5598.505551
 21
4193.135262
 31
0.0
  0
LINE
  8
JISSEN
 10
5688.505551
 20
4173.135262
 30
0.0
 11
5598.505551
 21
4173.135262
 31
0.0
  0
ARC
  8
JISSEN
 10
5688.505551
 20
4183.135262
 30
0.0
 40
10.0
 50
270.0
 51
90.0
  0
ARC
  8
JISSEN
 10
5688.505551
 20
3883.135262
 30
0.0
 40
10.0
 50
270.0
 51
90.0
  0
LINE
  8
JISSEN
 10
5688.505551
 20
3873.135262
 30
0.0
 11
5598.505551
 21
3873.135262
 31
0.0
  0
LINE
  8
JISSEN
 10
5688.505551
 20
3893.135262
 30
0.0
 11
5598.505551
 21
3893.135262
 31
0.0
  0
LINE
  8
ITTEN
 10
5563.505551
 20
3883.135262
 30
0.0
 11
5748.505551
 21
3883.135262
 31
0.0
  0
ARC
  8
JISSEN
 10
5688.505551
 20
3583.135262
 30
0.0
 40
10.0
 50
270.0
 51
90.0
  0
LINE
  8
JISSEN
 10
5688.505551
 20
3573.135262
 30
0.0
 11
5598.505551
 21
3573.135262
 31
0.0
  0
LINE
  8
JISSEN
 10
5688.505551
 20
3593.135262
 30
0.0
 11
5598.505551
 21
3593.135262
 31
0.0
  0
LINE
  8
ITTEN
 10
5563.505551
 20
3583.135262
 30
0.0
 11
5748.505551
 21
3583.135262
 31
0.0
  0
ARC
  8
JISSEN
 10
5688.505551
 20
3283.135262
 30
0.0
 40
10.0
 50
270.0
 51
90.0
  0
LINE
  8
JISSEN
 10
5688.505551
 20
3273.135262
 30
0.0
 11
5598.505551
 21
3273.135262
 31
0.0
  0
LINE
  8
JISSEN
 10
5688.505551
 20
3293.135262
 30
0.0
 11
5598.505551
 21
3293.135262
 31
0.0
  0
LINE
  8
ITTEN
 10
5563.505551
 20
3283.135262
 30
0.0
 11
5748.505551
 21
3283.135262
 31
0.0
  0
LINE
  8
SUNPOU
 10
5813.912857
 20
3883.135262
 30
0.0
 11
5813.912857
 21
4183.135262
 31
0.0
  0
LINE
  8
SUNPOU
 10
5813.912857
 20
3583.135262
 30
0.0
 11
5813.912857
 21
3883.135262
 31
0.0
  0
LINE
  8
SUNPOU
 10
5813.912857
 20
3283.135262
 30
0.0
 11
5813.912857
 21
3583.135262
 31
0.0
  0
LINE
  8
SUNPOU
 10
4157.502036
 20
4348.135262
 30
0.0
 11
4157.502036
 21
4408.135262
 31
0.0
  0
LINE
  8
SUNPOU
 10
4157.502036
 20
4325.135262
 30
0.0
 11
4157.502036
 21
4265.135262
 31
0.0
  0
TEXT
  8
SUNPOU
 10
4112.502036
 20
4159.420976
 30
0.0
 40
60.0
  1
23
 50
90.0
  7
K
 72
     2
 11
4112.502036
 21
4265.135262
 31
0.0
  0
LINE
  8
SUNPOU
 10
4157.502036
 20
4325.135262
 30
0.0
 11
4157.502036
 21
4193.135262
 31
0.0
  0
INSERT
  8
SUNPOU
  2
ARROWANG
 10
4157.502036
 20
4348.135262
 30
0.0
 41
30.0
 42
30.0
 50
270.0
 43
30.0
  0
INSERT
  8
SUNPOU
  2
ARROWANG
 10
4157.502036
 20
4325.135262
 30
0.0
 41
30.0
 42
30.0
 50
90.0
 43
30.0
  0
LINE
  8
SUNPOU
 10
4173.505551
 20
4348.135262
 30
0.0
 11
4127.502036
 21
4348.135262
 31
0.0
  0
LINE
  8
SUNPOU
 10
4157.502036
 20
4348.135262
 30
0.0
 11
4157.502036
 21
4325.135262
 31
0.0
  0
TEXT
  8
SUNPOU
 10
4112.502036
 20
3451.757571
 30
0.0
 40
60.0
  1
1492
 50
90.0
  7
K
 72
     1
 11
4112.502036
 21
3570.329
 31
0.0
  0
INSERT
  8
SUNPOU
  2
ARROWANG
 10
4157.502036
 20
4325.135262
 30
0.0
 41
30.0
 42
30.0
 50
90.0
 43
30.0
  0
INSERT
  8
SUNPOU
  2
ARROWANG
 10
4157.502036
 20
2833.135262
 30
0.0
 41
30.0
 42
30.0
 50
270.0
 43
30.0
  0
LINE
  8
SUNPOU
 10
4157.502036
 20
2833.135262
 30
0.0
 11
4157.502036
 21
4325.135262
 31
0.0
  0
LINE
  8
SUNPOU
 10
3828.505551
 20
4325.135262
 30
0.0
 11
4187.502036
 21
4325.135262
 31
0.0
  0
LINE
  8
SUNPOU
 10
4043.912857
 20
2833.135262
 30
0.0
 11
4187.502036
 21
2833.135262
 31
0.0
  0
TEXT
  8
SUNPOU
 10
3968.912857
 20
2818.135262
 30
0.0
 40
60.0
  1
150
 50
90.0
  7
K
 72
     1
 11
3968.912857
 21
2908.135262
 31
0.0
  0
INSERT
  8
SUNPOU
  2
ARROWANG
 10
4013.912857
 20
2983.135262
 30
0.0
 41
30.0
 42
30.0
 50
90.0
 43
30.0
  0
INSERT
  8
SUNPOU
  2
ARROWANG
 10
4013.912857
 20
2833.135262
 30
0.0
 41
30.0
 42
30.0
 50
270.0
 43
30.0
  0
LINE
  8
SUNPOU
 10
4013.912857
 20
2833.135262
 30
0.0
 11
4013.912857
 21
2983.135262
 31
0.0
  0
LINE
  8
SUNPOU
 10
3983.912857
 20
2983.135262
 30
0.0
 11
3983.912857
 21
2983.135262
 31
0.0
  0
LINE
  8
SUNPOU
 10
3828.505551
 20
2833.135262
 30
0.0
 11
4043.912857
 21
2833.135262
 31
0.0
  0
CIRCLE
  8
HASEN
 10
3884.428991
 20
2946.084356
 30
0.0
 40
10.0
  0
LINE
  8
SUNPOU
 10
4013.912857
 20
2983.135262
 30
0.0
 11
4013.912857
 21
3283.135262
 31
0.0
  0
LINE
  8
SUNPOU
 10
4013.912857
 20
3283.135262
 30
0.0
 11
4013.912857
 21
3583.135262
 31
0.0
  0
LINE
  8
SUNPOU
 10
4013.912857
 20
3583.135262
 30
0.0
 11
4013.912857
 21
3883.135262
 31
0.0
  0
LINE
  8
SUNPOU
 10
4013.912857
 20
3883.135262
 30
0.0
 11
4013.912857
 21
4183.135262
 31
0.0
  0
LINE
  8
ITTEN
 10
3763.505551
 20
3283.135262
 30
0.0
 11
3948.505551
 21
3283.135262
 31
0.0
  0
LINE
  8
JISSEN
 10
3888.505551
 20
3293.135262
 30
0.0
 11
3798.505551
 21
3293.135262
 31
0.0
  0
LINE
  8
JISSEN
 10
3888.505551
 20
3273.135262
 30
0.0
 11
3798.505551
 21
3273.135262
 31
0.0
  0
ARC
  8
JISSEN
 10
3888.505551
 20
3283.135262
 30
0.0
 40
10.0
 50
270.0
 51
90.0
  0
LINE
  8
ITTEN
 10
3763.505551
 20
3583.135262
 30
0.0
 11
3948.505551
 21
3583.135262
 31
0.0
  0
LINE
  8
JISSEN
 10
3888.505551
 20
3593.135262
 30
0.0
 11
3798.505551
 21
3593.135262
 31
0.0
  0
LINE
  8
JISSEN
 10
3888.505551
 20
3573.135262
 30
0.0
 11
3798.505551
 21
3573.135262
 31
0.0
  0
ARC
  8
JISSEN
 10
3888.505551
 20
3583.135262
 30
0.0
 40
10.0
 50
270.0
 51
90.0
  0
LINE
  8
ITTEN
 10
3763.505551
 20
3883.135262
 30
0.0
 11
3948.505551
 21
3883.135262
 31
0.0
  0
LINE
  8
JISSEN
 10
3888.505551
 20
3893.135262
 30
0.0
 11
3798.505551
 21
3893.135262
 31
0.0
  0
LINE
  8
JISSEN
 10
3888.505551
 20
3873.135262
 30
0.0
 11
3798.505551
 21
3873.135262
 31
0.0
  0
ARC
  8
JISSEN
 10
3888.505551
 20
3883.135262
 30
0.0
 40
10.0
 50
270.0
 51
90.0
  0
ARC
  8
JISSEN
 10
3888.505551
 20
4183.135262
 30
0.0
 40
10.0
 50
270.0
 51
90.0
  0
LINE
  8
JISSEN
 10
3888.505551
 20
4173.135262
 30
0.0
 11
3798.505551
 21
4173.135262
 31
0.0
  0
LINE
  8
JISSEN
 10
3888.505551
 20
4193.135262
 30
0.0
 11
3798.505551
 21
4193.135262
 31
0.0
  0
LINE
  8
ITTEN
 10
3763.505551
 20
4183.135262
 30
0.0
 11
3948.505551
 21
4183.135262
 31
0.0
  0
ARC
  8
JISSEN
 10
3888.505551
 20
2983.135262
 30
0.0
 40
10.0
 50
270.0
 51
90.0
  0
LINE
  8
JISSEN
 10
3888.505551
 20
2973.135262
 30
0.0
 11
3798.505551
 21
2973.135262
 31
0.0
  0
LINE
  8
JISSEN
 10
3888.505551
 20
2993.135262
 30
0.0
 11
3798.505551
 21
2993.135262
 31
0.0
  0
LINE
  8
ITTEN
 10
3763.505551
 20
2983.135262
 30
0.0
 11
3948.505551
 21
2983.135262
 31
0.0
  0
CIRCLE
  8
HASEN
 10
3877.274491
 20
4248.135262
 30
0.0
 40
10.0
  0
LINE
  8
SUNPOU
 10
3928.505551
 20
2983.135262
 30
0.0
 11
4043.912857
 21
2983.135262
 31
0.0
  0
INSERT
  8
SUNPOU
  2
ARROWANG
 10
4013.912857
 20
2983.135262
 30
0.0
 41
30.0
 42
30.0
 50
90.0
 43
30.0
  0
LINE
  8
SUNPOU
 10
3928.505551
 20
3283.135262
 30
0.0
 11
4043.912857
 21
3283.135262
 31
0.0
  0
INSERT
  8
SUNPOU
  2
ARROWANG
 10
4013.912857
 20
2983.135262
 30
0.0
 41
30.0
 42
30.0
 50
270.0
 43
30.0
  0
INSERT
  8
SUNPOU
  2
ARROWANG
 10
4013.912857
 20
3283.135262
 30
0.0
 41
30.0
 42
30.0
 50
90.0
 43
30.0
  0
TEXT
  8
SUNPOU
 10
3968.912857
 20
3047.420976
 30
0.0
 40
60.0
  1
300
 50
90.0
  7
K
 72
     1
 11
3968.912857
 21
3133.135262
 31
0.0
  0
LINE
  8
SUNPOU
 10
3928.505551
 20
3583.135262
 30
0.0
 11
4043.912857
 21
3583.135262
 31
0.0
  0
INSERT
  8
SUNPOU
  2
ARROWANG
 10
4013.912857
 20
3283.135262
 30
0.0
 41
30.0
 42
30.0
 50
270.0
 43
30.0
  0
INSERT
  8
SUNPOU
  2
ARROWANG
 10
4013.912857
 20
3583.135262
 30
0.0
 41
30.0
 42
30.0
 50
90.0
 43
30.0
  0
TEXT
  8
SUNPOU
 10
3968.912857
 20
3347.420976
 30
0.0
 40
60.0
  1
300
 50
90.0
  7
K
 72
     1
 11
3968.912857
 21
3433.135262
 31
0.0
  0
LINE
  8
SUNPOU
 10
3928.505551
 20
3883.135262
 30
0.0
 11
4043.912857
 21
3883.135262
 31
0.0
  0
INSERT
  8
SUNPOU
  2
ARROWANG
 10
4013.912857
 20
3583.135262
 30
0.0
 41
30.0
 42
30.0
 50
270.0
 43
30.0
  0
INSERT
  8
SUNPOU
  2
ARROWANG
 10
4013.912857
 20
3883.135262
 30
0.0
 41
30.0
 42
30.0
 50
90.0
 43
30.0
  0
TEXT
  8
SUNPOU
 10
3968.912857
 20
3647.420976
 30
0.0
 40
60.0
  1
300
 50
90.0
  7
K
 72
     1
 11
3968.912857
 21
3733.135262
 31
0.0
  0
LINE
  8
SUNPOU
 10
3928.505551
 20
4183.135262
 30
0.0
 11
4043.912857
 21
4183.135262
 31
0.0
  0
INSERT
  8
SUNPOU
  2
ARROWANG
 10
4013.912857
 20
3883.135262
 30
0.0
 41
30.0
 42
30.0
 50
270.0
 43
30.0
  0
INSERT
  8
SUNPOU
  2
ARROWANG
 10
4013.912857
 20
4183.135262
 30
0.0
 41
30.0
 42
30.0
 50
90.0
 43
30.0
  0
TEXT
  8
SUNPOU
 10
3968.912857
 20
3947.420976
 30
0.0
 40
60.0
  1
300
 50
90.0
  7
K
 72
     1
 11
3968.912857
 21
4033.135262
 31
0.0
  0
LINE
  8
SUNPOU
 10
2352.992811
 20
4348.135262
 30
0.0
 11
2352.992811
 21
4408.135262
 31
0.0
  0
LINE
  8
SUNPOU
 10
2352.992811
 20
4325.135262
 30
0.0
 11
2352.992811
 21
4265.135262
 31
0.0
  0
TEXT
  8
SUNPOU
 10
2307.992811
 20
4159.420976
 30
0.0
 40
60.0
  1
23
 50
90.0
  7
K
 72
     2
 11
2307.992811
 21
4265.135262
 31
0.0
  0
LINE
  8
SUNPOU
 10
2352.992811
 20
4325.135262
 30
0.0
 11
2352.992811
 21
4193.135262
 31
0.0
  0
INSERT
  8
SUNPOU
  2
ARROWANG
 10
2352.992811
 20
4348.135262
 30
0.0
 41
30.0
 42
30.0
 50
270.0
 43
30.0
  0
INSERT
  8
SUNPOU
  2
ARROWANG
 10
2352.992811
 20
4325.135262
 30
0.0
 41
30.0
 42
30.0
 50
90.0
 43
30.0
  0
LINE
  8
SUNPOU
 10
2343.505551
 20
4348.135262
 30
0.0
 11
2247.992811
 21
4348.135262
 31
0.0
  0
LINE
  8
SUNPOU
 10
2352.992811
 20
4348.135262
 30
0.0
 11
2352.992811
 21
4325.135262
 31
0.0
  0
TEXT
  8
SUNPOU
 10
2307.992811
 20
3310.563834
 30
0.0
 40
60.0
  1
1792
 50
90.0
  7
K
 72
     1
 11
2307.992811
 21
3429.135262
 31
0.0
  0
INSERT
  8
SUNPOU
  2
ARROWANG
 10
2352.992811
 20
4325.135262
 30
0.0
 41
30.0
 42
30.0
 50
90.0
 43
30.0
  0
INSERT
  8
SUNPOU
  2
ARROWANG
 10
2352.992811
 20
2533.135262
 30
0.0
 41
30.0
 42
30.0
 50
270.0
 43
30.0
  0
LINE
  8
SUNPOU
 10
2352.992811
 20
2533.135262
 30
0.0
 11
2352.992811
 21
4325.135262
 31
0.0
  0
LINE
  8
SUNPOU
 10
2373.505551
 20
4325.135262
 30
0.0
 11
2322.992811
 21
4325.135262
 31
0.0
  0
LINE
  8
SUNPOU
 10
2243.912857
 20
2533.135262
 30
0.0
 11
2382.992811
 21
2533.135262
 31
0.0
  0
TEXT
  8
SUNPOU
 10
2168.912857
 20
3947.420976
 30
0.0
 40
60.0
  1
300
 50
90.0
  7
K
 72
     1
 11
2168.912857
 21
4033.135262
 31
0.0
  0
INSERT
  8
SUNPOU
  2
ARROWANG
 10
2213.912857
 20
4183.135262
 30
0.0
 41
30.0
 42
30.0
 50
90.0
 43
30.0
  0
INSERT
  8
SUNPOU
  2
ARROWANG
 10
2213.912857
 20
3883.135262
 30
0.0
 41
30.0
 42
30.0
 50
270.0
 43
30.0
  0
LINE
  8
SUNPOU
 10
2128.505551
 20
4183.135262
 30
0.0
 11
2243.912857
 21
4183.135262
 31
0.0
  0
LINE
  8
SUNPOU
 10
2213.912857
 20
3883.135262
 30
0.0
 11
2213.912857
 21
4183.135262
 31
0.0
  0
TEXT
  8
SUNPOU
 10
2168.912857
 20
3647.420976
 30
0.0
 40
60.0
  1
300
 50
90.0
  7
K
 72
     1
 11
2168.912857
 21
3733.135262
 31
0.0
  0
INSERT
  8
SUNPOU
  2
ARROWANG
 10
2213.912857
 20
3883.135262
 30
0.0
 41
30.0
 42
30.0
 50
90.0
 43
30.0
  0
INSERT
  8
SUNPOU
  2
ARROWANG
 10
2213.912857
 20
3583.135262
 30
0.0
 41
30.0
 42
30.0
 50
270.0
 43
30.0
  0
LINE
  8
SUNPOU
 10
2128.505551
 20
3883.135262
 30
0.0
 11
2243.912857
 21
3883.135262
 31
0.0
  0
LINE
  8
SUNPOU
 10
2213.912857
 20
3583.135262
 30
0.0
 11
2213.912857
 21
3883.135262
 31
0.0
  0
TEXT
  8
SUNPOU
 10
2168.912857
 20
3347.420976
 30
0.0
 40
60.0
  1
300
 50
90.0
  7
K
 72
     1
 11
2168.912857
 21
3433.135262
 31
0.0
  0
INSERT
  8
SUNPOU
  2
ARROWANG
 10
2213.912857
 20
3583.135262
 30
0.0
 41
30.0
 42
30.0
 50
90.0
 43
30.0
  0
INSERT
  8
SUNPOU
  2
ARROWANG
 10
2213.912857
 20
3283.135262
 30
0.0
 41
30.0
 42
30.0
 50
270.0
 43
30.0
  0
LINE
  8
SUNPOU
 10
2128.505551
 20
3583.135262
 30
0.0
 11
2243.912857
 21
3583.135262
 31
0.0
  0
LINE
  8
SUNPOU
 10
2213.912857
 20
3283.135262
 30
0.0
 11
2213.912857
 21
3583.135262
 31
0.0
  0
TEXT
  8
SUNPOU
 10
2168.912857
 20
3047.420976
 30
0.0
 40
60.0
  1
300
 50
90.0
  7
K
 72
     1
 11
2168.912857
 21
3133.135262
 31
0.0
  0
INSERT
  8
SUNPOU
  2
ARROWANG
 10
2213.912857
 20
3283.135262
 30
0.0
 41
30.0
 42
30.0
 50
90.0
 43
30.0
  0
INSERT
  8
SUNPOU
  2
ARROWANG
 10
2213.912857
 20
2983.135262
 30
0.0
 41
30.0
 42
30.0
 50
270.0
 43
30.0
  0
LINE
  8
SUNPOU
 10
2128.505551
 20
3283.135262
 30
0.0
 11
2243.912857
 21
3283.135262
 31
0.0
  0
LINE
  8
SUNPOU
 10
2213.912857
 20
2983.135262
 30
0.0
 11
2213.912857
 21
3283.135262
 31
0.0
  0
TEXT
  8
SUNPOU
 10
2168.912857
 20
2747.420976
 30
0.0
 40
60.0
  1
300
 50
90.0
  7
K
 72
     1
 11
2168.912857
 21
2833.135262
 31
0.0
  0
INSERT
  8
SUNPOU
  2
ARROWANG
 10
2213.912857
 20
2983.135262
 30
0.0
 41
30.0
 42
30.0
 50
90.0
 43
30.0
  0
INSERT
  8
SUNPOU
  2
ARROWANG
 10
2213.912857
 20
2683.135262
 30
0.0
 41
30.0
 42
30.0
 50
270.0
 43
30.0
  0
LINE
  8
SUNPOU
 10
2128.505551
 20
2983.135262
 30
0.0
 11
2243.912857
 21
2983.135262
 31
0.0
  0
LINE
  8
SUNPOU
 10
2213.912857
 20
2683.135262
 30
0.0
 11
2213.912857
 21
2983.135262
 31
0.0
  0
TEXT
  8
SUNPOU
 10
2168.912857
 20
2518.135262
 30
0.0
 40
60.0
  1
150
 50
90.0
  7
K
 72
     1
 11
2168.912857
 21
2608.135262
 31
0.0
  0
INSERT
  8
SUNPOU
  2
ARROWANG
 10
2213.912857
 20
2683.135262
 30
0.0
 41
30.0
 42
30.0
 50
90.0
 43
30.0
  0
INSERT
  8
SUNPOU
  2
ARROWANG
 10
2213.912857
 20
2533.135262
 30
0.0
 41
30.0
 42
30.0
 50
270.0
 43
30.0
  0
LINE
  8
SUNPOU
 10
2213.912857
 20
2533.135262
 30
0.0
 11
2213.912857
 21
2683.135262
 31
0.0
  0
LINE
  8
SUNPOU
 10
2128.505551
 20
2683.135262
 30
0.0
 11
2243.912857
 21
2683.135262
 31
0.0
  0
LINE
  8
SUNPOU
 10
2028.505551
 20
2533.135262
 30
0.0
 11
2243.912857
 21
2533.135262
 31
0.0
  0
CIRCLE
  8
HASEN
 10
2077.274491
 20
2648.135262
 30
0.0
 40
10.0
  0
CIRCLE
  8
HASEN
 10
2077.274491
 20
4248.135262
 30
0.0
 40
10.0
  0
LINE
  8
ITTEN
 10
1963.505551
 20
2683.135262
 30
0.0
 11
2148.505551
 21
2683.135262
 31
0.0
  0
LINE
  8
JISSEN
 10
2088.505551
 20
2693.135262
 30
0.0
 11
1998.505551
 21
2693.135262
 31
0.0
  0
LINE
  8
JISSEN
 10
2088.505551
 20
2673.135262
 30
0.0
 11
1998.505551
 21
2673.135262
 31
0.0
  0
ARC
  8
JISSEN
 10
2088.505551
 20
2683.135262
 30
0.0
 40
10.0
 50
270.0
 51
90.0
  0
LINE
  8
ITTEN
 10
1963.505551
 20
2983.135262
 30
0.0
 11
2148.505551
 21
2983.135262
 31
0.0
  0
LINE
  8
JISSEN
 10
2088.505551
 20
2993.135262
 30
0.0
 11
1998.505551
 21
2993.135262
 31
0.0
  0
LINE
  8
JISSEN
 10
2088.505551
 20
2973.135262
 30
0.0
 11
1998.505551
 21
2973.135262
 31
0.0
  0
ARC
  8
JISSEN
 10
2088.505551
 20
2983.135262
 30
0.0
 40
10.0
 50
270.0
 51
90.0
  0
LINE
  8
ITTEN
 10
2373.505551
 20
4398.135262
 30
0.0
 11
2373.505551
 21
2483.135262
 31
0.0
  0
LINE
  8
JISSEN
 10
1923.505551
 20
4348.135262
 30
0.0
 11
2373.505551
 21
4348.135262
 31
0.0
  0
LINE
  8
JISSEN
 10
2823.505551
 20
4348.135262
 30
0.0
 11
2823.505551
 21
2548.135262
 31
0.0
  0
LINE
  8
JISSEN
 10
1923.505551
 20
4348.135262
 30
0.0
 11
1923.505551
 21
2548.135262
 31
0.0
  0
LINE
  8
JISSEN
 10
1998.505551
 20
4325.135262
 30
0.0
 11
1998.505551
 21
2533.135262
 31
0.0
  0
LINE
  8
JISSEN
 10
1963.505551
 20
4348.135262
 30
0.0
 11
1970.505551
 21
4325.135262
 31
0.0
  0
LINE
  8
JISSEN
 10
1970.505551
 20
4325.135262
 30
0.0
 11
2373.505551
 21
4325.135262
 31
0.0
  0
LINE
  8
HASEN
 10
2783.505551
 20
4348.135262
 30
0.0
 11
2776.505551
 21
4325.135262
 31
0.0
  0
LINE
  8
HASEN
 10
2776.505551
 20
4325.135262
 30
0.0
 11
2373.505551
 21
4325.135262
 31
0.0
  0
LINE
  8
JISSEN
 10
1923.505551
 20
2548.135262
 30
0.0
 11
1964.505551
 21
2548.135262
 31
0.0
  0
LINE
  8
JISSEN
 10
1964.505551
 20
2548.135262
 30
0.0
 11
1973.505551
 21
2533.135262
 31
0.0
  0
LINE
  8
JISSEN
 10
1973.505551
 20
2533.135262
 30
0.0
 11
2373.505551
 21
2533.135262
 31
0.0
  0
LINE
  8
JISSEN
 10
2823.505551
 20
2548.135262
 30
0.0
 11
2782.505551
 21
2548.135262
 31
0.0
  0
LINE
  8
JISSEN
 10
2782.505551
 20
2548.135262
 30
0.0
 11
2773.505551
 21
2533.135262
 31
0.0
  0
LINE
  8
JISSEN
 10
2773.505551
 20
2533.135262
 30
0.0
 11
2373.505551
 21
2533.135262
 31
0.0
  0
LINE
  8
JISSEN
 10
2373.505551
 20
2548.135262
 30
0.0
 11
2782.505551
 21
2548.135262
 31
0.0
  0
LINE
  8
HASEN
 10
2748.505551
 20
4325.135262
 30
0.0
 11
2748.505551
 21
2533.135262
 31
0.0
  0
LINE
  8
ITTEN
 10
1963.505551
 20
4183.135262
 30
0.0
 11
2148.505551
 21
4183.135262
 31
0.0
  0
LINE
  8
JISSEN
 10
2088.505551
 20
4193.135262
 30
0.0
 11
1998.505551
 21
4193.135262
 31
0.0
  0
LINE
  8
JISSEN
 10
2088.505551
 20
4173.135262
 30
0.0
 11
1998.505551
 21
4173.135262
 31
0.0
  0
ARC
  8
JISSEN
 10
2088.505551
 20
4183.135262
 30
0.0
 40
10.0
 50
270.0
 51
90.0
  0
ARC
  8
JISSEN
 10
2088.505551
 20
3883.135262
 30
0.0
 40
10.0
 50
270.0
 51
90.0
  0
LINE
  8
JISSEN
 10
2088.505551
 20
3873.135262
 30
0.0
 11
1998.505551
 21
3873.135262
 31
0.0
  0
LINE
  8
JISSEN
 10
2088.505551
 20
3893.135262
 30
0.0
 11
1998.505551
 21
3893.135262
 31
0.0
  0
LINE
  8
ITTEN
 10
1963.505551
 20
3883.135262
 30
0.0
 11
2148.505551
 21
3883.135262
 31
0.0
  0
ARC
  8
JISSEN
 10
2088.505551
 20
3583.135262
 30
0.0
 40
10.0
 50
270.0
 51
90.0
  0
LINE
  8
JISSEN
 10
2088.505551
 20
3573.135262
 30
0.0
 11
1998.505551
 21
3573.135262
 31
0.0
  0
LINE
  8
JISSEN
 10
2088.505551
 20
3593.135262
 30
0.0
 11
1998.505551
 21
3593.135262
 31
0.0
  0
LINE
  8
ITTEN
 10
1963.505551
 20
3583.135262
 30
0.0
 11
2148.505551
 21
3583.135262
 31
0.0
  0
ARC
  8
JISSEN
 10
2088.505551
 20
3283.135262
 30
0.0
 40
10.0
 50
270.0
 51
90.0
  0
LINE
  8
JISSEN
 10
2088.505551
 20
3273.135262
 30
0.0
 11
1998.505551
 21
3273.135262
 31
0.0
  0
LINE
  8
JISSEN
 10
2088.505551
 20
3293.135262
 30
0.0
 11
1998.505551
 21
3293.135262
 31
0.0
  0
LINE
  8
ITTEN
 10
1963.505551
 20
3283.135262
 30
0.0
 11
2148.505551
 21
3283.135262
 31
0.0
  0
LINE
  8
SUNPOU
 10
1893.505551
 20
2548.135262
 30
0.0
 11
1673.673746
 21
2548.135262
 31
0.0
  0
LINE
  8
SUNPOU
 10
1893.505551
 20
4348.135262
 30
0.0
 11
1673.673746
 21
4348.135262
 31
0.0
  0
LINE
  8
SUNPOU
 10
1703.673746
 20
2548.135262
 30
0.0
 11
1703.673746
 21
4348.135262
 31
0.0
  0
INSERT
  8
SUNPOU
  2
ARROWANG
 10
1703.673746
 20
2548.135262
 30
0.0
 41
30.0
 42
30.0
 50
270.0
 43
30.0
  0
INSERT
  8
SUNPOU
  2
ARROWANG
 10
1703.673746
 20
4348.135262
 30
0.0
 41
30.0
 42
30.0
 50
90.0
 43
30.0
  0
TEXT
  8
SUNPOU
 10
1658.673746
 20
3329.563834
 30
0.0
 40
60.0
  1
1800
 50
90.0
  7
K
 72
     1
 11
1658.673746
 21
3448.135262
 31
0.0
  0
LINE
  8
SUNPOU
 10
1968.505551
 20
2533.135262
 30
0.0
 11
1824.483335
 21
2533.135262
 31
0.0
  0
LINE
  8
SUNPOU
 10
1893.505551
 20
2548.135262
 30
0.0
 11
1824.483335
 21
2548.135262
 31
0.0
  0
LINE
  8
SUNPOU
 10
1854.483335
 20
2533.135262
 30
0.0
 11
1854.483335
 21
2548.135262
 31
0.0
  0
INSERT
  8
SUNPOU
  2
ARROWANG
 10
1854.483335
 20
2533.135262
 30
0.0
 41
30.0
 42
30.0
 50
90.0
 43
30.0
  0
INSERT
  8
SUNPOU
  2
ARROWANG
 10
1854.483335
 20
2548.135262
 30
0.0
 41
30.0
 42
30.0
 50
270.0
 43
30.0
  0
LINE
  8
SUNPOU
 10
1854.483335
 20
2548.135262
 30
0.0
 11
1854.483335
 21
2619.232131
 31
0.0
  0
LINE
  8
SUNPOU
 10
1854.483335
 20
2533.135262
 30
0.0
 11
1854.483337
 21
2473.135262
 31
0.0
  0
TEXT
  8
SUNPOU
 10
1809.483335
 20
2497.803559
 30
0.0
 40
60.0
  1
15
 50
90.0
  7
K
 72
     1
 11
1809.483335
 21
2559.232131
 31
0.0
  0
CIRCLE
  8
HASEN
 10
2669.736611
 20
4248.135262
 30
0.0
 40
10.0
  0
LINE
  8
SUNPOU
 10
2699.736611
 20
4248.135262
 30
0.0
 11
3055.742905
 21
4248.135262
 31
0.0
  0
LINE
  8
SUNPOU
 10
2853.505551
 20
4348.135262
 30
0.0
 11
3055.742905
 21
4348.135262
 31
0.0
  0
LINE
  8
SUNPOU
 10
3025.742905
 20
4248.135262
 30
0.0
 11
3025.742905
 21
4348.135262
 31
0.0
  0
INSERT
  8
SUNPOU
  2
ARROWANG
 10
3025.742905
 20
4248.135262
 30
0.0
 41
30.0
 42
30.0
 50
270.0
 43
30.0
  0
INSERT
  8
SUNPOU
  2
ARROWANG
 10
3025.742905
 20
4348.135262
 30
0.0
 41
30.0
 42
30.0
 50
90.0
 43
30.0
  0
TEXT
  8
SUNPOU
 10
2980.742905
 20
4208.135262
 30
0.0
 40
60.0
  1
100
 50
90.0
  7
K
 72
     1
 11
2980.742905
 21
4298.135262
 31
0.0
  0
CIRCLE
  8
HASEN
 10
2669.736611
 20
2648.135262
 30
0.0
 40
10.0
  0
LINE
  8
SUNPOU
 10
2853.505551
 20
2548.135262
 30
0.0
 11
3007.986535
 21
2548.135262
 31
0.0
  0
LINE
  8
SUNPOU
 10
2699.736611
 20
2648.135262
 30
0.0
 11
3007.986535
 21
2648.135262
 31
0.0
  0
LINE
  8
SUNPOU
 10
2977.986535
 20
2548.135262
 30
0.0
 11
2977.986535
 21
2648.135262
 31
0.0
  0
INSERT
  8
SUNPOU
  2
ARROWANG
 10
2977.986535
 20
2548.135262
 30
0.0
 41
30.0
 42
30.0
 50
270.0
 43
30.0
  0
INSERT
  8
SUNPOU
  2
ARROWANG
 10
2977.986535
 20
2648.135262
 30
0.0
 41
30.0
 42
30.0
 50
90.0
 43
30.0
  0
TEXT
  8
SUNPOU
 10
2932.986535
 20
2508.135262
 30
0.0
 40
60.0
  1
100
 50
90.0
  7
K
 72
     1
 11
2932.986535
 21
2598.135262
 31
0.0
  0
TEXT
  8
SUNPOU
 10
4732.986535
 20
2808.135262
 30
0.0
 40
60.0
  1
100
 50
90.0
  7
K
 72
     1
 11
4732.986535
 21
2898.135262
 31
0.0
  0
INSERT
  8
SUNPOU
  2
ARROWANG
 10
4777.986535
 20
2948.135262
 30
0.0
 41
30.0
 42
30.0
 50
90.0
 43
30.0
  0
INSERT
  8
SUNPOU
  2
ARROWANG
 10
4777.986535
 20
2848.135262
 30
0.0
 41
30.0
 42
30.0
 50
270.0
 43
30.0
  0
LINE
  8
SUNPOU
 10
4777.986535
 20
2848.135262
 30
0.0
 11
4777.986535
 21
2948.135262
 31
0.0
  0
LINE
  8
SUNPOU
 10
4499.736611
 20
2948.135262
 30
0.0
 11
4807.986535
 21
2948.135262
 31
0.0
  0
LINE
  8
SUNPOU
 10
4653.505551
 20
2848.135262
 30
0.0
 11
4807.986535
 21
2848.135262
 31
0.0
  0
CIRCLE
  8
HASEN
 10
4462.582112
 20
2946.084356
 30
0.0
 40
10.0
  0
TEXT
  8
SUNPOU
 10
4780.742905
 20
4208.135262
 30
0.0
 40
60.0
  1
100
 50
90.0
  7
K
 72
     1
 11
4780.742905
 21
4298.135262
 31
0.0
  0
INSERT
  8
SUNPOU
  2
ARROWANG
 10
4818.588405
 20
4348.135262
 30
0.0
 41
30.0
 42
30.0
 50
90.0
 43
30.0
  0
INSERT
  8
SUNPOU
  2
ARROWANG
 10
4818.588405
 20
4248.135262
 30
0.0
 41
30.0
 42
30.0
 50
270.0
 43
30.0
  0
LINE
  8
SUNPOU
 10
4818.588405
 20
4248.135262
 30
0.0
 11
4818.588405
 21
4348.135262
 31
0.0
  0
LINE
  8
SUNPOU
 10
4492.582112
 20
4248.135262
 30
0.0
 11
4848.588405
 21
4248.135262
 31
0.0
  0
CIRCLE
  8
HASEN
 10
4462.582112
 20
4248.135262
 30
0.0
 40
10.0
  0
TEXT
  8
SUNPOU
 10
3609.483335
 20
2797.803559
 30
0.0
 40
60.0
  1
15
 50
90.0
  7
K
 72
     1
 11
3609.483335
 21
2859.232131
 31
0.0
  0
LINE
  8
SUNPOU
 10
3654.483335
 20
2833.135262
 30
0.0
 11
3654.483337
 21
2773.135262
 31
0.0
  0
LINE
  8
SUNPOU
 10
3654.483335
 20
2848.135262
 30
0.0
 11
3654.483335
 21
2919.232131
 31
0.0
  0
INSERT
  8
SUNPOU
  2
ARROWANG
 10
3654.483335
 20
2848.135262
 30
0.0
 41
30.0
 42
30.0
 50
270.0
 43
30.0
  0
INSERT
  8
SUNPOU
  2
ARROWANG
 10
3654.483335
 20
2833.135262
 30
0.0
 41
30.0
 42
30.0
 50
90.0
 43
30.0
  0
LINE
  8
SUNPOU
 10
3654.483335
 20
2833.135262
 30
0.0
 11
3654.483335
 21
2848.135262
 31
0.0
  0
LINE
  8
SUNPOU
 10
3693.505551
 20
2848.135262
 30
0.0
 11
3624.483335
 21
2848.135262
 31
0.0
  0
LINE
  8
SUNPOU
 10
3768.505551
 20
2833.135262
 30
0.0
 11
3624.483335
 21
2833.135262
 31
0.0
  0
LINE
  8
HASEN
 10
4541.351052
 20
4325.135262
 30
0.0
 11
4541.351052
 21
2833.135262
 31
0.0
  0
LINE
  8
JISSEN
 10
4173.505551
 20
2848.135262
 30
0.0
 11
4582.505551
 21
2848.135262
 31
0.0
  0
LINE
  8
JISSEN
 10
4573.505551
 20
2833.135262
 30
0.0
 11
4173.505551
 21
2833.135262
 31
0.0
  0
LINE
  8
JISSEN
 10
4582.505551
 20
2848.135262
 30
0.0
 11
4573.505551
 21
2833.135262
 31
0.0
  0
LINE
  8
JISSEN
 10
4623.505551
 20
2848.135262
 30
0.0
 11
4582.505551
 21
2848.135262
 31
0.0
  0
LINE
  8
JISSEN
 10
3773.505551
 20
2833.135262
 30
0.0
 11
4173.505551
 21
2833.135262
 31
0.0
  0
LINE
  8
JISSEN
 10
3764.505551
 20
2848.135262
 30
0.0
 11
3773.505551
 21
2833.135262
 31
0.0
  0
LINE
  8
JISSEN
 10
3723.505551
 20
2848.135262
 30
0.0
 11
3764.505551
 21
2848.135262
 31
0.0
  0
LINE
  8
HASEN
 10
4576.505551
 20
4325.135262
 30
0.0
 11
4173.505551
 21
4325.135262
 31
0.0
  0
LINE
  8
JISSEN
 10
3770.505551
 20
4325.135262
 30
0.0
 11
4173.505551
 21
4325.135262
 31
0.0
  0
LINE
  8
JISSEN
 10
3763.505551
 20
4348.135262
 30
0.0
 11
3770.505551
 21
4325.135262
 31
0.0
  0
LINE
  8
JISSEN
 10
3798.505551
 20
4325.135262
 30
0.0
 11
3798.505551
 21
2833.135262
 31
0.0
  0
LINE
  8
JISSEN
 10
3723.505551
 20
4348.135262
 30
0.0
 11
3723.505551
 21
2848.135262
 31
0.0
  0
LINE
  8
JISSEN
 10
4623.505551
 20
4348.135262
 30
0.0
 11
4623.505551
 21
2848.135262
 31
0.0
  0
LINE
  8
JISSEN
 10
3723.505551
 20
4348.135262
 30
0.0
 11
4173.505551
 21
4348.135262
 31
0.0
  0
LINE
  8
ITTEN
 10
4173.505551
 20
4398.135262
 30
0.0
 11
4173.505551
 21
2783.135262
 31
0.0
  0
LINE
  8
SUNPOU
 10
3594.483335
 20
2848.135262
 30
0.0
 11
3429.334611
 21
2848.135262
 31
0.0
  0
LINE
  8
SUNPOU
 10
3693.505551
 20
4348.135262
 30
0.0
 11
3429.334611
 21
4348.135262
 31
0.0
  0
LINE
  8
SUNPOU
 10
3459.334611
 20
2848.135262
 30
0.0
 11
3459.334611
 21
4348.135262
 31
0.0
  0
INSERT
  8
SUNPOU
  2
ARROWANG
 10
3459.334611
 20
2848.135262
 30
0.0
 41
30.0
 42
30.0
 50
270.0
 43
30.0
  0
INSERT
  8
SUNPOU
  2
ARROWANG
 10
3459.334611
 20
4348.135262
 30
0.0
 41
30.0
 42
30.0
 50
90.0
 43
30.0
  0
TEXT
  8
SUNPOU
 10
3414.334611
 20
3479.563834
 30
0.0
 40
60.0
  1
1500
 50
90.0
  7
K
 72
     1
 11
3414.334611
 21
3598.135262
 31
0.0
  0
LINE
  8
ITTEN
 10
5973.505551
 20
4398.135262
 30
0.0
 11
5973.505551
 21
3083.135262
 31
0.0
  0
LINE
  8
JISSEN
 10
5523.505551
 20
4348.135262
 30
0.0
 11
5973.505551
 21
4348.135262
 31
0.0
  0
LINE
  8
JISSEN
 10
6423.505551
 20
4348.135262
 30
0.0
 11
6423.505551
 21
3148.135262
 31
0.0
  0
LINE
  8
JISSEN
 10
5523.505551
 20
4348.135262
 30
0.0
 11
5523.505551
 21
3148.135262
 31
0.0
  0
LINE
  8
JISSEN
 10
5598.505551
 20
4325.135262
 30
0.0
 11
5598.505551
 21
3133.135262
 31
0.0
  0
LINE
  8
JISSEN
 10
5563.505551
 20
4348.135262
 30
0.0
 11
5570.505551
 21
4325.135262
 31
0.0
  0
LINE
  8
JISSEN
 10
5570.505551
 20
4325.135262
 30
0.0
 11
5973.505551
 21
4325.135262
 31
0.0
  0
LINE
  8
HASEN
 10
6383.505551
 20
4348.135262
 30
0.0
 11
6376.505551
 21
4325.135262
 31
0.0
  0
LINE
  8
HASEN
 10
6376.505551
 20
4325.135262
 30
0.0
 11
5973.505551
 21
4325.135262
 31
0.0
  0
LINE
  8
JISSEN
 10
5523.505551
 20
3148.135262
 30
0.0
 11
5564.505551
 21
3148.135262
 31
0.0
  0
LINE
  8
JISSEN
 10
5564.505551
 20
3148.135262
 30
0.0
 11
5573.505551
 21
3133.135262
 31
0.0
  0
LINE
  8
JISSEN
 10
5573.505551
 20
3133.135262
 30
0.0
 11
5973.505551
 21
3133.135262
 31
0.0
  0
LINE
  8
JISSEN
 10
6423.505551
 20
3148.135262
 30
0.0
 11
6382.505551
 21
3148.135262
 31
0.0
  0
LINE
  8
JISSEN
 10
6382.505551
 20
3148.135262
 30
0.0
 11
6373.505551
 21
3133.135262
 31
0.0
  0
LINE
  8
JISSEN
 10
6373.505551
 20
3133.135262
 30
0.0
 11
5973.505551
 21
3133.135262
 31
0.0
  0
LINE
  8
JISSEN
 10
5973.505551
 20
3148.135262
 30
0.0
 11
6382.505551
 21
3148.135262
 31
0.0
  0
LINE
  8
HASEN
 10
6348.505551
 20
4325.135262
 30
0.0
 11
6348.505551
 21
3133.135262
 31
0.0
  0
CIRCLE
  8
HASEN
 10
6269.736611
 20
4248.135262
 30
0.0
 40
10.0
  0
LINE
  8
SUNPOU
 10
6299.736611
 20
4248.135262
 30
0.0
 11
6655.742905
 21
4248.135262
 31
0.0
  0
LINE
  8
SUNPOU
 10
6453.505551
 20
4348.135262
 30
0.0
 11
6655.742905
 21
4348.135262
 31
0.0
  0
LINE
  8
SUNPOU
 10
6625.742905
 20
4248.135262
 30
0.0
 11
6625.742905
 21
4348.135262
 31
0.0
  0
INSERT
  8
SUNPOU
  2
ARROWANG
 10
6625.742905
 20
4248.135262
 30
0.0
 41
30.0
 42
30.0
 50
270.0
 43
30.0
  0
INSERT
  8
SUNPOU
  2
ARROWANG
 10
6625.742905
 20
4348.135262
 30
0.0
 41
30.0
 42
30.0
 50
90.0
 43
30.0
  0
TEXT
  8
SUNPOU
 10
6580.742905
 20
4208.135262
 30
0.0
 40
60.0
  1
100
 50
90.0
  7
K
 72
     1
 11
6580.742905
 21
4298.135262
 31
0.0
  0
CIRCLE
  8
HASEN
 10
6269.736611
 20
3248.135262
 30
0.0
 40
10.0
  0
LINE
  8
SUNPOU
 10
6453.505551
 20
3148.135262
 30
0.0
 11
6607.986535
 21
3148.135262
 31
0.0
  0
LINE
  8
SUNPOU
 10
6299.736611
 20
3248.135262
 30
0.0
 11
6607.986535
 21
3248.135262
 31
0.0
  0
LINE
  8
SUNPOU
 10
6577.986535
 20
3148.135262
 30
0.0
 11
6577.986535
 21
3248.135262
 31
0.0
  0
INSERT
  8
SUNPOU
  2
ARROWANG
 10
6577.986535
 20
3148.135262
 30
0.0
 41
30.0
 42
30.0
 50
270.0
 43
30.0
  0
INSERT
  8
SUNPOU
  2
ARROWANG
 10
6577.986535
 20
3248.135262
 30
0.0
 41
30.0
 42
30.0
 50
90.0
 43
30.0
  0
TEXT
  8
SUNPOU
 10
6532.986535
 20
3108.135262
 30
0.0
 40
60.0
  1
100
 50
90.0
  7
K
 72
     1
 11
6532.986535
 21
3198.135262
 31
0.0
  0
LINE
  8
SUNPOU
 10
4614.256009
 20
4348.582398
 30
0.0
 11
4848.588405
 21
4348.582398
 31
0.0
  0
LINE
  8
SUNPOU
 10
5493.505551
 20
3148.135262
 30
0.0
 11
5279.843569
 21
3148.135262
 31
0.0
  0
LINE
  8
SUNPOU
 10
5493.505551
 20
4348.135262
 30
0.0
 11
5279.843569
 21
4348.135262
 31
0.0
  0
LINE
  8
SUNPOU
 10
5309.843569
 20
3148.135262
 30
0.0
 11
5309.843569
 21
4348.135262
 31
0.0
  0
INSERT
  8
SUNPOU
  2
ARROWANG
 10
5309.843569
 20
3148.135262
 30
0.0
 41
30.0
 42
30.0
 50
270.0
 43
30.0
  0
INSERT
  8
SUNPOU
  2
ARROWANG
 10
5309.843569
 20
4348.135262
 30
0.0
 41
30.0
 42
30.0
 50
90.0
 43
30.0
  0
TEXT
  8
SUNPOU
 10
5264.843569
 20
3629.563834
 30
0.0
 40
60.0
  1
1200
 50
90.0
  7
K
 72
     1
 11
5264.843569
 21
3748.135262
 31
0.0
  0
LINE
  8
HASEN
 10
4583.505551
 20
4348.135262
 30
0.0
 11
4576.505551
 21
4325.135262
 31
0.0
  0
TEXT
  8
SUNPOU
 10
8332.986535
 20
3408.135262
 30
0.0
 40
60.0
  1
100
 50
90.0
  7
K
 72
     1
 11
8332.986535
 21
3498.135262
 31
0.0
  0
INSERT
  8
SUNPOU
  2
ARROWANG
 10
8377.986535
 20
3548.135262
 30
0.0
 41
30.0
 42
30.0
 50
90.0
 43
30.0
  0
INSERT
  8
SUNPOU
  2
ARROWANG
 10
8377.986535
 20
3448.135262
 30
0.0
 41
30.0
 42
30.0
 50
270.0
 43
30.0
  0
LINE
  8
SUNPOU
 10
8377.986535
 20
3448.135262
 30
0.0
 11
8377.986535
 21
3548.135262
 31
0.0
  0
LINE
  8
SUNPOU
 10
8099.736611
 20
3548.135262
 30
0.0
 11
8407.986535
 21
3548.135262
 31
0.0
  0
LINE
  8
SUNPOU
 10
8253.505551
 20
3448.135262
 30
0.0
 11
8407.986535
 21
3448.135262
 31
0.0
  0
CIRCLE
  8
HASEN
 10
8069.736611
 20
3548.135262
 30
0.0
 40
10.0
  0
TEXT
  8
SUNPOU
 10
8380.742905
 20
4208.135262
 30
0.0
 40
60.0
  1
100
 50
90.0
  7
K
 72
     1
 11
8380.742905
 21
4298.135262
 31
0.0
  0
INSERT
  8
SUNPOU
  2
ARROWANG
 10
8425.742905
 20
4348.135262
 30
0.0
 41
30.0
 42
30.0
 50
90.0
 43
30.0
  0
INSERT
  8
SUNPOU
  2
ARROWANG
 10
8425.742905
 20
4248.135262
 30
0.0
 41
30.0
 42
30.0
 50
270.0
 43
30.0
  0
LINE
  8
SUNPOU
 10
8425.742905
 20
4248.135262
 30
0.0
 11
8425.742905
 21
4348.135262
 31
0.0
  0
LINE
  8
SUNPOU
 10
8253.505551
 20
4348.135262
 30
0.0
 11
8455.742905
 21
4348.135262
 31
0.0
  0
LINE
  8
SUNPOU
 10
8099.736611
 20
4248.135262
 30
0.0
 11
8455.742905
 21
4248.135262
 31
0.0
  0
CIRCLE
  8
HASEN
 10
8069.736611
 20
4248.135262
 30
0.0
 40
10.0
  0
LINE
  8
HASEN
 10
8148.505551
 20
4325.135262
 30
0.0
 11
8148.505551
 21
3433.135262
 31
0.0
  0
LINE
  8
JISSEN
 10
7773.505551
 20
3448.135262
 30
0.0
 11
8182.505551
 21
3448.135262
 31
0.0
  0
LINE
  8
JISSEN
 10
8173.505551
 20
3433.135262
 30
0.0
 11
7773.505551
 21
3433.135262
 31
0.0
  0
LINE
  8
JISSEN
 10
8182.505551
 20
3448.135262
 30
0.0
 11
8173.505551
 21
3433.135262
 31
0.0
  0
LINE
  8
JISSEN
 10
8223.505551
 20
3448.135262
 30
0.0
 11
8182.505551
 21
3448.135262
 31
0.0
  0
LINE
  8
JISSEN
 10
7373.505551
 20
3433.135262
 30
0.0
 11
7773.505551
 21
3433.135262
 31
0.0
  0
LINE
  8
JISSEN
 10
7364.505551
 20
3448.135262
 30
0.0
 11
7373.505551
 21
3433.135262
 31
0.0
  0
LINE
  8
JISSEN
 10
7323.505551
 20
3448.135262
 30
0.0
 11
7364.505551
 21
3448.135262
 31
0.0
  0
LINE
  8
HASEN
 10
8176.505551
 20
4325.135262
 30
0.0
 11
7773.505551
 21
4325.135262
 31
0.0
  0
LINE
  8
HASEN
 10
8183.505551
 20
4348.135262
 30
0.0
 11
8176.505551
 21
4325.135262
 31
0.0
  0
LINE
  8
JISSEN
 10
7370.505551
 20
4325.135262
 30
0.0
 11
7773.505551
 21
4325.135262
 31
0.0
  0
LINE
  8
JISSEN
 10
7363.505551
 20
4348.135262
 30
0.0
 11
7370.505551
 21
4325.135262
 31
0.0
  0
LINE
  8
JISSEN
 10
7398.505551
 20
4325.135262
 30
0.0
 11
7398.505551
 21
3433.135262
 31
0.0
  0
LINE
  8
JISSEN
 10
7323.505551
 20
4348.135262
 30
0.0
 11
7323.505551
 21
3448.135262
 31
0.0
  0
LINE
  8
JISSEN
 10
8223.505551
 20
4348.135262
 30
0.0
 11
8223.505551
 21
3448.135262
 31
0.0
  0
LINE
  8
JISSEN
 10
7323.505551
 20
4348.135262
 30
0.0
 11
7773.505551
 21
4348.135262
 31
0.0
  0
LINE
  8
ITTEN
 10
7773.505551
 20
4398.135262
 30
0.0
 11
7773.505551
 21
3383.135262
 31
0.0
  0
LINE
  8
SUNPOU
 10
7293.505551
 20
3448.135262
 30
0.0
 11
7058.882728
 21
3448.135262
 31
0.0
  0
LINE
  8
SUNPOU
 10
7293.505551
 20
4348.135262
 30
0.0
 11
7058.882728
 21
4348.135262
 31
0.0
  0
LINE
  8
SUNPOU
 10
7088.882728
 20
3448.135262
 30
0.0
 11
7088.882728
 21
4348.135262
 31
0.0
  0
INSERT
  8
SUNPOU
  2
ARROWANG
 10
7088.882728
 20
3448.135262
 30
0.0
 41
30.0
 42
30.0
 50
270.0
 43
30.0
  0
INSERT
  8
SUNPOU
  2
ARROWANG
 10
7088.882728
 20
4348.135262
 30
0.0
 41
30.0
 42
30.0
 50
90.0
 43
30.0
  0
TEXT
  8
SUNPOU
 10
7043.882728
 20
3812.420976
 30
0.0
 40
60.0
  1
900
 50
90.0
  7
K
 72
     1
 11
7043.882728
 21
3898.135262
 31
0.0
  0
LINE
  8
ITTEN
 10
5973.505551
 20
1907.518159
 30
0.0
 11
5973.505551
 21
1192.518159
 31
0.0
  0
LINE
  8
JISSEN
 10
5523.505551
 20
1857.518159
 30
0.0
 11
5973.505551
 21
1857.518159
 31
0.0
  0
LINE
  8
JISSEN
 10
6423.505551
 20
1857.518159
 30
0.0
 11
6423.505551
 21
1257.518159
 31
0.0
  0
LINE
  8
JISSEN
 10
5523.505551
 20
1857.518159
 30
0.0
 11
5523.505551
 21
1257.518159
 31
0.0
  0
LINE
  8
JISSEN
 10
5598.505551
 20
1834.518159
 30
0.0
 11
5598.505551
 21
1242.518159
 31
0.0
  0
LINE
  8
JISSEN
 10
5563.505551
 20
1857.518159
 30
0.0
 11
5570.505551
 21
1834.518159
 31
0.0
  0
LINE
  8
JISSEN
 10
5570.505551
 20
1834.518159
 30
0.0
 11
5973.505551
 21
1834.518159
 31
0.0
  0
LINE
  8
HASEN
 10
6383.505551
 20
1857.518159
 30
0.0
 11
6376.505551
 21
1834.518159
 31
0.0
  0
LINE
  8
HASEN
 10
6376.505551
 20
1834.518159
 30
0.0
 11
5973.505551
 21
1834.518159
 31
0.0
  0
LINE
  8
JISSEN
 10
5523.505551
 20
1257.518159
 30
0.0
 11
5564.505551
 21
1257.518159
 31
0.0
  0
LINE
  8
JISSEN
 10
5564.505551
 20
1257.518159
 30
0.0
 11
5573.505551
 21
1242.518159
 31
0.0
  0
LINE
  8
JISSEN
 10
5573.505551
 20
1242.518159
 30
0.0
 11
5973.505551
 21
1242.518159
 31
0.0
  0
LINE
  8
JISSEN
 10
6423.505551
 20
1257.518159
 30
0.0
 11
6382.505551
 21
1257.518159
 31
0.0
  0
LINE
  8
JISSEN
 10
6382.505551
 20
1257.518159
 30
0.0
 11
6373.505551
 21
1242.518159
 31
0.0
  0
LINE
  8
JISSEN
 10
6373.505551
 20
1242.518159
 30
0.0
 11
5973.505551
 21
1242.518159
 31
0.0
  0
LINE
  8
JISSEN
 10
5973.505551
 20
1257.518159
 30
0.0
 11
6382.505551
 21
1257.518159
 31
0.0
  0
LINE
  8
HASEN
 10
6348.505551
 20
1834.518159
 30
0.0
 11
6348.505551
 21
1242.518159
 31
0.0
  0
CIRCLE
  8
HASEN
 10
6269.736611
 20
1757.518159
 30
0.0
 40
10.0
  0
LINE
  8
SUNPOU
 10
6299.736611
 20
1757.518159
 30
0.0
 11
6655.742905
 21
1757.518159
 31
0.0
  0
LINE
  8
SUNPOU
 10
6453.505551
 20
1857.518159
 30
0.0
 11
6655.742905
 21
1857.518159
 31
0.0
  0
LINE
  8
SUNPOU
 10
6625.742905
 20
1757.518159
 30
0.0
 11
6625.742905
 21
1857.518159
 31
0.0
  0
INSERT
  8
SUNPOU
  2
ARROWANG
 10
6625.742905
 20
1757.518159
 30
0.0
 41
30.0
 42
30.0
 50
270.0
 43
30.0
  0
INSERT
  8
SUNPOU
  2
ARROWANG
 10
6625.742905
 20
1857.518159
 30
0.0
 41
30.0
 42
30.0
 50
90.0
 43
30.0
  0
TEXT
  8
SUNPOU
 10
6580.742905
 20
1717.518159
 30
0.0
 40
60.0
  1
100
 50
90.0
  7
K
 72
     1
 11
6580.742905
 21
1807.518159
 31
0.0
  0
CIRCLE
  8
HASEN
 10
6269.736611
 20
1357.518159
 30
0.0
 40
10.0
  0
LINE
  8
SUNPOU
 10
6453.505551
 20
1257.518159
 30
0.0
 11
6607.986535
 21
1257.518159
 31
0.0
  0
LINE
  8
SUNPOU
 10
6299.736611
 20
1357.518159
 30
0.0
 11
6607.986535
 21
1357.518159
 31
0.0
  0
LINE
  8
SUNPOU
 10
6577.986535
 20
1257.518159
 30
0.0
 11
6577.986535
 21
1357.518159
 31
0.0
  0
INSERT
  8
SUNPOU
  2
ARROWANG
 10
6577.986535
 20
1257.518159
 30
0.0
 41
30.0
 42
30.0
 50
270.0
 43
30.0
  0
INSERT
  8
SUNPOU
  2
ARROWANG
 10
6577.986535
 20
1357.518159
 30
0.0
 41
30.0
 42
30.0
 50
90.0
 43
30.0
  0
TEXT
  8
SUNPOU
 10
6532.986535
 20
1217.518159
 30
0.0
 40
60.0
  1
100
 50
90.0
  7
K
 72
     1
 11
6532.986535
 21
1307.518159
 31
0.0
  0
LINE
  8
SUNPOU
 10
5493.505551
 20
1257.518159
 30
0.0
 11
5297.461865
 21
1257.518159
 31
0.0
  0
LINE
  8
SUNPOU
 10
5493.505551
 20
1857.518159
 30
0.0
 11
5297.461865
 21
1857.518159
 31
0.0
  0
LINE
  8
SUNPOU
 10
5327.461865
 20
1257.518159
 30
0.0
 11
5327.461865
 21
1857.518159
 31
0.0
  0
INSERT
  8
SUNPOU
  2
ARROWANG
 10
5327.461865
 20
1257.518159
 30
0.0
 41
30.0
 42
30.0
 50
270.0
 43
30.0
  0
INSERT
  8
SUNPOU
  2
ARROWANG
 10
5327.461865
 20
1857.518159
 30
0.0
 41
30.0
 42
30.0
 50
90.0
 43
30.0
  0
TEXT
  8
SUNPOU
 10
5282.461865
 20
1470.375302
 30
0.0
 40
60.0
  1
600
 50
90.0
  7
K
 72
     1
 11
5282.461865
 21
1557.518159
 31
0.0
  0
TEXT
  8
SAISEN
 10
9155.72797
 20
556.509797
 30
0.0
 40
125.0
  1
1/25
  7
K
  0
POLYLINE
  8
WAKU
 66
     1
 10
0.0
 20
0.0
 30
0.0
 70
     1
  0
VERTEX
  8
WAKU
 10
0.0
 20
0.0
 30
0.0
  0
VERTEX
  8
WAKU
 10
9875.0
 20
0.0
 30
0.0
  0
VERTEX
  8
WAKU
 10
9875.0
 20
6825.0
 30
0.0
  0
VERTEX
  8
WAKU
 10
0.0
 20
6825.0
 30
0.0
  0
SEQEND
  8
WAKU
  0
ENDSEC
  0
EOF
