  0
SECTION
  2
HEADER
  9
$ACADVER
  1
AC1009
  9
$INSBASE
 10
0.0
 20
0.0
 30
0.0
  9
$EXTMIN
 10
0.0
 20
0.0
 30
0.0
  9
$EXTMAX
 10
11850.0
 20
8190.0
 30
0.0
  9
$LIMMIN
 10
0.0
 20
0.0
  9
$LIMMAX
 10
11850.0
 20
8190.0
  9
$ORTHOMODE
 70
     0
  9
$REGENMODE
 70
     1
  9
$FILLMODE
 70
     1
  9
$QTEXTMODE
 70
     0
  9
$MIRRTEXT
 70
     0
  9
$DRAGMODE
 70
     2
  9
$LTSCALE
 40
150.0
  9
$OSMODE
 70
    33
  9
$ATTMODE
 70
     1
  9
$TEXTSIZE
 40
60.0
  9
$TRACEWID
 40
0.05
  9
$TEXTSTYLE
  7
K
  9
$CLAYER
  8
SUNPOU
  9
$CELTYPE
  6
BYLAYER
  9
$CECOLOR
 62
   256
  9
$DIMSCALE
 40
30.0
  9
$DIMASZ
 40
1.5
  9
$DIMEXO
 40
1.0
  9
$DIMDLI
 40
6.0
  9
$DIMRND
 40
0.0
  9
$DIMDLE
 40
0.0
  9
$DIMEXE
 40
1.0
  9
$DIMTP
 40
495.0
  9
$DIMTM
 40
0.0
  9
$DIMTXT
 40
3.0
  9
$DIMCEN
 40
0.0
  9
$DIMTSZ
 40
0.0
  9
$DIMTOL
 70
     0
  9
$DIMLIM
 70
     0
  9
$DIMTIH
 70
     0
  9
$DIMTOH
 70
     0
  9
$DIMSE1
 70
     0
  9
$DIMSE2
 70
     0
  9
$DIMTAD
 70
     1
  9
$DIMZIN
 70
     8
  9
$DIMBLK
  1

  9
$DIMASO
 70
     0
  9
$DIMSHO
 70
     0
  9
$DIMPOST
  1

  9
$DIMAPOST
  1

  9
$DIMALT
 70
     0
  9
$DIMALTD
 70
     2
  9
$DIMALTF
 40
25.4
  9
$DIMLFAC
 40
1.0
  9
$DIMTOFL
 70
     1
  9
$DIMTVP
 40
0.0
  9
$DIMTIX
 70
     1
  9
$DIMSOXD
 70
     0
  9
$DIMSAH
 70
     0
  9
$DIMBLK1
  1

  9
$DIMBLK2
  1

  9
$DIMSTYLE
  2
*UNNAMED
  9
$DIMCLRD
 70
     0
  9
$DIMCLRE
 70
     0
  9
$DIMCLRT
 70
     0
  9
$DIMTFAC
 40
1.0
  9
$DIMGAP
 40
0.09
  9
$LUNITS
 70
     2
  9
$LUPREC
 70
     2
  9
$AXISMODE
 70
     1
  9
$AXISUNIT
 10
100.0
 20
100.0
  9
$SKETCHINC
 40
0.1
  9
$FILLETRAD
 40
0.0
  9
$AUNITS
 70
     0
  9
$AUPREC
 70
     2
  9
$MENU
  1
d:stdgx5
  9
$ELEVATION
 40
0.0
  9
$PELEVATION
 40
0.0
  9
$THICKNESS
 40
0.0
  9
$LIMCHECK
 70
     0
  9
$BLIPMODE
 70
     1
  9
$CHAMFERA
 40
0.0
  9
$CHAMFERB
 40
0.0
  9
$SKPOLY
 70
     0
  9
$TDCREATE
 40
2450248.459525463
  9
$TDUPDATE
 40
2450248.486157407
  9
$TDINDWG
 40
0.0031597222
  9
$TDUSRTIMER
 40
0.0031597222
  9
$USRTIMER
 70
     1
  9
$ANGBASE
 50
0.0
  9
$ANGDIR
 70
     0
  9
$PDMODE
 70
     0
  9
$PDSIZE
 40
0.0
  9
$PLINEWID
 40
0.0
  9
$COORDS
 70
     2
  9
$SPLFRAME
 70
     0
  9
$SPLINETYPE
 70
     6
  9
$SPLINESEGS
 70
     8
  9
$ATTDIA
 70
     0
  9
$ATTREQ
 70
     1
  9
$HANDLING
 70
     0
  9
$HANDSEED
  5
0
  9
$SURFTAB1
 70
     6
  9
$SURFTAB2
 70
     6
  9
$SURFTYPE
 70
     6
  9
$SURFU
 70
     6
  9
$SURFV
 70
     6
  9
$UCSNAME
  2

  9
$UCSORG
 10
0.0
 20
0.0
 30
0.0
  9
$UCSXDIR
 10
1.0
 20
0.0
 30
0.0
  9
$UCSYDIR
 10
0.0
 20
1.0
 30
0.0
  9
$PUCSNAME
  2

  9
$PUCSORG
 10
0.0
 20
0.0
 30
0.0
  9
$PUCSXDIR
 10
1.0
 20
0.0
 30
0.0
  9
$PUCSYDIR
 10
0.0
 20
1.0
 30
0.0
  9
$USERI1
 70
     3
  9
$USERI2
 70
    33
  9
$USERI3
 70
     0
  9
$USERI4
 70
     1
  9
$USERI5
 70
     0
  9
$USERR1
 40
30.0
  9
$USERR2
 40
3.0
  9
$USERR3
 40
3.0
  9
$USERR4
 40
1.5
  9
$USERR5
 40
10.0
  9
$WORLDVIEW
 70
     1
  9
$SHADEDGE
 70
     3
  9
$SHADEDIF
 70
    70
  9
$TILEMODE
 70
     1
  9
$MAXACTVP
 70
    16
  9
$PINSBASE
 10
0.0
 20
0.0
 30
0.0
  9
$PLIMCHECK
 70
     0
  9
$PEXTMIN
 10
1.000000E+20
 20
1.000000E+20
 30
1.000000E+20
  9
$PEXTMAX
 10
-1.000000E+20
 20
-1.000000E+20
 30
-1.000000E+20
  9
$PLIMMIN
 10
0.0
 20
0.0
  9
$PLIMMAX
 10
12.0
 20
9.0
  9
$UNITMODE
 70
     0
  9
$VISRETAIN
 70
     0
  0
ENDSEC
  0
SECTION
  2
TABLES
  0
TABLE
  2
VPORT
 70
    10
  0
VPORT
  2
*ACTIVE
 70
     0
 10
0.0
 20
0.0
 11
1.0
 21
1.0
 12
6691.515737
 22
4095.0
 13
0.0
 23
0.0
 14
1.0
 24
1.0
 15
10.0
 25
10.0
 16
0.0
 26
0.0
 36
1.0
 17
0.0
 27
0.0
 37
0.0
 40
8190.0
 41
1.63407
 42
50.0
 43
0.0
 44
0.0
 50
0.0
 51
0.0
 71
     0
 72
   500
 73
     1
 74
     0
 75
     0
 76
     0
 77
     0
 78
     0
  0
VPORT
  2
2
 70
     0
 10
0.5
 20
0.0
 11
1.0
 21
1.0
 12
0.924031
 22
1.052651
 13
0.0
 23
0.0
 14
1.0
 24
1.0
 15
10.0
 25
10.0
 16
0.0
 26
0.0
 36
1.0
 17
0.0
 27
0.0
 37
0.0
 40
2.105302
 41
0.877814
 42
50.0
 43
0.0
 44
0.0
 50
0.0
 51
0.0
 71
     0
 72
   500
 73
     1
 74
     1
 75
     0
 76
     0
 77
     0
 78
     0
  0
VPORT
  2
2
 70
     0
 10
0.0
 20
0.0
 11
0.5
 21
1.0
 12
0.924031
 22
1.052651
 13
0.0
 23
0.0
 14
1.0
 24
1.0
 15
10.0
 25
10.0
 16
0.0
 26
0.0
 36
1.0
 17
0.0
 27
0.0
 37
0.0
 40
2.105302
 41
0.877814
 42
50.0
 43
0.0
 44
0.0
 50
0.0
 51
0.0
 71
     0
 72
   500
 73
     1
 74
     1
 75
     0
 76
     0
 77
     0
 78
     0
  0
VPORT
  2
3
 70
     0
 10
0.0
 20
0.5
 11
1.0
 21
1.0
 12
2.83217
 22
1.052651
 13
0.0
 23
0.0
 14
1.0
 24
1.0
 15
10.0
 25
10.0
 16
0.0
 26
0.0
 36
1.0
 17
0.0
 27
0.0
 37
0.0
 40
2.105302
 41
3.571429
 42
50.0
 43
0.0
 44
0.0
 50
0.0
 51
0.0
 71
     0
 72
   500
 73
     1
 74
     1
 75
     0
 76
     0
 77
     0
 78
     0
  0
VPORT
  2
3
 70
     0
 10
0.0
 20
0.0
 11
1.0
 21
0.5
 12
2.856742
 22
1.052651
 13
0.0
 23
0.0
 14
1.0
 24
1.0
 15
10.0
 25
10.0
 16
0.0
 26
0.0
 36
1.0
 17
0.0
 27
0.0
 37
0.0
 40
2.105302
 41
3.594771
 42
50.0
 43
0.0
 44
0.0
 50
0.0
 51
0.0
 71
     0
 72
   500
 73
     1
 74
     1
 75
     0
 76
     0
 77
     0
 78
     0
  0
VPORT
  2
4
 70
     0
 10
0.5
 20
0.0
 11
1.0
 21
0.5
 12
2.886858
 22
1.052651
 13
0.0
 23
0.0
 14
1.0
 24
1.0
 15
10.0
 25
10.0
 16
0.0
 26
0.0
 36
1.0
 17
0.0
 27
0.0
 37
0.0
 40
4.275207
 41
1.784314
 42
50.0
 43
0.0
 44
0.0
 50
0.0
 51
0.0
 71
     0
 72
   500
 73
     1
 74
     1
 75
     0
 76
     0
 77
     0
 78
     0
  0
VPORT
  2
4
 70
     0
 10
0.5
 20
0.5
 11
1.0
 21
1.0
 12
2.86209
 22
1.052651
 13
0.0
 23
0.0
 14
1.0
 24
1.0
 15
10.0
 25
10.0
 16
0.0
 26
0.0
 36
1.0
 17
0.0
 27
0.0
 37
0.0
 40
4.275207
 41
1.772727
 42
50.0
 43
0.0
 44
0.0
 50
0.0
 51
0.0
 71
     0
 72
   500
 73
     1
 74
     1
 75
     0
 76
     0
 77
     0
 78
     0
  0
VPORT
  2
4
 70
     0
 10
0.0
 20
0.5
 11
0.5
 21
1.0
 12
2.86209
 22
1.052651
 13
0.0
 23
0.0
 14
1.0
 24
1.0
 15
10.0
 25
10.0
 16
0.0
 26
0.0
 36
1.0
 17
0.0
 27
0.0
 37
0.0
 40
4.275207
 41
1.772727
 42
50.0
 43
0.0
 44
0.0
 50
0.0
 51
0.0
 71
     0
 72
   500
 73
     1
 74
     1
 75
     0
 76
     0
 77
     0
 78
     0
  0
VPORT
  2
4
 70
     0
 10
0.0
 20
0.0
 11
0.5
 21
0.5
 12
2.886858
 22
1.052651
 13
0.0
 23
0.0
 14
1.0
 24
1.0
 15
10.0
 25
10.0
 16
0.0
 26
0.0
 36
1.0
 17
0.0
 27
0.0
 37
0.0
 40
4.275207
 41
1.784314
 42
50.0
 43
0.0
 44
0.0
 50
0.0
 51
0.0
 71
     0
 72
   500
 73
     1
 74
     1
 75
     0
 76
     0
 77
     0
 78
     0
  0
ENDTAB
  0
TABLE
  2
LTYPE
 70
     5
  0
LTYPE
  2
CONTINUOUS
 70
    64
  3
実線
 72
    65
 73
     0
 40
0.0
  0
LTYPE
  2
DASHED
 70
    64
  3
__ __ __ __ __ __ __ __ __ __ __ __ __ __ __
 72
    65
 73
     2
 40
0.75
 49
0.5
 49
-0.25
  0
LTYPE
  2
CENTER
 70
    64
  3
____ _ ____ _ ____ _ ____ _ ____ _ ____ _ ____
 72
    65
 73
     4
 40
2.0
 49
1.25
 49
-0.25
 49
0.25
 49
-0.25
  0
LTYPE
  2
PHANTOM
 70
    64
  3
_____ _ _ _____ _ _ _____ _ _ _____ _ _ ____
 72
    65
 73
     6
 40
2.5
 49
1.25
 49
-0.25
 49
0.25
 49
-0.25
 49
0.25
 49
-0.25
  0
LTYPE
  2
HIDDEN
 70
    64
  3
_ _ _ _ _ _ _ _ _ _ _ _ _ _ _ _ _ _ _ _ _ _ _
 72
    65
 73
     2
 40
0.375
 49
0.25
 49
-0.125
  0
ENDTAB
  0
TABLE
  2
LAYER
 70
    14
  0
LAYER
  2
0
 70
    64
 62
     7
  6
CONTINUOUS
  0
LAYER
  2
HASEN
 70
    64
 62
     2
  6
DASHED
  0
LAYER
  2
ITTEN
 70
    64
 62
     1
  6
CENTER
  0
LAYER
  2
HATCH
 70
    64
 62
     4
  6
CONTINUOUS
  0
LAYER
  2
SUNPOU
 70
    64
 62
     3
  6
CONTINUOUS
  0
LAYER
  2
TEXT
 70
    64
 62
     3
  6
CONTINUOUS
  0
LAYER
  2
JISSEN
 70
    64
 62
     7
  6
CONTINUOUS
  0
LAYER
  2
WAKU
 70
    64
 62
    -5
  6
CONTINUOUS
  0
ENDTAB
  0
TABLE
  2
STYLE
 70
     2
  0
STYLE
  2
STANDARD
 70
     0
 40
0.0
 41
1.0
 50
0.0
 71
     0
 42
150.0
  3
ROMANS
  4
EXTFONT
  0
STYLE
  2
K
 70
    64
 40
0.0
 41
1.0
 50
0.0
 71
     0
 42
60.0
  3
ROMANS
  4
EXTFONT
  0
ENDTAB
  0
TABLE
  2
VIEW
 70
     0
  0
ENDTAB
  0
TABLE
  2
UCS
 70
     0
  0
ENDTAB
  0
TABLE
  2
APPID
 70
     1
  0
APPID
  2
ACAD
 70
    64
  0
ENDTAB
  0
TABLE
  2
DIMSTYLE
 70
     0
  0
ENDTAB
  0
ENDSEC
  0
SECTION
  2
BLOCKS
  0
BLOCK
  8
SUNPOU
  2
ARROWANG
 70
    64
 10
0.0
 20
0.0
 30
0.0
  3
ARROWANG
  0
LINE
  8
SUNPOU
 10
0.0
 20
0.0
 30
0.0
 11
-1.5
 21
0.401924
 31
0.0
  0
LINE
  8
SUNPOU
 10
0.0
 20
0.0
 30
0.0
 11
-1.5
 21
-0.401924
 31
0.0
  0
ENDBLK
  8
SUNPOU
  0
ENDSEC
  0
SECTION
  2
ENTITIES
  0
TEXT
  8
TEXT
 10
5876.128084
 20
6099.107306
 30
0.0
 40
100.0
  1
Ｍ１Ｂ１５０
  7
K
  0
TEXT
  8
TEXT
 10
3995.197372
 20
6096.433803
 30
0.0
 40
100.0
  1
Ｍ１Ｂ１８０
  7
K
  0
TEXT
  8
TEXT
 10
7757.896627
 20
6092.353964
 30
0.0
 40
100.0
  1
Ｍ１Ｂ１２０
  7
K
  0
TEXT
  8
TEXT
 10
5898.719394
 20
3576.782641
 30
0.0
 40
100.0
  1
Ｍ１Ｂ９０
  7
K
  0
TEXT
  8
TEXT
 10
7739.488188
 20
3562.960996
 30
0.0
 40
100.0
  1
Ｍ１Ｂ６０
  7
K
  0
TEXT
  8
TEXT
 10
5978.175906
 20
6390.130928
 30
0.0
 40
120.0
  1
管取付壁
  7
K
  0
TEXT
  8
JISSEN
 10
3172.447279
 20
7577.92834
 30
0.0
 40
300.0
  1
組立マンホール構造図（内径９００ｍｍ）
  7
K
  0
TEXT
  8
SUNPOU
 10
7736.888722
 20
2678.891281
 30
0.0
 40
60.0
  1
592
 50
90.0
  7
K
 72
     1
 11
7736.888722
 21
2764.605567
 31
0.0
  0
INSERT
  8
SUNPOU
  2
ARROWANG
 10
7781.888722
 20
3060.605567
 30
0.0
 41
30.0
 42
30.0
 50
90.0
 43
30.0
  0
INSERT
  8
SUNPOU
  2
ARROWANG
 10
7781.888722
 20
2468.605567
 30
0.0
 41
30.0
 42
30.0
 50
270.0
 43
30.0
  0
LINE
  8
SUNPOU
 10
7781.888722
 20
2468.605567
 30
0.0
 11
7781.888722
 21
3060.605567
 31
0.0
  0
LINE
  8
SUNPOU
 10
7751.888722
 20
3060.605567
 30
0.0
 11
7751.888722
 21
3060.605567
 31
0.0
  0
LINE
  8
SUNPOU
 10
7667.697056
 20
2468.605567
 30
0.0
 11
7811.888722
 21
2468.605567
 31
0.0
  0
TEXT
  8
SUNPOU
 10
7321.65337
 20
2696.46271
 30
0.0
 40
60.0
  1
600
 50
90.0
  7
K
 72
     1
 11
7321.65337
 21
2783.605567
 31
0.0
  0
INSERT
  8
SUNPOU
  2
ARROWANG
 10
7366.65337
 20
3083.605567
 30
0.0
 41
30.0
 42
30.0
 50
90.0
 43
30.0
  0
INSERT
  8
SUNPOU
  2
ARROWANG
 10
7366.65337
 20
2483.605567
 30
0.0
 41
30.0
 42
30.0
 50
270.0
 43
30.0
  0
LINE
  8
SUNPOU
 10
7366.65337
 20
2483.605567
 30
0.0
 11
7366.65337
 21
3083.605567
 31
0.0
  0
LINE
  8
SUNPOU
 10
7532.697056
 20
3083.605567
 30
0.0
 11
7336.65337
 21
3083.605567
 31
0.0
  0
LINE
  8
SUNPOU
 10
7532.697056
 20
2483.605567
 30
0.0
 11
7336.65337
 21
2483.605567
 31
0.0
  0
INSERT
  8
SUNPOU
  2
ARROWANG
 10
7781.888722
 20
3060.605567
 30
0.0
 41
30.0
 42
30.0
 50
90.0
 43
30.0
  0
LINE
  8
SUNPOU
 10
7751.888722
 20
3060.605567
 30
0.0
 11
7751.888722
 21
3060.605567
 31
0.0
  0
LINE
  8
SUNPOU
 10
7781.888722
 20
3083.605567
 30
0.0
 11
7781.888722
 21
3143.605567
 31
0.0
  0
TEXT
  8
SUNPOU
 10
7751.969681
 20
2929.798572
 30
0.0
 40
60.0
  1
23
 50
90.0
  7
K
  0
LINE
  8
SUNPOU
 10
7781.888722
 20
3083.605567
 30
0.0
 11
7781.888722
 21
3215.605567
 31
0.0
  0
INSERT
  8
SUNPOU
  2
ARROWANG
 10
7781.888722
 20
3083.605567
 30
0.0
 41
30.0
 42
30.0
 50
270.0
 43
30.0
  0
LINE
  8
SUNPOU
 10
7781.888722
 20
3083.605567
 30
0.0
 11
7781.888722
 21
3060.605567
 31
0.0
  0
LINE
  8
SUNPOU
 10
7667.697056
 20
3060.605567
 30
0.0
 11
7811.888722
 21
3060.605567
 31
0.0
  0
TEXT
  8
SUNPOU
 10
8722.178039
 20
2443.605567
 30
0.0
 40
60.0
  1
100
 50
90.0
  7
K
 72
     1
 11
8722.178039
 21
2533.605567
 31
0.0
  0
INSERT
  8
SUNPOU
  2
ARROWANG
 10
8767.178039
 20
2583.605567
 30
0.0
 41
30.0
 42
30.0
 50
90.0
 43
30.0
  0
INSERT
  8
SUNPOU
  2
ARROWANG
 10
8767.178039
 20
2483.605567
 30
0.0
 41
30.0
 42
30.0
 50
270.0
 43
30.0
  0
LINE
  8
SUNPOU
 10
8767.178039
 20
2483.605567
 30
0.0
 11
8767.178039
 21
2583.605567
 31
0.0
  0
LINE
  8
SUNPOU
 10
8488.928116
 20
2583.605567
 30
0.0
 11
8797.178039
 21
2583.605567
 31
0.0
  0
LINE
  8
SUNPOU
 10
8642.697056
 20
2483.605567
 30
0.0
 11
8797.178039
 21
2483.605567
 31
0.0
  0
CIRCLE
  8
HASEN
 10
8458.928116
 20
2583.605567
 30
0.0
 40
10.0
  0
TEXT
  8
SUNPOU
 10
8769.934409
 20
2943.605567
 30
0.0
 40
60.0
  1
100
 50
90.0
  7
K
 72
     1
 11
8769.934409
 21
3033.605567
 31
0.0
  0
INSERT
  8
SUNPOU
  2
ARROWANG
 10
8814.934409
 20
3083.605567
 30
0.0
 41
30.0
 42
30.0
 50
90.0
 43
30.0
  0
INSERT
  8
SUNPOU
  2
ARROWANG
 10
8814.934409
 20
2983.605567
 30
0.0
 41
30.0
 42
30.0
 50
270.0
 43
30.0
  0
LINE
  8
SUNPOU
 10
8814.934409
 20
2983.605567
 30
0.0
 11
8814.934409
 21
3083.605567
 31
0.0
  0
LINE
  8
SUNPOU
 10
8642.697056
 20
3083.605567
 30
0.0
 11
8844.934409
 21
3083.605567
 31
0.0
  0
LINE
  8
SUNPOU
 10
8488.928116
 20
2983.605567
 30
0.0
 11
8844.934409
 21
2983.605567
 31
0.0
  0
CIRCLE
  8
HASEN
 10
8458.928116
 20
2983.605567
 30
0.0
 40
10.0
  0
TEXT
  8
SUNPOU
 10
8633.99491
 20
3220.383629
 30
0.0
 40
60.0
  1
75
  7
K
  0
LINE
  8
SUNPOU
 10
8612.697056
 20
3178.972716
 30
0.0
 11
8744.697056
 21
3178.972716
 31
0.0
  0
INSERT
  8
SUNPOU
  2
ARROWANG
 10
8537.697056
 20
3178.972716
 30
0.0
 41
30.0
 42
30.0
 50
180.0
 43
30.0
  0
INSERT
  8
SUNPOU
  2
ARROWANG
 10
8612.697056
 20
3178.972716
 30
0.0
 41
30.0
 42
30.0
 43
30.0
  0
LINE
  8
SUNPOU
 10
8612.697056
 20
3113.605567
 30
0.0
 11
8612.697056
 21
3208.972716
 31
0.0
  0
LINE
  8
SUNPOU
 10
8537.697056
 20
3178.972716
 30
0.0
 11
8612.697056
 21
3178.972716
 31
0.0
  0
TEXT
  8
SUNPOU
 10
8001.98277
 20
3223.972716
 30
0.0
 40
60.0
  1
900
  7
K
 72
     1
 11
8087.697056
 21
3223.972716
 31
0.0
  0
INSERT
  8
SUNPOU
  2
ARROWANG
 10
8537.697056
 20
3178.972716
 30
0.0
 41
30.0
 42
30.0
 43
30.0
  0
INSERT
  8
SUNPOU
  2
ARROWANG
 10
7637.697056
 20
3178.972716
 30
0.0
 41
30.0
 42
30.0
 50
180.0
 43
30.0
  0
LINE
  8
SUNPOU
 10
8537.697056
 20
3090.605567
 30
0.0
 11
8537.697056
 21
3208.972716
 31
0.0
  0
LINE
  8
SUNPOU
 10
7637.697056
 20
3178.972716
 30
0.0
 11
8537.697056
 21
3178.972716
 31
0.0
  0
TEXT
  8
SUNPOU
 10
7439.554199
 20
3223.972716
 30
0.0
 40
60.0
  1
75
  7
K
 72
     1
 11
7496.697056
 21
3223.972716
 31
0.0
  0
INSERT
  8
SUNPOU
  2
ARROWANG
 10
7562.697056
 20
3178.972716
 30
0.0
 41
30.0
 42
30.0
 50
180.0
 43
30.0
  0
INSERT
  8
SUNPOU
  2
ARROWANG
 10
7637.697056
 20
3178.972716
 30
0.0
 41
30.0
 42
30.0
 43
30.0
  0
LINE
  8
SUNPOU
 10
7562.697056
 20
3178.972716
 30
0.0
 11
7637.697056
 21
3178.972716
 31
0.0
  0
LINE
  8
SUNPOU
 10
7637.697056
 20
3090.605567
 30
0.0
 11
7637.697056
 21
3208.972716
 31
0.0
  0
LINE
  8
SUNPOU
 10
7562.697056
 20
3113.605567
 30
0.0
 11
7562.697056
 21
3208.972716
 31
0.0
  0
TEXT
  8
SUNPOU
 10
7969.125642
 20
3357.281633
 30
0.0
 40
60.0
  1
1050
  7
K
 72
     1
 11
8087.697071
 21
3357.281633
 31
0.0
  0
INSERT
  8
SUNPOU
  2
ARROWANG
 10
8612.697056
 20
3312.281633
 30
0.0
 41
30.0
 42
30.0
 43
30.0
  0
INSERT
  8
SUNPOU
  2
ARROWANG
 10
7562.697056
 20
3312.281633
 30
0.0
 41
30.0
 42
30.0
 50
180.0
 43
30.0
  0
LINE
  8
SUNPOU
 10
7562.697056
 20
3312.281633
 30
0.0
 11
8612.697056
 21
3312.281633
 31
0.0
  0
LINE
  8
SUNPOU
 10
8612.697056
 20
3113.605567
 30
0.0
 11
8612.697056
 21
3342.281633
 31
0.0
  0
LINE
  8
SUNPOU
 10
7562.697056
 20
3113.605567
 30
0.0
 11
7562.697056
 21
3342.281633
 31
0.0
  0
ARC
  8
HASEN
 10
8087.697056
 20
2763.605567
 30
0.0
 40
183.0
 50
270.0
 51
90.0
  0
ARC
  8
JISSEN
 10
8087.697056
 20
2763.605567
 30
0.0
 40
183.0
 50
90.0
 51
270.0
  0
LINE
  8
ITTEN
 10
7854.697056
 20
2763.605567
 30
0.0
 11
8320.697056
 21
2763.605567
 31
0.0
  0
LINE
  8
HASEN
 10
8537.697056
 20
3060.605567
 30
0.0
 11
8537.697056
 21
2468.605567
 31
0.0
  0
LINE
  8
JISSEN
 10
8087.697056
 20
2483.605567
 30
0.0
 11
8571.697056
 21
2483.605567
 31
0.0
  0
LINE
  8
JISSEN
 10
8562.697056
 20
2468.605567
 30
0.0
 11
8087.697056
 21
2468.605567
 31
0.0
  0
LINE
  8
JISSEN
 10
8571.697056
 20
2483.605567
 30
0.0
 11
8562.697056
 21
2468.605567
 31
0.0
  0
LINE
  8
JISSEN
 10
8612.697056
 20
2483.605567
 30
0.0
 11
8571.697056
 21
2483.605567
 31
0.0
  0
LINE
  8
JISSEN
 10
7612.697056
 20
2468.605567
 30
0.0
 11
8087.697056
 21
2468.605567
 31
0.0
  0
LINE
  8
JISSEN
 10
7603.697056
 20
2483.605567
 30
0.0
 11
7612.697056
 21
2468.605567
 31
0.0
  0
LINE
  8
JISSEN
 10
7562.697056
 20
2483.605567
 30
0.0
 11
7603.697056
 21
2483.605567
 31
0.0
  0
LINE
  8
HASEN
 10
8565.697056
 20
3060.605567
 30
0.0
 11
8087.697056
 21
3060.605567
 31
0.0
  0
LINE
  8
HASEN
 10
8572.697056
 20
3083.605567
 30
0.0
 11
8565.697056
 21
3060.605567
 31
0.0
  0
LINE
  8
JISSEN
 10
7609.697056
 20
3060.605567
 30
0.0
 11
8087.697056
 21
3060.605567
 31
0.0
  0
LINE
  8
JISSEN
 10
7602.697056
 20
3083.605567
 30
0.0
 11
7609.697056
 21
3060.605567
 31
0.0
  0
LINE
  8
JISSEN
 10
7637.697056
 20
3060.605567
 30
0.0
 11
7637.697056
 21
2468.605567
 31
0.0
  0
LINE
  8
JISSEN
 10
7562.697056
 20
3083.605567
 30
0.0
 11
7562.697056
 21
2483.605567
 31
0.0
  0
LINE
  8
JISSEN
 10
8612.697056
 20
3083.605567
 30
0.0
 11
8612.697056
 21
2483.605567
 31
0.0
  0
LINE
  8
JISSEN
 10
7562.697056
 20
3083.605567
 30
0.0
 11
8612.697056
 21
3083.605567
 31
0.0
  0
LINE
  8
ITTEN
 10
8087.697056
 20
3133.605567
 30
0.0
 11
8087.697056
 21
2418.605567
 31
0.0
  0
LINE
  8
SUNPOU
 10
7751.888722
 20
3060.605567
 30
0.0
 11
7751.888722
 21
3060.605567
 31
0.0
  0
LINE
  8
SUNPOU
 10
7751.888722
 20
3060.605567
 30
0.0
 11
7751.888722
 21
3060.605567
 31
0.0
  0
INSERT
  8
SUNPOU
  2
ARROWANG
 10
7781.888722
 20
3060.605567
 30
0.0
 41
30.0
 42
30.0
 50
90.0
 43
30.0
  0
TEXT
  8
SUNPOU
 10
5876.888722
 20
2528.891281
 30
0.0
 40
60.0
  1
892
 50
90.0
  7
K
 72
     1
 11
5876.888722
 21
2614.605567
 31
0.0
  0
INSERT
  8
SUNPOU
  2
ARROWANG
 10
5921.888722
 20
3060.605567
 30
0.0
 41
30.0
 42
30.0
 50
90.0
 43
30.0
  0
INSERT
  8
SUNPOU
  2
ARROWANG
 10
5921.888722
 20
2168.605567
 30
0.0
 41
30.0
 42
30.0
 50
270.0
 43
30.0
  0
LINE
  8
SUNPOU
 10
5921.888722
 20
2168.605567
 30
0.0
 11
5921.888722
 21
3060.605567
 31
0.0
  0
LINE
  8
SUNPOU
 10
5891.888722
 20
3060.605567
 30
0.0
 11
5891.888722
 21
3060.605567
 31
0.0
  0
LINE
  8
SUNPOU
 10
5807.697056
 20
2168.605567
 30
0.0
 11
5951.888722
 21
2168.605567
 31
0.0
  0
TEXT
  8
SUNPOU
 10
5423.074233
 20
2547.891281
 30
0.0
 40
60.0
  1
900
 50
90.0
  7
K
 72
     1
 11
5423.074233
 21
2633.605567
 31
0.0
  0
INSERT
  8
SUNPOU
  2
ARROWANG
 10
5468.074233
 20
3083.605567
 30
0.0
 41
30.0
 42
30.0
 50
90.0
 43
30.0
  0
INSERT
  8
SUNPOU
  2
ARROWANG
 10
5468.074233
 20
2183.605567
 30
0.0
 41
30.0
 42
30.0
 50
270.0
 43
30.0
  0
LINE
  8
SUNPOU
 10
5468.074233
 20
2183.605567
 30
0.0
 11
5468.074233
 21
3083.605567
 31
0.0
  0
LINE
  8
SUNPOU
 10
5672.697056
 20
3083.605567
 30
0.0
 11
5438.074233
 21
3083.605567
 31
0.0
  0
LINE
  8
SUNPOU
 10
5672.697056
 20
2183.605567
 30
0.0
 11
5438.074233
 21
2183.605567
 31
0.0
  0
LINE
  8
SUNPOU
 10
5891.888722
 20
3060.605567
 30
0.0
 11
5891.888722
 21
3060.605567
 31
0.0
  0
LINE
  8
ITTEN
 10
6227.697056
 20
3133.605567
 30
0.0
 11
6227.697056
 21
2118.605567
 31
0.0
  0
LINE
  8
JISSEN
 10
5702.697056
 20
3083.605567
 30
0.0
 11
6752.697056
 21
3083.605567
 31
0.0
  0
LINE
  8
JISSEN
 10
6752.697056
 20
3083.605567
 30
0.0
 11
6752.697056
 21
2183.605567
 31
0.0
  0
LINE
  8
JISSEN
 10
5702.697056
 20
3083.605567
 30
0.0
 11
5702.697056
 21
2183.605567
 31
0.0
  0
LINE
  8
JISSEN
 10
5777.697056
 20
3060.605567
 30
0.0
 11
5777.697056
 21
2168.605567
 31
0.0
  0
LINE
  8
JISSEN
 10
5742.697056
 20
3083.605567
 30
0.0
 11
5749.697056
 21
3060.605567
 31
0.0
  0
LINE
  8
JISSEN
 10
5749.697056
 20
3060.605567
 30
0.0
 11
6227.697056
 21
3060.605567
 31
0.0
  0
LINE
  8
HASEN
 10
6712.697056
 20
3083.605567
 30
0.0
 11
6705.697056
 21
3060.605567
 31
0.0
  0
LINE
  8
HASEN
 10
6705.697056
 20
3060.605567
 30
0.0
 11
6227.697056
 21
3060.605567
 31
0.0
  0
LINE
  8
JISSEN
 10
5702.697056
 20
2183.605567
 30
0.0
 11
5743.697056
 21
2183.605567
 31
0.0
  0
LINE
  8
JISSEN
 10
5743.697056
 20
2183.605567
 30
0.0
 11
5752.697056
 21
2168.605567
 31
0.0
  0
LINE
  8
JISSEN
 10
5752.697056
 20
2168.605567
 30
0.0
 11
6227.697056
 21
2168.605567
 31
0.0
  0
LINE
  8
JISSEN
 10
6752.697056
 20
2183.605567
 30
0.0
 11
6711.697056
 21
2183.605567
 31
0.0
  0
LINE
  8
JISSEN
 10
6711.697056
 20
2183.605567
 30
0.0
 11
6702.697056
 21
2168.605567
 31
0.0
  0
LINE
  8
JISSEN
 10
6702.697056
 20
2168.605567
 30
0.0
 11
6227.697056
 21
2168.605567
 31
0.0
  0
LINE
  8
JISSEN
 10
6227.697056
 20
2183.605567
 30
0.0
 11
6711.697056
 21
2183.605567
 31
0.0
  0
LINE
  8
HASEN
 10
6677.697056
 20
3060.605567
 30
0.0
 11
6677.697056
 21
2168.605567
 31
0.0
  0
LINE
  8
ITTEN
 10
6027.697056
 20
2918.605567
 30
0.0
 11
6427.697056
 21
2918.605567
 31
0.0
  0
ARC
  8
JISSEN
 10
6087.697056
 20
2918.605567
 30
0.0
 40
10.0
 50
90.0
 51
270.0
  0
LINE
  8
JISSEN
 10
6087.697056
 20
2928.605567
 30
0.0
 11
6227.697056
 21
2928.605567
 31
0.0
  0
LINE
  8
JISSEN
 10
6087.697056
 20
2908.605567
 30
0.0
 11
6227.697056
 21
2908.605567
 31
0.0
  0
LINE
  8
HASEN
 10
6367.697056
 20
2928.605567
 30
0.0
 11
6227.697056
 21
2928.605567
 31
0.0
  0
LINE
  8
HASEN
 10
6367.697056
 20
2908.605567
 30
0.0
 11
6227.697056
 21
2908.605567
 31
0.0
  0
ARC
  8
HASEN
 10
6367.697056
 20
2918.605567
 30
0.0
 40
10.0
 50
270.0
 51
90.0
  0
LINE
  8
ITTEN
 10
5994.697056
 20
2463.605567
 30
0.0
 11
6460.697056
 21
2463.605567
 31
0.0
  0
ARC
  8
JISSEN
 10
6227.697056
 20
2463.605567
 30
0.0
 40
183.0
 50
90.0
 51
270.0
  0
ARC
  8
HASEN
 10
6227.697056
 20
2463.605567
 30
0.0
 40
183.0
 50
270.0
 51
90.0
  0
LINE
  8
SUNPOU
 10
5702.697056
 20
3113.605567
 30
0.0
 11
5702.697056
 21
3342.281633
 31
0.0
  0
LINE
  8
SUNPOU
 10
6752.697056
 20
3113.605567
 30
0.0
 11
6752.697056
 21
3342.281633
 31
0.0
  0
LINE
  8
SUNPOU
 10
5702.697056
 20
3312.281633
 30
0.0
 11
6752.697056
 21
3312.281633
 31
0.0
  0
INSERT
  8
SUNPOU
  2
ARROWANG
 10
5702.697056
 20
3312.281633
 30
0.0
 41
30.0
 42
30.0
 50
180.0
 43
30.0
  0
INSERT
  8
SUNPOU
  2
ARROWANG
 10
6752.697056
 20
3312.281633
 30
0.0
 41
30.0
 42
30.0
 43
30.0
  0
TEXT
  8
SUNPOU
 10
6109.125642
 20
3357.281633
 30
0.0
 40
60.0
  1
1050
  7
K
 72
     1
 11
6227.697071
 21
3357.281633
 31
0.0
  0
LINE
  8
SUNPOU
 10
5702.697056
 20
3113.605567
 30
0.0
 11
5702.697056
 21
3208.972716
 31
0.0
  0
LINE
  8
SUNPOU
 10
5777.697056
 20
3090.605567
 30
0.0
 11
5777.697056
 21
3208.972716
 31
0.0
  0
LINE
  8
SUNPOU
 10
5702.697056
 20
3178.972716
 30
0.0
 11
5777.697056
 21
3178.972716
 31
0.0
  0
INSERT
  8
SUNPOU
  2
ARROWANG
 10
5777.697056
 20
3178.972716
 30
0.0
 41
30.0
 42
30.0
 43
30.0
  0
INSERT
  8
SUNPOU
  2
ARROWANG
 10
5702.697056
 20
3178.972716
 30
0.0
 41
30.0
 42
30.0
 50
180.0
 43
30.0
  0
TEXT
  8
SUNPOU
 10
5579.554199
 20
3223.972716
 30
0.0
 40
60.0
  1
75
  7
K
 72
     1
 11
5636.697056
 21
3223.972716
 31
0.0
  0
LINE
  8
SUNPOU
 10
5777.697056
 20
3178.972716
 30
0.0
 11
6677.697056
 21
3178.972716
 31
0.0
  0
LINE
  8
SUNPOU
 10
6677.697056
 20
3090.605567
 30
0.0
 11
6677.697056
 21
3208.972716
 31
0.0
  0
INSERT
  8
SUNPOU
  2
ARROWANG
 10
5777.697056
 20
3178.972716
 30
0.0
 41
30.0
 42
30.0
 50
180.0
 43
30.0
  0
INSERT
  8
SUNPOU
  2
ARROWANG
 10
6677.697056
 20
3178.972716
 30
0.0
 41
30.0
 42
30.0
 43
30.0
  0
TEXT
  8
SUNPOU
 10
6141.98277
 20
3223.972716
 30
0.0
 40
60.0
  1
900
  7
K
 72
     1
 11
6227.697056
 21
3223.972716
 31
0.0
  0
LINE
  8
SUNPOU
 10
6677.697056
 20
3178.972716
 30
0.0
 11
6752.697056
 21
3178.972716
 31
0.0
  0
LINE
  8
SUNPOU
 10
6752.697056
 20
3113.605567
 30
0.0
 11
6752.697056
 21
3208.972716
 31
0.0
  0
INSERT
  8
SUNPOU
  2
ARROWANG
 10
6752.697056
 20
3178.972716
 30
0.0
 41
30.0
 42
30.0
 43
30.0
  0
INSERT
  8
SUNPOU
  2
ARROWANG
 10
6677.697056
 20
3178.972716
 30
0.0
 41
30.0
 42
30.0
 50
180.0
 43
30.0
  0
LINE
  8
SUNPOU
 10
6752.697056
 20
3178.972716
 30
0.0
 11
6884.697056
 21
3178.972716
 31
0.0
  0
TEXT
  8
SUNPOU
 10
6773.99491
 20
3220.383629
 30
0.0
 40
60.0
  1
75
  7
K
  0
CIRCLE
  8
HASEN
 10
6598.928116
 20
2983.605567
 30
0.0
 40
10.0
  0
LINE
  8
SUNPOU
 10
6628.928116
 20
2983.605567
 30
0.0
 11
6984.934409
 21
2983.605567
 31
0.0
  0
LINE
  8
SUNPOU
 10
6782.697056
 20
3083.605567
 30
0.0
 11
6984.934409
 21
3083.605567
 31
0.0
  0
LINE
  8
SUNPOU
 10
6954.934409
 20
2983.605567
 30
0.0
 11
6954.934409
 21
3083.605567
 31
0.0
  0
INSERT
  8
SUNPOU
  2
ARROWANG
 10
6954.934409
 20
2983.605567
 30
0.0
 41
30.0
 42
30.0
 50
270.0
 43
30.0
  0
INSERT
  8
SUNPOU
  2
ARROWANG
 10
6954.934409
 20
3083.605567
 30
0.0
 41
30.0
 42
30.0
 50
90.0
 43
30.0
  0
TEXT
  8
SUNPOU
 10
6909.934409
 20
2943.605567
 30
0.0
 40
60.0
  1
100
 50
90.0
  7
K
 72
     1
 11
6909.934409
 21
3033.605567
 31
0.0
  0
CIRCLE
  8
HASEN
 10
6598.928116
 20
2283.605567
 30
0.0
 40
10.0
  0
LINE
  8
SUNPOU
 10
6782.697056
 20
2183.605567
 30
0.0
 11
6937.178039
 21
2183.605567
 31
0.0
  0
LINE
  8
SUNPOU
 10
6628.928116
 20
2283.605567
 30
0.0
 11
6937.178039
 21
2283.605567
 31
0.0
  0
LINE
  8
SUNPOU
 10
6907.178039
 20
2183.605567
 30
0.0
 11
6907.178039
 21
2283.605567
 31
0.0
  0
INSERT
  8
SUNPOU
  2
ARROWANG
 10
6907.178039
 20
2183.605567
 30
0.0
 41
30.0
 42
30.0
 50
270.0
 43
30.0
  0
INSERT
  8
SUNPOU
  2
ARROWANG
 10
6907.178039
 20
2283.605567
 30
0.0
 41
30.0
 42
30.0
 50
90.0
 43
30.0
  0
TEXT
  8
SUNPOU
 10
6862.178039
 20
2143.605567
 30
0.0
 40
60.0
  1
100
 50
90.0
  7
K
 72
     1
 11
6862.178039
 21
2233.605567
 31
0.0
  0
LINE
  8
SUNPOU
 10
5807.697056
 20
3060.605567
 30
0.0
 11
5951.888722
 21
3060.605567
 31
0.0
  0
LINE
  8
SUNPOU
 10
5921.888722
 20
3083.605567
 30
0.0
 11
5921.888722
 21
3060.605567
 31
0.0
  0
INSERT
  8
SUNPOU
  2
ARROWANG
 10
5921.888722
 20
3083.605567
 30
0.0
 41
30.0
 42
30.0
 50
270.0
 43
30.0
  0
LINE
  8
SUNPOU
 10
5921.888722
 20
3083.605567
 30
0.0
 11
5921.888722
 21
3215.605567
 31
0.0
  0
TEXT
  8
SUNPOU
 10
5891.969681
 20
2929.798572
 30
0.0
 40
60.0
  1
23
 50
90.0
  7
K
  0
LINE
  8
SUNPOU
 10
5921.888722
 20
3083.605567
 30
0.0
 11
5921.888722
 21
3143.605567
 31
0.0
  0
LINE
  8
SUNPOU
 10
6257.697056
 20
2168.605567
 30
0.0
 11
6576.910687
 21
2168.605567
 31
0.0
  0
INSERT
  8
SUNPOU
  2
ARROWANG
 10
6546.910687
 20
2168.605567
 30
0.0
 41
30.0
 42
30.0
 50
270.0
 43
30.0
  0
TEXT
  8
SUNPOU
 10
6491.856714
 20
2480.909043
 30
0.0
 40
60.0
  1
750
 50
90.0
  7
K
 72
     1
 11
6491.856714
 21
2566.623329
 31
0.0
  0
LINE
  8
SUNPOU
 10
6546.910687
 20
2168.605567
 30
0.0
 11
6546.910687
 21
2918.605567
 31
0.0
  0
INSERT
  8
SUNPOU
  2
ARROWANG
 10
6546.910687
 20
2918.605567
 30
0.0
 41
30.0
 42
30.0
 50
90.0
 43
30.0
  0
LINE
  8
SUNPOU
 10
6407.697056
 20
2918.605567
 30
0.0
 11
6576.910687
 21
2918.605567
 31
0.0
  0
LINE
  8
SUNPOU
 10
5807.697056
 20
2168.605567
 30
0.0
 11
5951.888722
 21
2168.605567
 31
0.0
  0
LINE
  8
SUNPOU
 10
5891.888722
 20
3060.605567
 30
0.0
 11
5891.888722
 21
3060.605567
 31
0.0
  0
INSERT
  8
SUNPOU
  2
ARROWANG
 10
5921.888722
 20
3060.605567
 30
0.0
 41
30.0
 42
30.0
 50
90.0
 43
30.0
  0
TEXT
  8
SUNPOU
 10
7736.888722
 20
4868.805609
 30
0.0
 40
60.0
  1
1192
 50
90.0
  7
K
 72
     1
 11
7736.888722
 21
4987.377037
 31
0.0
  0
INSERT
  8
SUNPOU
  2
ARROWANG
 10
7781.888722
 20
5583.377037
 30
0.0
 41
30.0
 42
30.0
 50
90.0
 43
30.0
  0
INSERT
  8
SUNPOU
  2
ARROWANG
 10
7781.888722
 20
4391.377037
 30
0.0
 41
30.0
 42
30.0
 50
270.0
 43
30.0
  0
LINE
  8
SUNPOU
 10
7781.888722
 20
4391.377037
 30
0.0
 11
7781.888722
 21
5583.377037
 31
0.0
  0
LINE
  8
SUNPOU
 10
7751.888722
 20
5583.377037
 30
0.0
 11
7751.888722
 21
5583.377037
 31
0.0
  0
LINE
  8
SUNPOU
 10
7667.697056
 20
4391.377037
 30
0.0
 11
7811.888722
 21
4391.377037
 31
0.0
  0
LINE
  8
HASEN
 10
6712.697056
 20
5606.377037
 30
0.0
 11
6705.697056
 21
5583.377037
 31
0.0
  0
TEXT
  8
SUNPOU
 10
7304.035074
 20
4887.805609
 30
0.0
 40
60.0
  1
1200
 50
90.0
  7
K
 72
     1
 11
7304.035074
 21
5006.377037
 31
0.0
  0
INSERT
  8
SUNPOU
  2
ARROWANG
 10
7349.035074
 20
5606.377037
 30
0.0
 41
30.0
 42
30.0
 50
90.0
 43
30.0
  0
INSERT
  8
SUNPOU
  2
ARROWANG
 10
7349.035074
 20
4406.377037
 30
0.0
 41
30.0
 42
30.0
 50
270.0
 43
30.0
  0
LINE
  8
SUNPOU
 10
7349.035074
 20
4406.377037
 30
0.0
 11
7349.035074
 21
5606.377037
 31
0.0
  0
LINE
  8
SUNPOU
 10
7532.697056
 20
5606.377037
 30
0.0
 11
7319.035074
 21
5606.377037
 31
0.0
  0
LINE
  8
SUNPOU
 10
7532.697056
 20
4406.377037
 30
0.0
 11
7319.035074
 21
4406.377037
 31
0.0
  0
TEXT
  8
SUNPOU
 10
8361.910687
 20
5205.662751
 30
0.0
 40
60.0
  1
300
 50
90.0
  7
K
 72
     1
 11
8361.910687
 21
5291.377037
 31
0.0
  0
INSERT
  8
SUNPOU
  2
ARROWANG
 10
8406.910687
 20
5441.377037
 30
0.0
 41
30.0
 42
30.0
 50
90.0
 43
30.0
  0
INSERT
  8
SUNPOU
  2
ARROWANG
 10
8406.910687
 20
5141.377037
 30
0.0
 41
30.0
 42
30.0
 50
270.0
 43
30.0
  0
LINE
  8
SUNPOU
 10
8267.697056
 20
5441.377037
 30
0.0
 11
8436.910687
 21
5441.377037
 31
0.0
  0
LINE
  8
SUNPOU
 10
8406.910687
 20
5141.377037
 30
0.0
 11
8406.910687
 21
5441.377037
 31
0.0
  0
INSERT
  8
SUNPOU
  2
ARROWANG
 10
8406.910687
 20
5141.377037
 30
0.0
 41
30.0
 42
30.0
 50
90.0
 43
30.0
  0
LINE
  8
SUNPOU
 10
8267.697056
 20
5141.377037
 30
0.0
 11
8436.910687
 21
5141.377037
 31
0.0
  0
LINE
  8
SUNPOU
 10
8406.910687
 20
4391.377037
 30
0.0
 11
8406.910687
 21
5141.377037
 31
0.0
  0
TEXT
  8
SUNPOU
 10
8351.856714
 20
4703.680514
 30
0.0
 40
60.0
  1
750
 50
90.0
  7
K
 72
     1
 11
8351.856714
 21
4789.394799
 31
0.0
  0
INSERT
  8
SUNPOU
  2
ARROWANG
 10
8406.910687
 20
4391.377037
 30
0.0
 41
30.0
 42
30.0
 50
270.0
 43
30.0
  0
LINE
  8
SUNPOU
 10
8117.697056
 20
4391.377037
 30
0.0
 11
8436.910687
 21
4391.377037
 31
0.0
  0
LINE
  8
SUNPOU
 10
7781.888722
 20
5606.377037
 30
0.0
 11
7781.888722
 21
5666.377037
 31
0.0
  0
TEXT
  8
SUNPOU
 10
7751.969681
 20
5452.570042
 30
0.0
 40
60.0
  1
23
 50
90.0
  7
K
  0
LINE
  8
SUNPOU
 10
7781.888722
 20
5606.377037
 30
0.0
 11
7781.888722
 21
5738.377037
 31
0.0
  0
INSERT
  8
SUNPOU
  2
ARROWANG
 10
7781.888722
 20
5606.377037
 30
0.0
 41
30.0
 42
30.0
 50
270.0
 43
30.0
  0
LINE
  8
SUNPOU
 10
6743.447514
 20
5606.824173
 30
0.0
 11
6977.77991
 21
5606.824173
 31
0.0
  0
LINE
  8
SUNPOU
 10
7781.888722
 20
5606.377037
 30
0.0
 11
7781.888722
 21
5583.377037
 31
0.0
  0
LINE
  8
SUNPOU
 10
7667.697056
 20
5583.377037
 30
0.0
 11
7811.888722
 21
5583.377037
 31
0.0
  0
TEXT
  8
SUNPOU
 10
8722.178039
 20
4366.377037
 30
0.0
 40
60.0
  1
100
 50
90.0
  7
K
 72
     1
 11
8722.178039
 21
4456.377037
 31
0.0
  0
INSERT
  8
SUNPOU
  2
ARROWANG
 10
8767.178039
 20
4506.377037
 30
0.0
 41
30.0
 42
30.0
 50
90.0
 43
30.0
  0
INSERT
  8
SUNPOU
  2
ARROWANG
 10
8767.178039
 20
4406.377037
 30
0.0
 41
30.0
 42
30.0
 50
270.0
 43
30.0
  0
LINE
  8
SUNPOU
 10
8767.178039
 20
4406.377037
 30
0.0
 11
8767.178039
 21
4506.377037
 31
0.0
  0
LINE
  8
SUNPOU
 10
8488.928116
 20
4506.377037
 30
0.0
 11
8797.178039
 21
4506.377037
 31
0.0
  0
LINE
  8
SUNPOU
 10
8642.697056
 20
4406.377037
 30
0.0
 11
8797.178039
 21
4406.377037
 31
0.0
  0
CIRCLE
  8
HASEN
 10
8458.928116
 20
4506.377037
 30
0.0
 40
10.0
  0
TEXT
  8
SUNPOU
 10
8769.934409
 20
5466.377037
 30
0.0
 40
60.0
  1
100
 50
90.0
  7
K
 72
     1
 11
8769.934409
 21
5556.377037
 31
0.0
  0
INSERT
  8
SUNPOU
  2
ARROWANG
 10
8814.934409
 20
5606.377037
 30
0.0
 41
30.0
 42
30.0
 50
90.0
 43
30.0
  0
INSERT
  8
SUNPOU
  2
ARROWANG
 10
8814.934409
 20
5506.377037
 30
0.0
 41
30.0
 42
30.0
 50
270.0
 43
30.0
  0
LINE
  8
SUNPOU
 10
8814.934409
 20
5506.377037
 30
0.0
 11
8814.934409
 21
5606.377037
 31
0.0
  0
LINE
  8
SUNPOU
 10
8642.697056
 20
5606.377037
 30
0.0
 11
8844.934409
 21
5606.377037
 31
0.0
  0
LINE
  8
SUNPOU
 10
8488.928116
 20
5506.377037
 30
0.0
 11
8844.934409
 21
5506.377037
 31
0.0
  0
CIRCLE
  8
HASEN
 10
8458.928116
 20
5506.377037
 30
0.0
 40
10.0
  0
TEXT
  8
SUNPOU
 10
8633.99491
 20
5743.1551
 30
0.0
 40
60.0
  1
75
  7
K
  0
LINE
  8
SUNPOU
 10
8612.697056
 20
5701.744186
 30
0.0
 11
8744.697056
 21
5701.744186
 31
0.0
  0
INSERT
  8
SUNPOU
  2
ARROWANG
 10
8537.697056
 20
5701.744186
 30
0.0
 41
30.0
 42
30.0
 50
180.0
 43
30.0
  0
INSERT
  8
SUNPOU
  2
ARROWANG
 10
8612.697056
 20
5701.744186
 30
0.0
 41
30.0
 42
30.0
 43
30.0
  0
LINE
  8
SUNPOU
 10
8612.697056
 20
5636.377037
 30
0.0
 11
8612.697056
 21
5731.744186
 31
0.0
  0
LINE
  8
SUNPOU
 10
8537.697056
 20
5701.744186
 30
0.0
 11
8612.697056
 21
5701.744186
 31
0.0
  0
TEXT
  8
SUNPOU
 10
8001.98277
 20
5746.744186
 30
0.0
 40
60.0
  1
900
  7
K
 72
     1
 11
8087.697056
 21
5746.744186
 31
0.0
  0
INSERT
  8
SUNPOU
  2
ARROWANG
 10
8537.697056
 20
5701.744186
 30
0.0
 41
30.0
 42
30.0
 43
30.0
  0
INSERT
  8
SUNPOU
  2
ARROWANG
 10
7637.697056
 20
5701.744186
 30
0.0
 41
30.0
 42
30.0
 50
180.0
 43
30.0
  0
LINE
  8
SUNPOU
 10
8537.697056
 20
5613.377037
 30
0.0
 11
8537.697056
 21
5731.744186
 31
0.0
  0
LINE
  8
SUNPOU
 10
7637.697056
 20
5701.744186
 30
0.0
 11
8537.697056
 21
5701.744186
 31
0.0
  0
TEXT
  8
SUNPOU
 10
7439.554199
 20
5746.744186
 30
0.0
 40
60.0
  1
75
  7
K
 72
     1
 11
7496.697056
 21
5746.744186
 31
0.0
  0
LINE
  8
SUNPOU
 10
6512.697056
 20
5701.744186
 30
0.0
 11
6380.697056
 21
5701.744186
 31
0.0
  0
INSERT
  8
SUNPOU
  2
ARROWANG
 10
7562.697056
 20
5701.744186
 30
0.0
 41
30.0
 42
30.0
 50
180.0
 43
30.0
  0
INSERT
  8
SUNPOU
  2
ARROWANG
 10
7637.697056
 20
5701.744186
 30
0.0
 41
30.0
 42
30.0
 43
30.0
  0
LINE
  8
SUNPOU
 10
7562.697056
 20
5701.744186
 30
0.0
 11
7637.697056
 21
5701.744186
 31
0.0
  0
LINE
  8
SUNPOU
 10
7637.697056
 20
5613.377037
 30
0.0
 11
7637.697056
 21
5731.744186
 31
0.0
  0
LINE
  8
SUNPOU
 10
7562.697056
 20
5636.377037
 30
0.0
 11
7562.697056
 21
5731.744186
 31
0.0
  0
TEXT
  8
SUNPOU
 10
7969.125642
 20
5880.053104
 30
0.0
 40
60.0
  1
1050
  7
K
 72
     1
 11
8087.697071
 21
5880.053104
 31
0.0
  0
INSERT
  8
SUNPOU
  2
ARROWANG
 10
8612.697056
 20
5835.053104
 30
0.0
 41
30.0
 42
30.0
 43
30.0
  0
INSERT
  8
SUNPOU
  2
ARROWANG
 10
7562.697056
 20
5835.053104
 30
0.0
 41
30.0
 42
30.0
 50
180.0
 43
30.0
  0
LINE
  8
SUNPOU
 10
7562.697056
 20
5835.053104
 30
0.0
 11
8612.697056
 21
5835.053104
 31
0.0
  0
LINE
  8
SUNPOU
 10
8612.697056
 20
5636.377037
 30
0.0
 11
8612.697056
 21
5865.053104
 31
0.0
  0
LINE
  8
SUNPOU
 10
7562.697056
 20
5636.377037
 30
0.0
 11
7562.697056
 21
5865.053104
 31
0.0
  0
ARC
  8
HASEN
 10
8087.697056
 20
4686.377037
 30
0.0
 40
183.0
 50
270.0
 51
90.0
  0
ARC
  8
JISSEN
 10
8087.697056
 20
4686.377037
 30
0.0
 40
183.0
 50
90.0
 51
270.0
  0
LINE
  8
ITTEN
 10
7854.697056
 20
4686.377037
 30
0.0
 11
8320.697056
 21
4686.377037
 31
0.0
  0
LINE
  8
ITTEN
 10
7887.697056
 20
5141.377037
 30
0.0
 11
8287.697056
 21
5141.377037
 31
0.0
  0
ARC
  8
JISSEN
 10
7947.697056
 20
5141.377037
 30
0.0
 40
10.0
 50
90.0
 51
270.0
  0
LINE
  8
JISSEN
 10
7947.697056
 20
5151.377037
 30
0.0
 11
8087.697056
 21
5151.377037
 31
0.0
  0
LINE
  8
JISSEN
 10
7947.697056
 20
5131.377037
 30
0.0
 11
8087.697056
 21
5131.377037
 31
0.0
  0
LINE
  8
HASEN
 10
8227.697056
 20
5151.377037
 30
0.0
 11
8087.697056
 21
5151.377037
 31
0.0
  0
LINE
  8
HASEN
 10
8227.697056
 20
5131.377037
 30
0.0
 11
8087.697056
 21
5131.377037
 31
0.0
  0
ARC
  8
HASEN
 10
8227.697056
 20
5141.377037
 30
0.0
 40
10.0
 50
270.0
 51
90.0
  0
ARC
  8
HASEN
 10
8227.697056
 20
5441.377037
 30
0.0
 40
10.0
 50
270.0
 51
90.0
  0
LINE
  8
HASEN
 10
8227.697056
 20
5431.377037
 30
0.0
 11
8087.697056
 21
5431.377037
 31
0.0
  0
LINE
  8
HASEN
 10
8227.697056
 20
5451.377037
 30
0.0
 11
8087.697056
 21
5451.377037
 31
0.0
  0
LINE
  8
JISSEN
 10
7947.697056
 20
5431.377037
 30
0.0
 11
8087.697056
 21
5431.377037
 31
0.0
  0
LINE
  8
JISSEN
 10
7947.697056
 20
5451.377037
 30
0.0
 11
8087.697056
 21
5451.377037
 31
0.0
  0
ARC
  8
JISSEN
 10
7947.697056
 20
5441.377037
 30
0.0
 40
10.0
 50
90.0
 51
270.0
  0
LINE
  8
ITTEN
 10
7887.697056
 20
5441.377037
 30
0.0
 11
8287.697056
 21
5441.377037
 31
0.0
  0
LINE
  8
HASEN
 10
8537.697056
 20
5583.377037
 30
0.0
 11
8537.697056
 21
4391.377037
 31
0.0
  0
LINE
  8
JISSEN
 10
8087.697056
 20
4406.377037
 30
0.0
 11
8571.697056
 21
4406.377037
 31
0.0
  0
LINE
  8
JISSEN
 10
8562.697056
 20
4391.377037
 30
0.0
 11
8087.697056
 21
4391.377037
 31
0.0
  0
LINE
  8
JISSEN
 10
8571.697056
 20
4406.377037
 30
0.0
 11
8562.697056
 21
4391.377037
 31
0.0
  0
LINE
  8
JISSEN
 10
8612.697056
 20
4406.377037
 30
0.0
 11
8571.697056
 21
4406.377037
 31
0.0
  0
LINE
  8
JISSEN
 10
7612.697056
 20
4391.377037
 30
0.0
 11
8087.697056
 21
4391.377037
 31
0.0
  0
LINE
  8
JISSEN
 10
7603.697056
 20
4406.377037
 30
0.0
 11
7612.697056
 21
4391.377037
 31
0.0
  0
LINE
  8
JISSEN
 10
7562.697056
 20
4406.377037
 30
0.0
 11
7603.697056
 21
4406.377037
 31
0.0
  0
LINE
  8
HASEN
 10
8565.697056
 20
5583.377037
 30
0.0
 11
8087.697056
 21
5583.377037
 31
0.0
  0
LINE
  8
HASEN
 10
8572.697056
 20
5606.377037
 30
0.0
 11
8565.697056
 21
5583.377037
 31
0.0
  0
LINE
  8
JISSEN
 10
7609.697056
 20
5583.377037
 30
0.0
 11
8087.697056
 21
5583.377037
 31
0.0
  0
LINE
  8
JISSEN
 10
7602.697056
 20
5606.377037
 30
0.0
 11
7609.697056
 21
5583.377037
 31
0.0
  0
LINE
  8
JISSEN
 10
7637.697056
 20
5583.377037
 30
0.0
 11
7637.697056
 21
4391.377037
 31
0.0
  0
LINE
  8
JISSEN
 10
7562.697056
 20
5606.377037
 30
0.0
 11
7562.697056
 21
4406.377037
 31
0.0
  0
LINE
  8
JISSEN
 10
8612.697056
 20
5606.377037
 30
0.0
 11
8612.697056
 21
4406.377037
 31
0.0
  0
LINE
  8
JISSEN
 10
7562.697056
 20
5606.377037
 30
0.0
 11
8612.697056
 21
5606.377037
 31
0.0
  0
LINE
  8
ITTEN
 10
8087.697056
 20
5656.377037
 30
0.0
 11
8087.697056
 21
4341.377037
 31
0.0
  0
LINE
  8
SUNPOU
 10
7667.697056
 20
4391.377037
 30
0.0
 11
7811.888722
 21
4391.377037
 31
0.0
  0
LINE
  8
SUNPOU
 10
7751.888722
 20
5583.377037
 30
0.0
 11
7751.888722
 21
5583.377037
 31
0.0
  0
TEXT
  8
SUNPOU
 10
5876.888722
 20
4718.805609
 30
0.0
 40
60.0
  1
1492
 50
90.0
  7
K
 72
     1
 11
5876.888722
 21
4837.377037
 31
0.0
  0
INSERT
  8
SUNPOU
  2
ARROWANG
 10
5921.888722
 20
5583.377037
 30
0.0
 41
30.0
 42
30.0
 50
90.0
 43
30.0
  0
INSERT
  8
SUNPOU
  2
ARROWANG
 10
5921.888722
 20
4091.377037
 30
0.0
 41
30.0
 42
30.0
 50
270.0
 43
30.0
  0
LINE
  8
SUNPOU
 10
5921.888722
 20
4091.377037
 30
0.0
 11
5921.888722
 21
5583.377037
 31
0.0
  0
LINE
  8
SUNPOU
 10
5891.888722
 20
5583.377037
 30
0.0
 11
5891.888722
 21
5583.377037
 31
0.0
  0
LINE
  8
SUNPOU
 10
5807.697056
 20
4091.377037
 30
0.0
 11
5951.888722
 21
4091.377037
 31
0.0
  0
TEXT
  8
SUNPOU
 10
5393.526115
 20
4737.805609
 30
0.0
 40
60.0
  1
1500
 50
90.0
  7
K
 72
     1
 11
5393.526115
 21
4856.377037
 31
0.0
  0
INSERT
  8
SUNPOU
  2
ARROWANG
 10
5438.526115
 20
5606.377037
 30
0.0
 41
30.0
 42
30.0
 50
90.0
 43
30.0
  0
INSERT
  8
SUNPOU
  2
ARROWANG
 10
5438.526115
 20
4106.377037
 30
0.0
 41
30.0
 42
30.0
 50
270.0
 43
30.0
  0
LINE
  8
SUNPOU
 10
5438.526115
 20
4106.377037
 30
0.0
 11
5438.526115
 21
5606.377037
 31
0.0
  0
LINE
  8
SUNPOU
 10
5672.697056
 20
5606.377037
 30
0.0
 11
5408.526115
 21
5606.377037
 31
0.0
  0
LINE
  8
SUNPOU
 10
5573.67484
 20
4106.377037
 30
0.0
 11
5408.526115
 21
4106.377037
 31
0.0
  0
LINE
  8
ITTEN
 10
6227.697056
 20
5656.377037
 30
0.0
 11
6227.697056
 21
4041.377037
 31
0.0
  0
LINE
  8
JISSEN
 10
5702.697056
 20
5606.377037
 30
0.0
 11
6752.697056
 21
5606.377037
 31
0.0
  0
LINE
  8
JISSEN
 10
6752.697056
 20
5606.377037
 30
0.0
 11
6752.697056
 21
4106.377037
 31
0.0
  0
LINE
  8
JISSEN
 10
5702.697056
 20
5606.377037
 30
0.0
 11
5702.697056
 21
4106.377037
 31
0.0
  0
LINE
  8
JISSEN
 10
5777.697056
 20
5583.377037
 30
0.0
 11
5777.697056
 21
4091.377037
 31
0.0
  0
LINE
  8
JISSEN
 10
5742.697056
 20
5606.377037
 30
0.0
 11
5749.697056
 21
5583.377037
 31
0.0
  0
LINE
  8
JISSEN
 10
5749.697056
 20
5583.377037
 30
0.0
 11
6227.697056
 21
5583.377037
 31
0.0
  0
LINE
  8
HASEN
 10
6705.697056
 20
5583.377037
 30
0.0
 11
6227.697056
 21
5583.377037
 31
0.0
  0
LINE
  8
JISSEN
 10
5702.697056
 20
4106.377037
 30
0.0
 11
5743.697056
 21
4106.377037
 31
0.0
  0
LINE
  8
JISSEN
 10
5743.697056
 20
4106.377037
 30
0.0
 11
5752.697056
 21
4091.377037
 31
0.0
  0
LINE
  8
JISSEN
 10
5752.697056
 20
4091.377037
 30
0.0
 11
6227.697056
 21
4091.377037
 31
0.0
  0
LINE
  8
JISSEN
 10
6752.697056
 20
4106.377037
 30
0.0
 11
6711.697056
 21
4106.377037
 31
0.0
  0
LINE
  8
JISSEN
 10
6711.697056
 20
4106.377037
 30
0.0
 11
6702.697056
 21
4091.377037
 31
0.0
  0
LINE
  8
JISSEN
 10
6702.697056
 20
4091.377037
 30
0.0
 11
6227.697056
 21
4091.377037
 31
0.0
  0
LINE
  8
JISSEN
 10
6227.697056
 20
4106.377037
 30
0.0
 11
6711.697056
 21
4106.377037
 31
0.0
  0
LINE
  8
HASEN
 10
6670.542557
 20
5583.377037
 30
0.0
 11
6670.542557
 21
4091.377037
 31
0.0
  0
LINE
  8
ITTEN
 10
6027.697056
 20
5441.377037
 30
0.0
 11
6427.697056
 21
5441.377037
 31
0.0
  0
ARC
  8
JISSEN
 10
6087.697056
 20
5441.377037
 30
0.0
 40
10.0
 50
90.0
 51
270.0
  0
LINE
  8
JISSEN
 10
6087.697056
 20
5451.377037
 30
0.0
 11
6227.697056
 21
5451.377037
 31
0.0
  0
LINE
  8
JISSEN
 10
6087.697056
 20
5431.377037
 30
0.0
 11
6227.697056
 21
5431.377037
 31
0.0
  0
LINE
  8
HASEN
 10
6367.697056
 20
5451.377037
 30
0.0
 11
6227.697056
 21
5451.377037
 31
0.0
  0
LINE
  8
HASEN
 10
6367.697056
 20
5431.377037
 30
0.0
 11
6227.697056
 21
5431.377037
 31
0.0
  0
ARC
  8
HASEN
 10
6367.697056
 20
5441.377037
 30
0.0
 40
10.0
 50
270.0
 51
90.0
  0
ARC
  8
HASEN
 10
6367.697056
 20
5141.377037
 30
0.0
 40
10.0
 50
270.0
 51
90.0
  0
LINE
  8
HASEN
 10
6367.697056
 20
5131.377037
 30
0.0
 11
6227.697056
 21
5131.377037
 31
0.0
  0
LINE
  8
HASEN
 10
6367.697056
 20
5151.377037
 30
0.0
 11
6227.697056
 21
5151.377037
 31
0.0
  0
LINE
  8
JISSEN
 10
6087.697056
 20
5131.377037
 30
0.0
 11
6227.697056
 21
5131.377037
 31
0.0
  0
LINE
  8
JISSEN
 10
6087.697056
 20
5151.377037
 30
0.0
 11
6227.697056
 21
5151.377037
 31
0.0
  0
ARC
  8
JISSEN
 10
6087.697056
 20
5141.377037
 30
0.0
 40
10.0
 50
90.0
 51
270.0
  0
LINE
  8
ITTEN
 10
6027.697056
 20
5141.377037
 30
0.0
 11
6427.697056
 21
5141.377037
 31
0.0
  0
ARC
  8
HASEN
 10
6367.697056
 20
4841.377037
 30
0.0
 40
10.0
 50
270.0
 51
90.0
  0
LINE
  8
HASEN
 10
6367.697056
 20
4831.377037
 30
0.0
 11
6227.697056
 21
4831.377037
 31
0.0
  0
LINE
  8
HASEN
 10
6367.697056
 20
4851.377037
 30
0.0
 11
6227.697056
 21
4851.377037
 31
0.0
  0
LINE
  8
JISSEN
 10
6087.697056
 20
4831.377037
 30
0.0
 11
6227.697056
 21
4831.377037
 31
0.0
  0
LINE
  8
JISSEN
 10
6087.697056
 20
4851.377037
 30
0.0
 11
6227.697056
 21
4851.377037
 31
0.0
  0
ARC
  8
JISSEN
 10
6087.697056
 20
4841.377037
 30
0.0
 40
10.0
 50
90.0
 51
270.0
  0
LINE
  8
ITTEN
 10
6027.697056
 20
4841.377037
 30
0.0
 11
6427.697056
 21
4841.377037
 31
0.0
  0
LINE
  8
ITTEN
 10
5994.697056
 20
4386.377037
 30
0.0
 11
6460.697056
 21
4386.377037
 31
0.0
  0
ARC
  8
JISSEN
 10
6227.697056
 20
4386.377037
 30
0.0
 40
183.0
 50
90.0
 51
270.0
  0
ARC
  8
HASEN
 10
6227.697056
 20
4386.377037
 30
0.0
 40
183.0
 50
270.0
 51
90.0
  0
LINE
  8
SUNPOU
 10
5747.697056
 20
4091.377037
 30
0.0
 11
5603.67484
 21
4091.377037
 31
0.0
  0
LINE
  8
SUNPOU
 10
5672.697056
 20
4106.377037
 30
0.0
 11
5603.67484
 21
4106.377037
 31
0.0
  0
LINE
  8
SUNPOU
 10
5633.67484
 20
4091.377037
 30
0.0
 11
5633.67484
 21
4106.377037
 31
0.0
  0
INSERT
  8
SUNPOU
  2
ARROWANG
 10
5633.67484
 20
4091.377037
 30
0.0
 41
30.0
 42
30.0
 50
90.0
 43
30.0
  0
INSERT
  8
SUNPOU
  2
ARROWANG
 10
5633.67484
 20
4106.377037
 30
0.0
 41
30.0
 42
30.0
 50
270.0
 43
30.0
  0
LINE
  8
SUNPOU
 10
5633.67484
 20
4106.377037
 30
0.0
 11
5633.67484
 21
4177.473906
 31
0.0
  0
LINE
  8
SUNPOU
 10
5633.67484
 20
4091.377037
 30
0.0
 11
5633.674841
 21
4031.377037
 31
0.0
  0
TEXT
  8
SUNPOU
 10
5588.67484
 20
4056.045334
 30
0.0
 40
60.0
  1
15
 50
90.0
  7
K
 72
     1
 11
5588.67484
 21
4117.473906
 31
0.0
  0
LINE
  8
SUNPOU
 10
5702.697056
 20
5636.377037
 30
0.0
 11
5702.697056
 21
5865.053104
 31
0.0
  0
LINE
  8
SUNPOU
 10
6752.697056
 20
5636.377037
 30
0.0
 11
6752.697056
 21
5865.053104
 31
0.0
  0
LINE
  8
SUNPOU
 10
5702.697056
 20
5835.053104
 30
0.0
 11
6752.697056
 21
5835.053104
 31
0.0
  0
INSERT
  8
SUNPOU
  2
ARROWANG
 10
5702.697056
 20
5835.053104
 30
0.0
 41
30.0
 42
30.0
 50
180.0
 43
30.0
  0
INSERT
  8
SUNPOU
  2
ARROWANG
 10
6752.697056
 20
5835.053104
 30
0.0
 41
30.0
 42
30.0
 43
30.0
  0
TEXT
  8
SUNPOU
 10
6109.125642
 20
5880.053104
 30
0.0
 40
60.0
  1
1050
  7
K
 72
     1
 11
6227.697071
 21
5880.053104
 31
0.0
  0
LINE
  8
SUNPOU
 10
5702.697056
 20
5636.377037
 30
0.0
 11
5702.697056
 21
5731.744186
 31
0.0
  0
LINE
  8
SUNPOU
 10
5777.697056
 20
5613.377037
 30
0.0
 11
5777.697056
 21
5731.744186
 31
0.0
  0
LINE
  8
SUNPOU
 10
5702.697056
 20
5701.744186
 30
0.0
 11
5777.697056
 21
5701.744186
 31
0.0
  0
INSERT
  8
SUNPOU
  2
ARROWANG
 10
5777.697056
 20
5701.744186
 30
0.0
 41
30.0
 42
30.0
 43
30.0
  0
INSERT
  8
SUNPOU
  2
ARROWANG
 10
5702.697056
 20
5701.744186
 30
0.0
 41
30.0
 42
30.0
 50
180.0
 43
30.0
  0
LINE
  8
SUNPOU
 10
5702.697056
 20
5701.744186
 30
0.0
 11
5570.697056
 21
5701.744186
 31
0.0
  0
TEXT
  8
SUNPOU
 10
5579.554199
 20
5746.744186
 30
0.0
 40
60.0
  1
75
  7
K
 72
     1
 11
5636.697056
 21
5746.744186
 31
0.0
  0
LINE
  8
SUNPOU
 10
5777.697056
 20
5701.744186
 30
0.0
 11
6677.697056
 21
5701.744186
 31
0.0
  0
LINE
  8
SUNPOU
 10
6677.697056
 20
5613.377037
 30
0.0
 11
6677.697056
 21
5731.744186
 31
0.0
  0
INSERT
  8
SUNPOU
  2
ARROWANG
 10
5777.697056
 20
5701.744186
 30
0.0
 41
30.0
 42
30.0
 50
180.0
 43
30.0
  0
INSERT
  8
SUNPOU
  2
ARROWANG
 10
6677.697056
 20
5701.744186
 30
0.0
 41
30.0
 42
30.0
 43
30.0
  0
TEXT
  8
SUNPOU
 10
6141.98277
 20
5746.744186
 30
0.0
 40
60.0
  1
900
  7
K
 72
     1
 11
6227.697056
 21
5746.744186
 31
0.0
  0
LINE
  8
SUNPOU
 10
6677.697056
 20
5701.744186
 30
0.0
 11
6752.697056
 21
5701.744186
 31
0.0
  0
LINE
  8
SUNPOU
 10
6752.697056
 20
5636.377037
 30
0.0
 11
6752.697056
 21
5731.744186
 31
0.0
  0
INSERT
  8
SUNPOU
  2
ARROWANG
 10
6752.697056
 20
5701.744186
 30
0.0
 41
30.0
 42
30.0
 43
30.0
  0
INSERT
  8
SUNPOU
  2
ARROWANG
 10
6677.697056
 20
5701.744186
 30
0.0
 41
30.0
 42
30.0
 50
180.0
 43
30.0
  0
LINE
  8
SUNPOU
 10
6752.697056
 20
5701.744186
 30
0.0
 11
6884.697056
 21
5701.744186
 31
0.0
  0
TEXT
  8
SUNPOU
 10
6779.290182
 20
5742.383415
 30
0.0
 40
60.0
  1
75
  7
K
  0
CIRCLE
  8
HASEN
 10
6591.773617
 20
5506.377037
 30
0.0
 40
10.0
  0
LINE
  8
SUNPOU
 10
6621.773617
 20
5506.377037
 30
0.0
 11
6977.77991
 21
5506.377037
 31
0.0
  0
LINE
  8
SUNPOU
 10
6947.77991
 20
5506.377037
 30
0.0
 11
6947.77991
 21
5606.377037
 31
0.0
  0
INSERT
  8
SUNPOU
  2
ARROWANG
 10
6947.77991
 20
5506.377037
 30
0.0
 41
30.0
 42
30.0
 50
270.0
 43
30.0
  0
INSERT
  8
SUNPOU
  2
ARROWANG
 10
6947.77991
 20
5606.377037
 30
0.0
 41
30.0
 42
30.0
 50
90.0
 43
30.0
  0
TEXT
  8
SUNPOU
 10
6909.934409
 20
5466.377037
 30
0.0
 40
60.0
  1
100
 50
90.0
  7
K
 72
     1
 11
6909.934409
 21
5556.377037
 31
0.0
  0
CIRCLE
  8
HASEN
 10
6591.773617
 20
4204.326131
 30
0.0
 40
10.0
  0
LINE
  8
SUNPOU
 10
6782.697056
 20
4106.377037
 30
0.0
 11
6937.178039
 21
4106.377037
 31
0.0
  0
LINE
  8
SUNPOU
 10
6628.928116
 20
4206.377037
 30
0.0
 11
6937.178039
 21
4206.377037
 31
0.0
  0
LINE
  8
SUNPOU
 10
6907.178039
 20
4106.377037
 30
0.0
 11
6907.178039
 21
4206.377037
 31
0.0
  0
INSERT
  8
SUNPOU
  2
ARROWANG
 10
6907.178039
 20
4106.377037
 30
0.0
 41
30.0
 42
30.0
 50
270.0
 43
30.0
  0
INSERT
  8
SUNPOU
  2
ARROWANG
 10
6907.178039
 20
4206.377037
 30
0.0
 41
30.0
 42
30.0
 50
90.0
 43
30.0
  0
TEXT
  8
SUNPOU
 10
6862.178039
 20
4066.377037
 30
0.0
 40
60.0
  1
100
 50
90.0
  7
K
 72
     1
 11
6862.178039
 21
4156.377037
 31
0.0
  0
LINE
  8
SUNPOU
 10
5807.697056
 20
5583.377037
 30
0.0
 11
5951.888722
 21
5583.377037
 31
0.0
  0
INSERT
  8
SUNPOU
  2
ARROWANG
 10
5921.888722
 20
5583.377037
 30
0.0
 41
30.0
 42
30.0
 50
90.0
 43
30.0
  0
LINE
  8
SUNPOU
 10
5921.888722
 20
5606.377037
 30
0.0
 11
5921.888722
 21
5583.377037
 31
0.0
  0
LINE
  8
SUNPOU
 10
5772.697056
 20
5606.377037
 30
0.0
 11
5951.888722
 21
5606.377037
 31
0.0
  0
INSERT
  8
SUNPOU
  2
ARROWANG
 10
5921.888722
 20
5583.377037
 30
0.0
 41
30.0
 42
30.0
 50
90.0
 43
30.0
  0
INSERT
  8
SUNPOU
  2
ARROWANG
 10
5921.888722
 20
5606.377037
 30
0.0
 41
30.0
 42
30.0
 50
270.0
 43
30.0
  0
LINE
  8
SUNPOU
 10
5921.888722
 20
5606.377037
 30
0.0
 11
5921.888722
 21
5738.377037
 31
0.0
  0
TEXT
  8
SUNPOU
 10
5891.969681
 20
5452.570042
 30
0.0
 40
60.0
  1
23
 50
90.0
  7
K
  0
LINE
  8
SUNPOU
 10
5921.888722
 20
5583.377037
 30
0.0
 11
5921.888722
 21
5523.377037
 31
0.0
  0
LINE
  8
SUNPOU
 10
5921.888722
 20
5606.377037
 30
0.0
 11
5921.888722
 21
5666.377037
 31
0.0
  0
LINE
  8
SUNPOU
 10
6257.697056
 20
4091.377037
 30
0.0
 11
6576.910687
 21
4091.377037
 31
0.0
  0
INSERT
  8
SUNPOU
  2
ARROWANG
 10
6539.756188
 20
4091.377037
 30
0.0
 41
30.0
 42
30.0
 50
270.0
 43
30.0
  0
TEXT
  8
SUNPOU
 10
6501.910687
 20
4380.662751
 30
0.0
 40
60.0
  1
750
 50
90.0
  7
K
 72
     1
 11
6501.910687
 21
4466.377037
 31
0.0
  0
LINE
  8
SUNPOU
 10
6539.756188
 20
4093.427944
 30
0.0
 11
6539.756188
 21
4843.427944
 31
0.0
  0
LINE
  8
SUNPOU
 10
6407.697056
 20
4841.377037
 30
0.0
 11
6576.910687
 21
4841.377037
 31
0.0
  0
INSERT
  8
SUNPOU
  2
ARROWANG
 10
6539.756188
 20
4841.377037
 30
0.0
 41
30.0
 42
30.0
 50
90.0
 43
30.0
  0
LINE
  8
SUNPOU
 10
6539.756188
 20
4841.377037
 30
0.0
 11
6539.756188
 21
5141.377037
 31
0.0
  0
LINE
  8
SUNPOU
 10
6407.697056
 20
5141.377037
 30
0.0
 11
6576.910687
 21
5141.377037
 31
0.0
  0
INSERT
  8
SUNPOU
  2
ARROWANG
 10
6539.756188
 20
4841.377037
 30
0.0
 41
30.0
 42
30.0
 50
270.0
 43
30.0
  0
INSERT
  8
SUNPOU
  2
ARROWANG
 10
6539.756188
 20
5141.377037
 30
0.0
 41
30.0
 42
30.0
 50
90.0
 43
30.0
  0
TEXT
  8
SUNPOU
 10
6501.910687
 20
4905.662751
 30
0.0
 40
60.0
  1
300
 50
90.0
  7
K
 72
     1
 11
6501.910687
 21
4991.377037
 31
0.0
  0
LINE
  8
SUNPOU
 10
6539.756188
 20
5141.377037
 30
0.0
 11
6539.756188
 21
5441.377037
 31
0.0
  0
LINE
  8
SUNPOU
 10
6407.697056
 20
5441.377037
 30
0.0
 11
6576.910687
 21
5441.377037
 31
0.0
  0
INSERT
  8
SUNPOU
  2
ARROWANG
 10
6539.756188
 20
5141.377037
 30
0.0
 41
30.0
 42
30.0
 50
270.0
 43
30.0
  0
INSERT
  8
SUNPOU
  2
ARROWANG
 10
6539.756188
 20
5441.377037
 30
0.0
 41
30.0
 42
30.0
 50
90.0
 43
30.0
  0
TEXT
  8
SUNPOU
 10
6501.910687
 20
5205.662751
 30
0.0
 40
60.0
  1
300
 50
90.0
  7
K
 72
     1
 11
6501.910687
 21
5291.377037
 31
0.0
  0
TEXT
  8
SUNPOU
 10
4645.597145
 20
5205.662751
 30
0.0
 40
60.0
  1
300
 50
90.0
  7
K
 72
     1
 11
4645.597145
 21
5291.377037
 31
0.0
  0
INSERT
  8
SUNPOU
  2
ARROWANG
 10
4690.597145
 20
5441.377037
 30
0.0
 41
30.0
 42
30.0
 50
90.0
 43
30.0
  0
INSERT
  8
SUNPOU
  2
ARROWANG
 10
4690.597145
 20
5141.377037
 30
0.0
 41
30.0
 42
30.0
 50
270.0
 43
30.0
  0
LINE
  8
SUNPOU
 10
4551.383514
 20
5441.377037
 30
0.0
 11
4720.597145
 21
5441.377037
 31
0.0
  0
LINE
  8
SUNPOU
 10
4690.597145
 20
5141.377037
 30
0.0
 11
4690.597145
 21
5441.377037
 31
0.0
  0
TEXT
  8
SUNPOU
 10
4645.597145
 20
4905.662751
 30
0.0
 40
60.0
  1
300
 50
90.0
  7
K
 72
     1
 11
4645.597145
 21
4991.377037
 31
0.0
  0
INSERT
  8
SUNPOU
  2
ARROWANG
 10
4690.597145
 20
5141.377037
 30
0.0
 41
30.0
 42
30.0
 50
90.0
 43
30.0
  0
INSERT
  8
SUNPOU
  2
ARROWANG
 10
4690.597145
 20
4841.377037
 30
0.0
 41
30.0
 42
30.0
 50
270.0
 43
30.0
  0
LINE
  8
SUNPOU
 10
4551.383514
 20
5141.377037
 30
0.0
 11
4720.597145
 21
5141.377037
 31
0.0
  0
LINE
  8
SUNPOU
 10
4690.597145
 20
4841.377037
 30
0.0
 11
4690.597145
 21
5141.377037
 31
0.0
  0
TEXT
  8
SUNPOU
 10
4645.597145
 20
4605.662751
 30
0.0
 40
60.0
  1
300
 50
90.0
  7
K
 72
     1
 11
4645.597145
 21
4691.377037
 31
0.0
  0
INSERT
  8
SUNPOU
  2
ARROWANG
 10
4690.597145
 20
4841.377037
 30
0.0
 41
30.0
 42
30.0
 50
90.0
 43
30.0
  0
INSERT
  8
SUNPOU
  2
ARROWANG
 10
4690.597145
 20
4541.377037
 30
0.0
 41
30.0
 42
30.0
 50
270.0
 43
30.0
  0
LINE
  8
SUNPOU
 10
4551.383514
 20
4841.377037
 30
0.0
 11
4720.597145
 21
4841.377037
 31
0.0
  0
LINE
  8
SUNPOU
 10
4690.597145
 20
4541.377037
 30
0.0
 11
4690.597145
 21
4841.377037
 31
0.0
  0
TEXT
  8
SUNPOU
 10
4645.597145
 20
4080.662751
 30
0.0
 40
60.0
  1
750
 50
90.0
  7
K
 72
     1
 11
4645.597145
 21
4166.377037
 31
0.0
  0
INSERT
  8
SUNPOU
  2
ARROWANG
 10
4690.597145
 20
4541.377037
 30
0.0
 41
30.0
 42
30.0
 50
90.0
 43
30.0
  0
INSERT
  8
SUNPOU
  2
ARROWANG
 10
4690.597145
 20
3791.377037
 30
0.0
 41
30.0
 42
30.0
 50
270.0
 43
30.0
  0
LINE
  8
SUNPOU
 10
4690.597145
 20
3791.377037
 30
0.0
 11
4690.597145
 21
4541.377037
 31
0.0
  0
LINE
  8
SUNPOU
 10
4551.383514
 20
4541.377037
 30
0.0
 11
4720.597145
 21
4541.377037
 31
0.0
  0
LINE
  8
SUNPOU
 10
4401.383514
 20
3791.377037
 30
0.0
 11
4720.597145
 21
3791.377037
 31
0.0
  0
LINE
  8
SUNPOU
 10
4065.57518
 20
5606.377037
 30
0.0
 11
4065.57518
 21
5666.377037
 31
0.0
  0
LINE
  8
SUNPOU
 10
4065.57518
 20
5583.377037
 30
0.0
 11
4065.57518
 21
5523.377037
 31
0.0
  0
TEXT
  8
SUNPOU
 10
4035.656139
 20
5452.570042
 30
0.0
 40
60.0
  1
23
 50
90.0
  7
K
  0
LINE
  8
SUNPOU
 10
4065.57518
 20
5606.377037
 30
0.0
 11
4065.57518
 21
5738.377037
 31
0.0
  0
INSERT
  8
SUNPOU
  2
ARROWANG
 10
4065.57518
 20
5606.377037
 30
0.0
 41
30.0
 42
30.0
 50
270.0
 43
30.0
  0
INSERT
  8
SUNPOU
  2
ARROWANG
 10
4065.57518
 20
5583.377037
 30
0.0
 41
30.0
 42
30.0
 50
90.0
 43
30.0
  0
LINE
  8
SUNPOU
 10
3916.383514
 20
5606.377037
 30
0.0
 11
4095.57518
 21
5606.377037
 31
0.0
  0
LINE
  8
SUNPOU
 10
4065.57518
 20
5606.377037
 30
0.0
 11
4065.57518
 21
5583.377037
 31
0.0
  0
TEXT
  8
SUNPOU
 10
4020.57518
 20
4568.805609
 30
0.0
 40
60.0
  1
1792
 50
90.0
  7
K
 72
     1
 11
4020.57518
 21
4687.377037
 31
0.0
  0
INSERT
  8
SUNPOU
  2
ARROWANG
 10
4065.57518
 20
5583.377037
 30
0.0
 41
30.0
 42
30.0
 50
90.0
 43
30.0
  0
INSERT
  8
SUNPOU
  2
ARROWANG
 10
4065.57518
 20
3791.377037
 30
0.0
 41
30.0
 42
30.0
 50
270.0
 43
30.0
  0
LINE
  8
SUNPOU
 10
4065.57518
 20
3791.377037
 30
0.0
 11
4065.57518
 21
5583.377037
 31
0.0
  0
LINE
  8
SUNPOU
 10
3951.383514
 20
5583.377037
 30
0.0
 11
4095.57518
 21
5583.377037
 31
0.0
  0
LINE
  8
SUNPOU
 10
3951.383514
 20
3791.377037
 30
0.0
 11
4095.57518
 21
3791.377037
 31
0.0
  0
LINE
  8
HASEN
 10
4554.383514
 20
3205.678732
 30
0.0
 11
4554.383514
 21
3124.715041
 31
0.0
  0
LINE
  8
HASEN
 10
4188.383514
 20
3205.678732
 30
0.0
 11
4188.383514
 21
3124.715041
 31
0.0
  0
ARC
  8
JISSEN
 10
4511.383514
 20
3073.605567
 30
0.0
 40
10.0
 50
270.0
 51
0.0
  0
ARC
  8
JISSEN
 10
4491.383514
 20
3093.605567
 30
0.0
 40
10.0
 50
270.0
 51
0.0
  0
ARC
  8
JISSEN
 10
4251.383514
 20
3093.605567
 30
0.0
 40
10.0
 50
180.0
 51
270.0
  0
ARC
  8
JISSEN
 10
4231.383514
 20
3073.605567
 30
0.0
 40
10.0
 50
180.0
 51
270.0
  0
LINE
  8
JISSEN
 10
4501.383514
 20
3093.605567
 30
0.0
 11
4501.383514
 21
3144.418751
 31
0.0
  0
LINE
  8
JISSEN
 10
4251.383514
 20
3083.605567
 30
0.0
 11
4491.383514
 21
3083.605567
 31
0.0
  0
LINE
  8
JISSEN
 10
4241.383514
 20
3144.418751
 30
0.0
 11
4241.383514
 21
3093.605567
 31
0.0
  0
LINE
  8
JISSEN
 10
4521.383514
 20
3073.605567
 30
0.0
 11
4521.383514
 21
3137.869635
 31
0.0
  0
LINE
  8
JISSEN
 10
4511.383514
 20
3063.605567
 30
0.0
 11
4231.383514
 21
3063.605567
 31
0.0
  0
LINE
  8
JISSEN
 10
4221.383514
 20
3137.869635
 30
0.0
 11
4221.383514
 21
3073.605567
 31
0.0
  0
LINE
  8
ITTEN
 10
4946.383514
 20
2713.605567
 30
0.0
 11
3796.383514
 21
2713.605567
 31
0.0
  0
LINE
  8
ITTEN
 10
4371.383514
 20
3288.605567
 30
0.0
 11
4371.383514
 21
2138.605567
 31
0.0
  0
TEXT
  8
SUNPOU
 10
5005.864498
 20
3766.377037
 30
0.0
 40
60.0
  1
100
 50
90.0
  7
K
 72
     1
 11
5005.864498
 21
3856.377037
 31
0.0
  0
INSERT
  8
SUNPOU
  2
ARROWANG
 10
5050.864498
 20
3906.377037
 30
0.0
 41
30.0
 42
30.0
 50
90.0
 43
30.0
  0
INSERT
  8
SUNPOU
  2
ARROWANG
 10
5050.864498
 20
3806.377037
 30
0.0
 41
30.0
 42
30.0
 50
270.0
 43
30.0
  0
LINE
  8
SUNPOU
 10
5050.864498
 20
3806.377037
 30
0.0
 11
5050.864498
 21
3906.377037
 31
0.0
  0
LINE
  8
SUNPOU
 10
4772.614574
 20
3906.377037
 30
0.0
 11
5080.864498
 21
3906.377037
 31
0.0
  0
LINE
  8
SUNPOU
 10
4926.383514
 20
3806.377037
 30
0.0
 11
5080.864498
 21
3806.377037
 31
0.0
  0
CIRCLE
  8
HASEN
 10
4742.614574
 20
3906.377037
 30
0.0
 40
10.0
  0
TEXT
  8
SUNPOU
 10
5053.620868
 20
5466.377037
 30
0.0
 40
60.0
  1
100
 50
90.0
  7
K
 72
     1
 11
5053.620868
 21
5556.377037
 31
0.0
  0
INSERT
  8
SUNPOU
  2
ARROWANG
 10
5098.620868
 20
5606.377037
 30
0.0
 41
30.0
 42
30.0
 50
90.0
 43
30.0
  0
INSERT
  8
SUNPOU
  2
ARROWANG
 10
5098.620868
 20
5506.377037
 30
0.0
 41
30.0
 42
30.0
 50
270.0
 43
30.0
  0
LINE
  8
SUNPOU
 10
5098.620868
 20
5506.377037
 30
0.0
 11
5098.620868
 21
5606.377037
 31
0.0
  0
LINE
  8
SUNPOU
 10
4926.383514
 20
5606.377037
 30
0.0
 11
5128.620868
 21
5606.377037
 31
0.0
  0
LINE
  8
SUNPOU
 10
4772.614574
 20
5506.377037
 30
0.0
 11
5128.620868
 21
5506.377037
 31
0.0
  0
CIRCLE
  8
HASEN
 10
4742.614574
 20
5506.377037
 30
0.0
 40
10.0
  0
LINE
  8
HASEN
 10
4007.290872
 20
2335.370788
 30
0.0
 11
4042.578861
 21
2370.658778
 31
0.0
  0
LINE
  8
HASEN
 10
4028.436725
 20
2384.800913
 30
0.0
 11
4042.578861
 21
2370.658778
 31
0.0
  0
LINE
  8
HASEN
 10
4028.436725
 20
2384.800913
 30
0.0
 11
3993.148736
 21
2349.512924
 31
0.0
  0
LINE
  8
ITTEN
 10
4070.863132
 20
2413.085185
 30
0.0
 11
3964.797115
 21
2307.019168
 31
0.0
  0
POINT
  8
HASEN
 10
4372.090621
 20
2714.312674
 30
0.0
  0
LINE
  8
ITTEN
 10
4671.903896
 20
3014.125949
 30
0.0
 11
4777.969914
 21
3120.191966
 31
0.0
  0
LINE
  8
HASEN
 10
4714.330303
 20
3042.41022
 30
0.0
 11
4749.618293
 21
3077.698209
 31
0.0
  0
LINE
  8
HASEN
 10
4714.330303
 20
3042.41022
 30
0.0
 11
4700.188168
 21
3056.552356
 31
0.0
  0
LINE
  8
HASEN
 10
4735.476157
 20
3091.840345
 30
0.0
 11
4700.188168
 21
3056.552356
 31
0.0
  0
CIRCLE
  8
JISSEN
 10
4371.383514
 20
2713.605567
 30
0.0
 40
485.0
  0
CIRCLE
  8
JISSEN
 10
4371.383514
 20
2713.605567
 30
0.0
 40
478.0
  0
CIRCLE
  8
JISSEN
 10
4371.383514
 20
2713.605567
 30
0.0
 40
450.0
  0
CIRCLE
  8
JISSEN
 10
4371.383514
 20
2713.605567
 30
0.0
 40
525.0
  0
TEXT
  8
SUNPOU
 10
4986.383514
 20
5746.744186
 30
0.0
 40
60.0
  1
75
  7
K
  0
LINE
  8
SUNPOU
 10
4896.383514
 20
5701.744186
 30
0.0
 11
5028.383514
 21
5701.744186
 31
0.0
  0
INSERT
  8
SUNPOU
  2
ARROWANG
 10
4821.383514
 20
5701.744186
 30
0.0
 41
30.0
 42
30.0
 50
180.0
 43
30.0
  0
INSERT
  8
SUNPOU
  2
ARROWANG
 10
4896.383514
 20
5701.744186
 30
0.0
 41
30.0
 42
30.0
 43
30.0
  0
LINE
  8
SUNPOU
 10
4896.383514
 20
5636.377037
 30
0.0
 11
4896.383514
 21
5731.744186
 31
0.0
  0
LINE
  8
SUNPOU
 10
4821.383514
 20
5701.744186
 30
0.0
 11
4896.383514
 21
5701.744186
 31
0.0
  0
TEXT
  8
SUNPOU
 10
4285.669229
 20
5746.744186
 30
0.0
 40
60.0
  1
900
  7
K
 72
     1
 11
4371.383514
 21
5746.744186
 31
0.0
  0
INSERT
  8
SUNPOU
  2
ARROWANG
 10
4821.383514
 20
5701.744186
 30
0.0
 41
30.0
 42
30.0
 43
30.0
  0
INSERT
  8
SUNPOU
  2
ARROWANG
 10
3921.383514
 20
5701.744186
 30
0.0
 41
30.0
 42
30.0
 50
180.0
 43
30.0
  0
LINE
  8
SUNPOU
 10
4821.383514
 20
5613.377037
 30
0.0
 11
4821.383514
 21
5731.744186
 31
0.0
  0
LINE
  8
SUNPOU
 10
3921.383514
 20
5701.744186
 30
0.0
 11
4821.383514
 21
5701.744186
 31
0.0
  0
TEXT
  8
SUNPOU
 10
3723.240657
 20
5746.744186
 30
0.0
 40
60.0
  1
75
  7
K
 72
     1
 11
3780.383514
 21
5746.744186
 31
0.0
  0
LINE
  8
SUNPOU
 10
3846.383514
 20
5701.744186
 30
0.0
 11
3714.383514
 21
5701.744186
 31
0.0
  0
INSERT
  8
SUNPOU
  2
ARROWANG
 10
3846.383514
 20
5701.744186
 30
0.0
 41
30.0
 42
30.0
 50
180.0
 43
30.0
  0
INSERT
  8
SUNPOU
  2
ARROWANG
 10
3921.383514
 20
5701.744186
 30
0.0
 41
30.0
 42
30.0
 43
30.0
  0
LINE
  8
SUNPOU
 10
3846.383514
 20
5701.744186
 30
0.0
 11
3921.383514
 21
5701.744186
 31
0.0
  0
LINE
  8
SUNPOU
 10
3921.383514
 20
5613.377037
 30
0.0
 11
3921.383514
 21
5731.744186
 31
0.0
  0
LINE
  8
SUNPOU
 10
3846.383514
 20
5636.377037
 30
0.0
 11
3846.383514
 21
5731.744186
 31
0.0
  0
TEXT
  8
SUNPOU
 10
4252.8121
 20
5880.053104
 30
0.0
 40
60.0
  1
1050
  7
K
 72
     1
 11
4371.383529
 21
5880.053104
 31
0.0
  0
INSERT
  8
SUNPOU
  2
ARROWANG
 10
4896.383514
 20
5835.053104
 30
0.0
 41
30.0
 42
30.0
 43
30.0
  0
INSERT
  8
SUNPOU
  2
ARROWANG
 10
3846.383514
 20
5835.053104
 30
0.0
 41
30.0
 42
30.0
 50
180.0
 43
30.0
  0
LINE
  8
SUNPOU
 10
3846.383514
 20
5835.053104
 30
0.0
 11
4896.383514
 21
5835.053104
 31
0.0
  0
LINE
  8
SUNPOU
 10
4896.383514
 20
5636.377037
 30
0.0
 11
4896.383514
 21
5865.053104
 31
0.0
  0
LINE
  8
SUNPOU
 10
3846.383514
 20
5636.377037
 30
0.0
 11
3846.383514
 21
5865.053104
 31
0.0
  0
TEXT
  8
SUNPOU
 10
3732.361298
 20
3756.045334
 30
0.0
 40
60.0
  1
15
 50
90.0
  7
K
 72
     1
 11
3732.361298
 21
3817.473906
 31
0.0
  0
LINE
  8
SUNPOU
 10
3777.361298
 20
3791.377037
 30
0.0
 11
3777.3613
 21
3731.377037
 31
0.0
  0
LINE
  8
SUNPOU
 10
3777.361298
 20
3806.377037
 30
0.0
 11
3777.361298
 21
3877.473906
 31
0.0
  0
INSERT
  8
SUNPOU
  2
ARROWANG
 10
3777.361298
 20
3806.377037
 30
0.0
 41
30.0
 42
30.0
 50
270.0
 43
30.0
  0
INSERT
  8
SUNPOU
  2
ARROWANG
 10
3777.361298
 20
3791.377037
 30
0.0
 41
30.0
 42
30.0
 50
90.0
 43
30.0
  0
LINE
  8
SUNPOU
 10
3777.361298
 20
3791.377037
 30
0.0
 11
3777.361298
 21
3806.377037
 31
0.0
  0
LINE
  8
SUNPOU
 10
3816.383514
 20
3806.377037
 30
0.0
 11
3747.361298
 21
3806.377037
 31
0.0
  0
LINE
  8
SUNPOU
 10
3891.383514
 20
3791.377037
 30
0.0
 11
3747.361298
 21
3791.377037
 31
0.0
  0
TEXT
  8
SUNPOU
 10
3581.551709
 20
4587.805609
 30
0.0
 40
60.0
  1
1800
 50
90.0
  7
K
 72
     1
 11
3581.551709
 21
4706.377037
 31
0.0
  0
INSERT
  8
SUNPOU
  2
ARROWANG
 10
3626.551709
 20
5606.377037
 30
0.0
 41
30.0
 42
30.0
 50
90.0
 43
30.0
  0
INSERT
  8
SUNPOU
  2
ARROWANG
 10
3626.551709
 20
3806.377037
 30
0.0
 41
30.0
 42
30.0
 50
270.0
 43
30.0
  0
LINE
  8
SUNPOU
 10
3626.551709
 20
3806.377037
 30
0.0
 11
3626.551709
 21
5606.377037
 31
0.0
  0
LINE
  8
SUNPOU
 10
3816.383514
 20
5606.377037
 30
0.0
 11
3596.551709
 21
5606.377037
 31
0.0
  0
LINE
  8
SUNPOU
 10
3816.383514
 20
3806.377037
 30
0.0
 11
3596.551709
 21
3806.377037
 31
0.0
  0
ARC
  8
HASEN
 10
4371.383514
 20
4086.377037
 30
0.0
 40
183.0
 50
270.0
 51
90.0
  0
ARC
  8
JISSEN
 10
4371.383514
 20
4086.377037
 30
0.0
 40
183.0
 50
90.0
 51
270.0
  0
LINE
  8
ITTEN
 10
4138.383514
 20
4086.377037
 30
0.0
 11
4604.383514
 21
4086.377037
 31
0.0
  0
LINE
  8
ITTEN
 10
4171.383514
 20
4541.377037
 30
0.0
 11
4571.383514
 21
4541.377037
 31
0.0
  0
ARC
  8
JISSEN
 10
4231.383514
 20
4541.377037
 30
0.0
 40
10.0
 50
90.0
 51
270.0
  0
LINE
  8
JISSEN
 10
4231.383514
 20
4551.377037
 30
0.0
 11
4371.383514
 21
4551.377037
 31
0.0
  0
LINE
  8
JISSEN
 10
4231.383514
 20
4531.377037
 30
0.0
 11
4371.383514
 21
4531.377037
 31
0.0
  0
LINE
  8
HASEN
 10
4511.383514
 20
4551.377037
 30
0.0
 11
4371.383514
 21
4551.377037
 31
0.0
  0
LINE
  8
HASEN
 10
4511.383514
 20
4531.377037
 30
0.0
 11
4371.383514
 21
4531.377037
 31
0.0
  0
ARC
  8
HASEN
 10
4511.383514
 20
4541.377037
 30
0.0
 40
10.0
 50
270.0
 51
90.0
  0
LINE
  8
ITTEN
 10
4171.383514
 20
4841.377037
 30
0.0
 11
4571.383514
 21
4841.377037
 31
0.0
  0
ARC
  8
JISSEN
 10
4231.383514
 20
4841.377037
 30
0.0
 40
10.0
 50
90.0
 51
270.0
  0
LINE
  8
JISSEN
 10
4231.383514
 20
4851.377037
 30
0.0
 11
4371.383514
 21
4851.377037
 31
0.0
  0
LINE
  8
JISSEN
 10
4231.383514
 20
4831.377037
 30
0.0
 11
4371.383514
 21
4831.377037
 31
0.0
  0
LINE
  8
HASEN
 10
4511.383514
 20
4851.377037
 30
0.0
 11
4371.383514
 21
4851.377037
 31
0.0
  0
LINE
  8
HASEN
 10
4511.383514
 20
4831.377037
 30
0.0
 11
4371.383514
 21
4831.377037
 31
0.0
  0
ARC
  8
HASEN
 10
4511.383514
 20
4841.377037
 30
0.0
 40
10.0
 50
270.0
 51
90.0
  0
LINE
  8
ITTEN
 10
4171.383514
 20
5141.377037
 30
0.0
 11
4571.383514
 21
5141.377037
 31
0.0
  0
ARC
  8
JISSEN
 10
4231.383514
 20
5141.377037
 30
0.0
 40
10.0
 50
90.0
 51
270.0
  0
LINE
  8
JISSEN
 10
4231.383514
 20
5151.377037
 30
0.0
 11
4371.383514
 21
5151.377037
 31
0.0
  0
LINE
  8
JISSEN
 10
4231.383514
 20
5131.377037
 30
0.0
 11
4371.383514
 21
5131.377037
 31
0.0
  0
LINE
  8
HASEN
 10
4511.383514
 20
5151.377037
 30
0.0
 11
4371.383514
 21
5151.377037
 31
0.0
  0
LINE
  8
HASEN
 10
4511.383514
 20
5131.377037
 30
0.0
 11
4371.383514
 21
5131.377037
 31
0.0
  0
ARC
  8
HASEN
 10
4511.383514
 20
5141.377037
 30
0.0
 40
10.0
 50
270.0
 51
90.0
  0
ARC
  8
HASEN
 10
4511.383514
 20
5441.377037
 30
0.0
 40
10.0
 50
270.0
 51
90.0
  0
LINE
  8
HASEN
 10
4511.383514
 20
5431.377037
 30
0.0
 11
4371.383514
 21
5431.377037
 31
0.0
  0
LINE
  8
HASEN
 10
4511.383514
 20
5451.377037
 30
0.0
 11
4371.383514
 21
5451.377037
 31
0.0
  0
LINE
  8
JISSEN
 10
4231.383514
 20
5431.377037
 30
0.0
 11
4371.383514
 21
5431.377037
 31
0.0
  0
LINE
  8
JISSEN
 10
4231.383514
 20
5451.377037
 30
0.0
 11
4371.383514
 21
5451.377037
 31
0.0
  0
ARC
  8
JISSEN
 10
4231.383514
 20
5441.377037
 30
0.0
 40
10.0
 50
90.0
 51
270.0
  0
LINE
  8
ITTEN
 10
4171.383514
 20
5441.377037
 30
0.0
 11
4571.383514
 21
5441.377037
 31
0.0
  0
LINE
  8
HASEN
 10
4821.383514
 20
5583.377037
 30
0.0
 11
4821.383514
 21
3791.377037
 31
0.0
  0
LINE
  8
JISSEN
 10
4371.383514
 20
3806.377037
 30
0.0
 11
4855.383514
 21
3806.377037
 31
0.0
  0
LINE
  8
JISSEN
 10
4846.383514
 20
3791.377037
 30
0.0
 11
4371.383514
 21
3791.377037
 31
0.0
  0
LINE
  8
JISSEN
 10
4855.383514
 20
3806.377037
 30
0.0
 11
4846.383514
 21
3791.377037
 31
0.0
  0
LINE
  8
JISSEN
 10
4896.383514
 20
3806.377037
 30
0.0
 11
4855.383514
 21
3806.377037
 31
0.0
  0
LINE
  8
JISSEN
 10
3896.383514
 20
3791.377037
 30
0.0
 11
4371.383514
 21
3791.377037
 31
0.0
  0
LINE
  8
JISSEN
 10
3887.383514
 20
3806.377037
 30
0.0
 11
3896.383514
 21
3791.377037
 31
0.0
  0
LINE
  8
JISSEN
 10
3846.383514
 20
3806.377037
 30
0.0
 11
3887.383514
 21
3806.377037
 31
0.0
  0
LINE
  8
HASEN
 10
4849.383514
 20
5583.377037
 30
0.0
 11
4371.383514
 21
5583.377037
 31
0.0
  0
LINE
  8
HASEN
 10
4856.383514
 20
5606.377037
 30
0.0
 11
4849.383514
 21
5583.377037
 31
0.0
  0
LINE
  8
JISSEN
 10
3893.383514
 20
5583.377037
 30
0.0
 11
4371.383514
 21
5583.377037
 31
0.0
  0
LINE
  8
JISSEN
 10
3886.383514
 20
5606.377037
 30
0.0
 11
3893.383514
 21
5583.377037
 31
0.0
  0
LINE
  8
JISSEN
 10
3921.383514
 20
5583.377037
 30
0.0
 11
3921.383514
 21
3791.377037
 31
0.0
  0
LINE
  8
JISSEN
 10
3846.383514
 20
5606.377037
 30
0.0
 11
3846.383514
 21
3806.377037
 31
0.0
  0
LINE
  8
JISSEN
 10
4896.383514
 20
5606.377037
 30
0.0
 11
4896.383514
 21
3806.377037
 31
0.0
  0
LINE
  8
JISSEN
 10
3846.383514
 20
5606.377037
 30
0.0
 11
4896.383514
 21
5606.377037
 31
0.0
  0
LINE
  8
ITTEN
 10
4371.383514
 20
5656.377037
 30
0.0
 11
4371.383514
 21
3741.377037
 31
0.0
  0
POLYLINE
  8
WAKU
 66
     1
 10
0.0
 20
0.0
 30
0.0
 70
     1
  0
VERTEX
  8
WAKU
 10
0.0
 20
0.0
 30
0.0
  0
VERTEX
  8
WAKU
 10
11850.0
 20
0.0
 30
0.0
  0
VERTEX
  8
WAKU
 10
11850.0
 20
8190.0
 30
0.0
  0
VERTEX
  8
WAKU
 10
0.0
 20
8190.0
 30
0.0
  0
SEQEND
  8
WAKU
  0
TEXT
  8
TEXT
 10
11263.214183
 20
755.778246
 30
0.0
 40
120.0
  1
1/30
  7
K
  0
ENDSEC
  0
EOF
