  0
SECTION
  2
HEADER
  9
$ACADVER
  1
AC1009
  9
$INSBASE
 10
0.0
 20
0.0
 30
0.0
  9
$EXTMIN
 10
0.0
 20
0.0
 30
0.0
  9
$EXTMAX
 10
11872.735736
 20
8190.0
 30
0.0
  9
$LIMMIN
 10
0.0
 20
0.0
  9
$LIMMAX
 10
11850.0
 20
8190.0
  9
$ORTHOMODE
 70
     0
  9
$REGENMODE
 70
     1
  9
$FILLMODE
 70
     1
  9
$QTEXTMODE
 70
     0
  9
$MIRRTEXT
 70
     0
  9
$DRAGMODE
 70
     2
  9
$LTSCALE
 40
150.0
  9
$OSMODE
 70
    33
  9
$ATTMODE
 70
     1
  9
$TEXTSIZE
 40
60.0
  9
$TRACEWID
 40
0.05
  9
$TEXTSTYLE
  7
K
  9
$CLAYER
  8
SUNPOU
  9
$CELTYPE
  6
BYLAYER
  9
$CECOLOR
 62
   256
  9
$DIMSCALE
 40
30.0
  9
$DIMASZ
 40
1.5
  9
$DIMEXO
 40
1.0
  9
$DIMDLI
 40
6.0
  9
$DIMRND
 40
0.0
  9
$DIMDLE
 40
0.0
  9
$DIMEXE
 40
1.0
  9
$DIMTP
 40
495.0
  9
$DIMTM
 40
0.0
  9
$DIMTXT
 40
3.0
  9
$DIMCEN
 40
0.0
  9
$DIMTSZ
 40
0.0
  9
$DIMTOL
 70
     0
  9
$DIMLIM
 70
     0
  9
$DIMTIH
 70
     0
  9
$DIMTOH
 70
     0
  9
$DIMSE1
 70
     0
  9
$DIMSE2
 70
     0
  9
$DIMTAD
 70
     1
  9
$DIMZIN
 70
     8
  9
$DIMBLK
  1

  9
$DIMASO
 70
     0
  9
$DIMSHO
 70
     0
  9
$DIMPOST
  1

  9
$DIMAPOST
  1

  9
$DIMALT
 70
     0
  9
$DIMALTD
 70
     2
  9
$DIMALTF
 40
25.4
  9
$DIMLFAC
 40
1.0
  9
$DIMTOFL
 70
     1
  9
$DIMTVP
 40
0.0
  9
$DIMTIX
 70
     1
  9
$DIMSOXD
 70
     0
  9
$DIMSAH
 70
     0
  9
$DIMBLK1
  1

  9
$DIMBLK2
  1

  9
$DIMSTYLE
  2
*UNNAMED
  9
$DIMCLRD
 70
     0
  9
$DIMCLRE
 70
     0
  9
$DIMCLRT
 70
     0
  9
$DIMTFAC
 40
1.0
  9
$DIMGAP
 40
0.09
  9
$LUNITS
 70
     2
  9
$LUPREC
 70
     2
  9
$AXISMODE
 70
     1
  9
$AXISUNIT
 10
100.0
 20
100.0
  9
$SKETCHINC
 40
0.1
  9
$FILLETRAD
 40
0.0
  9
$AUNITS
 70
     0
  9
$AUPREC
 70
     2
  9
$MENU
  1
d:stdgx5
  9
$ELEVATION
 40
0.0
  9
$PELEVATION
 40
0.0
  9
$THICKNESS
 40
0.0
  9
$LIMCHECK
 70
     0
  9
$BLIPMODE
 70
     1
  9
$CHAMFERA
 40
0.0
  9
$CHAMFERB
 40
0.0
  9
$SKPOLY
 70
     0
  9
$TDCREATE
 40
2450248.493807870
  9
$TDUPDATE
 40
2450255.686527777
  9
$TDINDWG
 40
0.0018634259
  9
$TDUSRTIMER
 40
0.0018634259
  9
$USRTIMER
 70
     1
  9
$ANGBASE
 50
0.0
  9
$ANGDIR
 70
     0
  9
$PDMODE
 70
     0
  9
$PDSIZE
 40
0.0
  9
$PLINEWID
 40
0.0
  9
$COORDS
 70
     2
  9
$SPLFRAME
 70
     0
  9
$SPLINETYPE
 70
     6
  9
$SPLINESEGS
 70
     8
  9
$ATTDIA
 70
     0
  9
$ATTREQ
 70
     1
  9
$HANDLING
 70
     0
  9
$HANDSEED
  5
0
  9
$SURFTAB1
 70
     6
  9
$SURFTAB2
 70
     6
  9
$SURFTYPE
 70
     6
  9
$SURFU
 70
     6
  9
$SURFV
 70
     6
  9
$UCSNAME
  2

  9
$UCSORG
 10
0.0
 20
0.0
 30
0.0
  9
$UCSXDIR
 10
1.0
 20
0.0
 30
0.0
  9
$UCSYDIR
 10
0.0
 20
1.0
 30
0.0
  9
$PUCSNAME
  2

  9
$PUCSORG
 10
0.0
 20
0.0
 30
0.0
  9
$PUCSXDIR
 10
1.0
 20
0.0
 30
0.0
  9
$PUCSYDIR
 10
0.0
 20
1.0
 30
0.0
  9
$USERI1
 70
     3
  9
$USERI2
 70
    33
  9
$USERI3
 70
     0
  9
$USERI4
 70
     1
  9
$USERI5
 70
     0
  9
$USERR1
 40
30.0
  9
$USERR2
 40
3.0
  9
$USERR3
 40
3.0
  9
$USERR4
 40
1.5
  9
$USERR5
 40
10.0
  9
$WORLDVIEW
 70
     1
  9
$SHADEDGE
 70
     3
  9
$SHADEDIF
 70
    70
  9
$TILEMODE
 70
     1
  9
$MAXACTVP
 70
    16
  9
$PINSBASE
 10
0.0
 20
0.0
 30
0.0
  9
$PLIMCHECK
 70
     0
  9
$PEXTMIN
 10
1.000000E+20
 20
1.000000E+20
 30
1.000000E+20
  9
$PEXTMAX
 10
-1.000000E+20
 20
-1.000000E+20
 30
-1.000000E+20
  9
$PLIMMIN
 10
0.0
 20
0.0
  9
$PLIMMAX
 10
12.0
 20
9.0
  9
$UNITMODE
 70
     0
  9
$VISRETAIN
 70
     0
  0
ENDSEC
  0
SECTION
  2
TABLES
  0
TABLE
  2
VPORT
 70
    10
  0
VPORT
  2
*ACTIVE
 70
     0
 10
0.0
 20
0.0
 11
1.0
 21
1.0
 12
6691.515737
 22
4095.0
 13
0.0
 23
0.0
 14
1.0
 24
1.0
 15
10.0
 25
10.0
 16
0.0
 26
0.0
 36
1.0
 17
0.0
 27
0.0
 37
0.0
 40
8190.0
 41
1.63407
 42
50.0
 43
0.0
 44
0.0
 50
0.0
 51
0.0
 71
     0
 72
   500
 73
     1
 74
     0
 75
     0
 76
     0
 77
     0
 78
     0
  0
VPORT
  2
2
 70
     0
 10
0.5
 20
0.0
 11
1.0
 21
1.0
 12
0.924031
 22
1.052651
 13
0.0
 23
0.0
 14
1.0
 24
1.0
 15
10.0
 25
10.0
 16
0.0
 26
0.0
 36
1.0
 17
0.0
 27
0.0
 37
0.0
 40
2.105302
 41
0.877814
 42
50.0
 43
0.0
 44
0.0
 50
0.0
 51
0.0
 71
     0
 72
   500
 73
     1
 74
     1
 75
     0
 76
     0
 77
     0
 78
     0
  0
VPORT
  2
2
 70
     0
 10
0.0
 20
0.0
 11
0.5
 21
1.0
 12
0.924031
 22
1.052651
 13
0.0
 23
0.0
 14
1.0
 24
1.0
 15
10.0
 25
10.0
 16
0.0
 26
0.0
 36
1.0
 17
0.0
 27
0.0
 37
0.0
 40
2.105302
 41
0.877814
 42
50.0
 43
0.0
 44
0.0
 50
0.0
 51
0.0
 71
     0
 72
   500
 73
     1
 74
     1
 75
     0
 76
     0
 77
     0
 78
     0
  0
VPORT
  2
3
 70
     0
 10
0.0
 20
0.5
 11
1.0
 21
1.0
 12
2.83217
 22
1.052651
 13
0.0
 23
0.0
 14
1.0
 24
1.0
 15
10.0
 25
10.0
 16
0.0
 26
0.0
 36
1.0
 17
0.0
 27
0.0
 37
0.0
 40
2.105302
 41
3.571429
 42
50.0
 43
0.0
 44
0.0
 50
0.0
 51
0.0
 71
     0
 72
   500
 73
     1
 74
     1
 75
     0
 76
     0
 77
     0
 78
     0
  0
VPORT
  2
3
 70
     0
 10
0.0
 20
0.0
 11
1.0
 21
0.5
 12
2.856742
 22
1.052651
 13
0.0
 23
0.0
 14
1.0
 24
1.0
 15
10.0
 25
10.0
 16
0.0
 26
0.0
 36
1.0
 17
0.0
 27
0.0
 37
0.0
 40
2.105302
 41
3.594771
 42
50.0
 43
0.0
 44
0.0
 50
0.0
 51
0.0
 71
     0
 72
   500
 73
     1
 74
     1
 75
     0
 76
     0
 77
     0
 78
     0
  0
VPORT
  2
4
 70
     0
 10
0.5
 20
0.0
 11
1.0
 21
0.5
 12
2.886858
 22
1.052651
 13
0.0
 23
0.0
 14
1.0
 24
1.0
 15
10.0
 25
10.0
 16
0.0
 26
0.0
 36
1.0
 17
0.0
 27
0.0
 37
0.0
 40
4.275207
 41
1.784314
 42
50.0
 43
0.0
 44
0.0
 50
0.0
 51
0.0
 71
     0
 72
   500
 73
     1
 74
     1
 75
     0
 76
     0
 77
     0
 78
     0
  0
VPORT
  2
4
 70
     0
 10
0.5
 20
0.5
 11
1.0
 21
1.0
 12
2.86209
 22
1.052651
 13
0.0
 23
0.0
 14
1.0
 24
1.0
 15
10.0
 25
10.0
 16
0.0
 26
0.0
 36
1.0
 17
0.0
 27
0.0
 37
0.0
 40
4.275207
 41
1.772727
 42
50.0
 43
0.0
 44
0.0
 50
0.0
 51
0.0
 71
     0
 72
   500
 73
     1
 74
     1
 75
     0
 76
     0
 77
     0
 78
     0
  0
VPORT
  2
4
 70
     0
 10
0.0
 20
0.5
 11
0.5
 21
1.0
 12
2.86209
 22
1.052651
 13
0.0
 23
0.0
 14
1.0
 24
1.0
 15
10.0
 25
10.0
 16
0.0
 26
0.0
 36
1.0
 17
0.0
 27
0.0
 37
0.0
 40
4.275207
 41
1.772727
 42
50.0
 43
0.0
 44
0.0
 50
0.0
 51
0.0
 71
     0
 72
   500
 73
     1
 74
     1
 75
     0
 76
     0
 77
     0
 78
     0
  0
VPORT
  2
4
 70
     0
 10
0.0
 20
0.0
 11
0.5
 21
0.5
 12
2.886858
 22
1.052651
 13
0.0
 23
0.0
 14
1.0
 24
1.0
 15
10.0
 25
10.0
 16
0.0
 26
0.0
 36
1.0
 17
0.0
 27
0.0
 37
0.0
 40
4.275207
 41
1.784314
 42
50.0
 43
0.0
 44
0.0
 50
0.0
 51
0.0
 71
     0
 72
   500
 73
     1
 74
     1
 75
     0
 76
     0
 77
     0
 78
     0
  0
ENDTAB
  0
TABLE
  2
LTYPE
 70
     5
  0
LTYPE
  2
CONTINUOUS
 70
    64
  3
実線
 72
    65
 73
     0
 40
0.0
  0
LTYPE
  2
DASHED
 70
    64
  3
__ __ __ __ __ __ __ __ __ __ __ __ __ __ __
 72
    65
 73
     2
 40
0.75
 49
0.5
 49
-0.25
  0
LTYPE
  2
CENTER
 70
    64
  3
____ _ ____ _ ____ _ ____ _ ____ _ ____ _ ____
 72
    65
 73
     4
 40
2.0
 49
1.25
 49
-0.25
 49
0.25
 49
-0.25
  0
LTYPE
  2
PHANTOM
 70
    64
  3
_____ _ _ _____ _ _ _____ _ _ _____ _ _ ____
 72
    65
 73
     6
 40
2.5
 49
1.25
 49
-0.25
 49
0.25
 49
-0.25
 49
0.25
 49
-0.25
  0
LTYPE
  2
HIDDEN
 70
    64
  3
_ _ _ _ _ _ _ _ _ _ _ _ _ _ _ _ _ _ _ _ _ _ _
 72
    65
 73
     2
 40
0.375
 49
0.25
 49
-0.125
  0
ENDTAB
  0
TABLE
  2
LAYER
 70
    14
  0
LAYER
  2
0
 70
     0
 62
     7
  6
CONTINUOUS
  0
LAYER
  2
HASEN
 70
    64
 62
     2
  6
DASHED
  0
LAYER
  2
ITTEN
 70
    64
 62
     1
  6
CENTER
  0
LAYER
  2
SUNPOU
 70
    64
 62
     3
  6
CONTINUOUS
  0
LAYER
  2
TEXT
 70
    64
 62
     3
  6
CONTINUOUS
  0
LAYER
  2
JISSEN
 70
    64
 62
     7
  6
CONTINUOUS
  0
LAYER
  2
WAKU
 70
    64
 62
    -5
  6
CONTINUOUS
  0
ENDTAB
  0
TABLE
  2
STYLE
 70
     2
  0
STYLE
  2
STANDARD
 70
     0
 40
0.0
 41
1.0
 50
0.0
 71
     0
 42
150.0
  3
ROMANS
  4
EXTFONT
  0
STYLE
  2
K
 70
    64
 40
0.0
 41
1.0
 50
0.0
 71
     0
 42
60.0
  3
ROMANS
  4
EXTFONT
  0
ENDTAB
  0
TABLE
  2
VIEW
 70
     0
  0
ENDTAB
  0
TABLE
  2
UCS
 70
     0
  0
ENDTAB
  0
TABLE
  2
APPID
 70
     1
  0
APPID
  2
ACAD
 70
    64
  0
ENDTAB
  0
TABLE
  2
DIMSTYLE
 70
     0
  0
ENDTAB
  0
ENDSEC
  0
SECTION
  2
BLOCKS
  0
BLOCK
  8
SUNPOU
  2
ARROWANG
 70
    64
 10
0.0
 20
0.0
 30
0.0
  3
ARROWANG
  0
LINE
  8
SUNPOU
 10
0.0
 20
0.0
 30
0.0
 11
-1.5
 21
0.401924
 31
0.0
  0
LINE
  8
SUNPOU
 10
0.0
 20
0.0
 30
0.0
 11
-1.5
 21
-0.401924
 31
0.0
  0
ENDBLK
  8
SUNPOU
  0
ENDSEC
  0
SECTION
  2
ENTITIES
  0
LINE
  8
ITTEN
 10
6433.290755
 20
1479.472624
 30
0.0
 11
5193.290755
 21
1479.472624
 31
0.0
  0
LINE
  8
ITTEN
 10
5813.290755
 20
2099.472624
 30
0.0
 11
5813.290755
 21
859.472624
 31
0.0
  0
TEXT
  8
TEXT
 10
3830.473504
 20
5534.561436
 30
0.0
 40
100.0
  1
Ｍ１ＳＦ６０
  7
K
  0
TEXT
  8
TEXT
 10
3750.293432
 20
5819.962554
 30
0.0
 40
120.0
  1
おどり場直壁
  7
K
  0
TEXT
  8
TEXT
 10
5502.687669
 20
3423.64365
 30
0.0
 40
100.0
  1
Ｍ１ＳＣ３０
  7
K
  0
TEXT
  8
TEXT
 10
5535.971842
 20
3732.76627
 30
0.0
 40
120.0
  1
連結直壁
  7
K
  0
TEXT
  8
TEXT
 10
7176.441877
 20
5553.42245
 30
0.0
 40
100.0
  1
Ｍ１ＳＳＦ６０
  7
K
  0
TEXT
  8
TEXT
 10
6980.148923
 20
5826.375755
 30
0.0
 40
120.0
  1
深形おどり場直壁
  7
K
  0
TEXT
  8
JISSEN
 10
3087.826343
 20
7577.92834
 30
0.0
 40
300.0
  1
組立マンホール構造図（内径９００ｍｍ）
  7
K
  0
TEXT
  8
SUNPOU
 10
6052.954476
 20
2416.528108
 30
0.0
 40
60.0
  1
150
 50
90.0
  7
K
 72
     1
 11
6052.954476
 21
2506.528108
 31
0.0
  0
INSERT
  8
SUNPOU
  2
ARROWANG
 10
6097.954476
 20
2581.528108
 30
0.0
 41
30.0
 42
30.0
 50
90.0
 43
30.0
  0
INSERT
  8
SUNPOU
  2
ARROWANG
 10
6097.954476
 20
2431.528108
 30
0.0
 41
30.0
 42
30.0
 50
270.0
 43
30.0
  0
LINE
  8
SUNPOU
 10
6097.954476
 20
2431.528108
 30
0.0
 11
6097.954476
 21
2581.528108
 31
0.0
  0
LINE
  8
SUNPOU
 10
5993.290755
 20
2581.528108
 30
0.0
 11
6127.954476
 21
2581.528108
 31
0.0
  0
LINE
  8
SUNPOU
 10
5843.290755
 20
2431.528108
 30
0.0
 11
6127.954476
 21
2431.528108
 31
0.0
  0
TEXT
  8
SUNPOU
 10
6233.290755
 20
3126.6462
 30
0.0
 40
60.0
  1
120
  7
K
 72
     1
 11
6323.290755
 21
3126.6462
 31
0.0
  0
INSERT
  8
SUNPOU
  2
ARROWANG
 10
6383.290755
 20
3081.6462
 30
0.0
 41
30.0
 42
30.0
 43
30.0
  0
INSERT
  8
SUNPOU
  2
ARROWANG
 10
6263.290755
 20
3081.6462
 30
0.0
 41
30.0
 42
30.0
 50
180.0
 43
30.0
  0
LINE
  8
SUNPOU
 10
6383.290755
 20
2776.528108
 30
0.0
 11
6383.290755
 21
3111.6462
 31
0.0
  0
LINE
  8
SUNPOU
 10
6263.290755
 20
3081.6462
 30
0.0
 11
6383.290755
 21
3081.6462
 31
0.0
  0
TEXT
  8
SUNPOU
 10
5727.576469
 20
3126.6462
 30
0.0
 40
60.0
  1
900
  7
K
 72
     1
 11
5813.290755
 21
3126.6462
 31
0.0
  0
INSERT
  8
SUNPOU
  2
ARROWANG
 10
6263.290755
 20
3081.6462
 30
0.0
 41
30.0
 42
30.0
 43
30.0
  0
INSERT
  8
SUNPOU
  2
ARROWANG
 10
5363.290755
 20
3081.6462
 30
0.0
 41
30.0
 42
30.0
 50
180.0
 43
30.0
  0
LINE
  8
SUNPOU
 10
6263.290755
 20
2753.528108
 30
0.0
 11
6263.290755
 21
3111.6462
 31
0.0
  0
LINE
  8
SUNPOU
 10
5363.290755
 20
3081.6462
 30
0.0
 11
6263.290755
 21
3081.6462
 31
0.0
  0
TEXT
  8
SUNPOU
 10
5213.29077
 20
3126.6462
 30
0.0
 40
60.0
  1
120
  7
K
 72
     1
 11
5303.29077
 21
3126.6462
 31
0.0
  0
INSERT
  8
SUNPOU
  2
ARROWANG
 10
5363.290755
 20
3081.6462
 30
0.0
 41
30.0
 42
30.0
 43
30.0
  0
INSERT
  8
SUNPOU
  2
ARROWANG
 10
5243.290755
 20
3081.6462
 30
0.0
 41
30.0
 42
30.0
 50
180.0
 43
30.0
  0
LINE
  8
SUNPOU
 10
5243.290755
 20
3081.6462
 30
0.0
 11
5363.290755
 21
3081.6462
 31
0.0
  0
LINE
  8
SUNPOU
 10
5363.290755
 20
2753.528108
 30
0.0
 11
5363.290755
 21
3111.6462
 31
0.0
  0
LINE
  8
SUNPOU
 10
5243.290755
 20
2776.528108
 30
0.0
 11
5243.290755
 21
3111.6462
 31
0.0
  0
LINE
  8
JISSEN
 10
5243.290755
 20
2746.528108
 30
0.0
 11
5243.290755
 21
2431.528108
 31
0.0
  0
LINE
  8
JISSEN
 10
6383.290755
 20
2746.528108
 30
0.0
 11
6383.290755
 21
2431.528108
 31
0.0
  0
TEXT
  8
SUNPOU
 10
5727.576484
 20
2998.139686
 30
0.0
 40
60.0
  1
970
  7
K
 72
     1
 11
5813.29077
 21
2998.139686
 31
0.0
  0
INSERT
  8
SUNPOU
  2
ARROWANG
 10
6298.290755
 20
2953.139686
 30
0.0
 41
30.0
 42
30.0
 43
30.0
  0
INSERT
  8
SUNPOU
  2
ARROWANG
 10
5328.290755
 20
2953.139686
 30
0.0
 41
30.0
 42
30.0
 50
180.0
 43
30.0
  0
LINE
  8
SUNPOU
 10
5328.290755
 20
2953.139686
 30
0.0
 11
6298.290755
 21
2953.139686
 31
0.0
  0
LINE
  8
SUNPOU
 10
6298.290755
 20
2776.528108
 30
0.0
 11
6298.290755
 21
2983.139686
 31
0.0
  0
LINE
  8
SUNPOU
 10
5328.290755
 20
2776.528108
 30
0.0
 11
5328.290755
 21
2983.139686
 31
0.0
  0
TEXT
  8
SUNPOU
 10
5727.576484
 20
2869.927911
 30
0.0
 40
60.0
  1
956
  7
K
 72
     1
 11
5813.29077
 21
2869.927911
 31
0.0
  0
INSERT
  8
SUNPOU
  2
ARROWANG
 10
6291.290755
 20
2824.927911
 30
0.0
 41
30.0
 42
30.0
 43
30.0
  0
INSERT
  8
SUNPOU
  2
ARROWANG
 10
5335.290755
 20
2824.927911
 30
0.0
 41
30.0
 42
30.0
 50
180.0
 43
30.0
  0
LINE
  8
SUNPOU
 10
5335.290755
 20
2824.927911
 30
0.0
 11
6291.290755
 21
2824.927911
 31
0.0
  0
LINE
  8
SUNPOU
 10
6291.290755
 20
2753.528108
 30
0.0
 11
6291.290755
 21
2854.927911
 31
0.0
  0
LINE
  8
SUNPOU
 10
5335.290755
 20
2753.528108
 30
0.0
 11
5335.290755
 21
2854.927911
 31
0.0
  0
TEXT
  8
SUNPOU
 10
4954.36727
 20
2503.313823
 30
0.0
 40
60.0
  1
315
 50
90.0
  7
K
 72
     1
 11
4954.36727
 21
2589.028108
 31
0.0
  0
INSERT
  8
SUNPOU
  2
ARROWANG
 10
4999.36727
 20
2746.528108
 30
0.0
 41
30.0
 42
30.0
 50
90.0
 43
30.0
  0
INSERT
  8
SUNPOU
  2
ARROWANG
 10
4999.36727
 20
2431.528108
 30
0.0
 41
30.0
 42
30.0
 50
270.0
 43
30.0
  0
LINE
  8
SUNPOU
 10
4999.36727
 20
2431.528108
 30
0.0
 11
4999.36727
 21
2746.528108
 31
0.0
  0
LINE
  8
SUNPOU
 10
5144.539629
 20
2746.528108
 30
0.0
 11
4969.36727
 21
2746.528108
 31
0.0
  0
LINE
  8
SUNPOU
 10
5144.539629
 20
2431.528108
 30
0.0
 11
4969.36727
 21
2431.528108
 31
0.0
  0
TEXT
  8
SUNPOU
 10
5159.539629
 20
2308.385251
 30
0.0
 40
60.0
  1
23
 50
90.0
  7
K
 72
     1
 11
5159.539629
 21
2365.528108
 31
0.0
  0
LINE
  8
SUNPOU
 10
5204.539629
 20
2454.528108
 30
0.0
 11
5204.539629
 21
2514.528108
 31
0.0
  0
LINE
  8
SUNPOU
 10
5204.539629
 20
2431.528108
 30
0.0
 11
5204.539629
 21
2299.528108
 31
0.0
  0
INSERT
  8
SUNPOU
  2
ARROWANG
 10
5204.539629
 20
2454.528108
 30
0.0
 41
30.0
 42
30.0
 50
270.0
 43
30.0
  0
INSERT
  8
SUNPOU
  2
ARROWANG
 10
5204.539629
 20
2431.528108
 30
0.0
 41
30.0
 42
30.0
 50
90.0
 43
30.0
  0
LINE
  8
SUNPOU
 10
5204.539629
 20
2431.528108
 30
0.0
 11
5204.539629
 21
2454.528108
 31
0.0
  0
LINE
  8
SUNPOU
 10
5305.290755
 20
2454.528108
 30
0.0
 11
5174.539629
 21
2454.528108
 31
0.0
  0
LINE
  8
SUNPOU
 10
5258.290755
 20
2431.528108
 30
0.0
 11
5174.539629
 21
2431.528108
 31
0.0
  0
TEXT
  8
SUNPOU
 10
5159.539629
 20
2755.385251
 30
0.0
 40
60.0
  1
23
 50
90.0
  7
K
 72
     1
 11
5159.539629
 21
2812.528108
 31
0.0
  0
LINE
  8
SUNPOU
 10
5204.539629
 20
2723.528108
 30
0.0
 11
5204.53963
 21
2663.528108
 31
0.0
  0
LINE
  8
SUNPOU
 10
5204.539629
 20
2746.528108
 30
0.0
 11
5204.539629
 21
2878.528108
 31
0.0
  0
INSERT
  8
SUNPOU
  2
ARROWANG
 10
5204.539629
 20
2746.528108
 30
0.0
 41
30.0
 42
30.0
 50
270.0
 43
30.0
  0
INSERT
  8
SUNPOU
  2
ARROWANG
 10
5204.539629
 20
2723.528108
 30
0.0
 41
30.0
 42
30.0
 50
90.0
 43
30.0
  0
LINE
  8
SUNPOU
 10
5204.539629
 20
2723.528108
 30
0.0
 11
5204.539629
 21
2746.528108
 31
0.0
  0
LINE
  8
SUNPOU
 10
5258.290755
 20
2746.528108
 30
0.0
 11
5174.539629
 21
2746.528108
 31
0.0
  0
LINE
  8
SUNPOU
 10
5305.290755
 20
2723.528108
 30
0.0
 11
5174.539629
 21
2723.528108
 31
0.0
  0
LINE
  8
ITTEN
 10
5613.290755
 20
2581.528108
 30
0.0
 11
6013.290755
 21
2581.528108
 31
0.0
  0
ARC
  8
JISSEN
 10
5673.290755
 20
2581.528108
 30
0.0
 40
10.0
 50
90.0
 51
270.0
  0
LINE
  8
JISSEN
 10
5673.290755
 20
2571.528108
 30
0.0
 11
5813.290755
 21
2571.528108
 31
0.0
  0
LINE
  8
JISSEN
 10
5673.290755
 20
2591.528108
 30
0.0
 11
5813.290755
 21
2591.528108
 31
0.0
  0
LINE
  8
ITTEN
 10
5813.290755
 20
2796.528108
 30
0.0
 11
5813.290755
 21
2381.528108
 31
0.0
  0
TEXT
  8
SUNPOU
 10
6502.270862
 20
2424.378967
 30
0.0
 40
60.0
  1
100
 50
90.0
  7
K
 72
     1
 11
6502.270862
 21
2514.378967
 31
0.0
  0
INSERT
  8
SUNPOU
  2
ARROWANG
 10
6540.528108
 20
2431.528108
 30
0.0
 41
-30.0
 42
30.0
 50
90.0
 43
30.0
  0
INSERT
  8
SUNPOU
  2
ARROWANG
 10
6540.528108
 20
2531.528108
 30
0.0
 41
-30.0
 42
30.0
 50
270.0
 43
30.0
  0
LINE
  8
SUNPOU
 10
6540.528108
 20
2531.528108
 30
0.0
 11
6540.528108
 21
2431.528108
 31
0.0
  0
LINE
  8
SUNPOU
 10
6368.290755
 20
2431.528108
 30
0.0
 11
6570.528108
 21
2431.528108
 31
0.0
  0
LINE
  8
SUNPOU
 10
6214.521815
 20
2531.528108
 30
0.0
 11
6570.528108
 21
2531.528108
 31
0.0
  0
CIRCLE
  8
HASEN
 10
6184.521815
 20
2531.528108
 30
0.0
 40
10.0
  0
CIRCLE
  8
HASEN
 10
5442.059695
 20
2531.528108
 30
0.0
 40
10.0
  0
LINE
  8
JISSEN
 10
5243.290755
 20
2431.528108
 30
0.0
 11
6383.290755
 21
2431.528108
 31
0.0
  0
LINE
  8
JISSEN
 10
6298.290755
 20
2431.528108
 30
0.0
 11
6291.290755
 21
2454.528108
 31
0.0
  0
LINE
  8
JISSEN
 10
6291.290755
 20
2454.528108
 30
0.0
 11
5813.290755
 21
2454.528108
 31
0.0
  0
LINE
  8
JISSEN
 10
5335.290755
 20
2454.528108
 30
0.0
 11
5813.290755
 21
2454.528108
 31
0.0
  0
LINE
  8
JISSEN
 10
5328.290755
 20
2431.528108
 30
0.0
 11
5335.290755
 21
2454.528108
 31
0.0
  0
LINE
  8
ITTEN
 10
6145.630942
 20
1147.132437
 30
0.0
 11
6251.696959
 21
1041.06642
 31
0.0
  0
LINE
  8
HASEN
 10
6188.057349
 20
1118.848166
 30
0.0
 11
6223.345339
 21
1083.560176
 31
0.0
  0
LINE
  8
HASEN
 10
6188.057349
 20
1118.848166
 30
0.0
 11
6173.915213
 21
1104.70603
 31
0.0
  0
LINE
  8
HASEN
 10
6209.203203
 20
1069.418041
 30
0.0
 11
6173.915213
 21
1104.70603
 31
0.0
  0
LINE
  8
HASEN
 10
5417.378307
 20
1889.527208
 30
0.0
 11
5452.666297
 21
1854.239218
 31
0.0
  0
LINE
  8
HASEN
 10
5438.524161
 20
1840.097082
 30
0.0
 11
5452.666297
 21
1854.239218
 31
0.0
  0
LINE
  8
HASEN
 10
5438.524161
 20
1840.097082
 30
0.0
 11
5403.236172
 21
1875.385072
 31
0.0
  0
LINE
  8
ITTEN
 10
5480.950568
 20
1811.812811
 30
0.0
 11
5374.884551
 21
1917.878828
 31
0.0
  0
CIRCLE
  8
JISSEN
 10
5813.290755
 20
1479.472624
 30
0.0
 40
570.0
  0
CIRCLE
  8
JISSEN
 10
5813.290755
 20
1479.472624
 30
0.0
 40
450.0
  0
CIRCLE
  8
JISSEN
 10
5813.290755
 20
1479.472624
 30
0.0
 40
478.0
  0
CIRCLE
  8
JISSEN
 10
5813.290755
 20
1479.472624
 30
0.0
 40
485.0
  0
LINE
  8
HASEN
 10
6209.203203
 20
1889.527208
 30
0.0
 11
6173.915213
 21
1854.239218
 31
0.0
  0
LINE
  8
HASEN
 10
6188.057349
 20
1840.097082
 30
0.0
 11
6173.915213
 21
1854.239218
 31
0.0
  0
LINE
  8
HASEN
 10
6188.057349
 20
1840.097082
 30
0.0
 11
6223.345339
 21
1875.385072
 31
0.0
  0
LINE
  8
ITTEN
 10
6145.630942
 20
1811.812811
 30
0.0
 11
6251.696959
 21
1917.878828
 31
0.0
  0
LINE
  8
ITTEN
 10
5480.950568
 20
1147.132437
 30
0.0
 11
5374.884551
 21
1041.06642
 31
0.0
  0
LINE
  8
HASEN
 10
5438.524161
 20
1118.848166
 30
0.0
 11
5403.236172
 21
1083.560176
 31
0.0
  0
LINE
  8
HASEN
 10
5438.524161
 20
1118.848166
 30
0.0
 11
5452.666297
 21
1104.70603
 31
0.0
  0
LINE
  8
HASEN
 10
5417.378307
 20
1069.418041
 30
0.0
 11
5452.666297
 21
1104.70603
 31
0.0
  0
LINE
  8
JISSEN
 10
5663.290755
 20
1903.736693
 30
0.0
 11
5663.290755
 21
1839.472624
 31
0.0
  0
LINE
  8
JISSEN
 10
5953.290755
 20
1829.472624
 30
0.0
 11
5673.290755
 21
1829.472624
 31
0.0
  0
LINE
  8
JISSEN
 10
5963.290755
 20
1839.472624
 30
0.0
 11
5963.290755
 21
1903.736693
 31
0.0
  0
LINE
  8
JISSEN
 10
5683.290755
 20
1910.285809
 30
0.0
 11
5683.290755
 21
1859.472624
 31
0.0
  0
LINE
  8
JISSEN
 10
5693.290755
 20
1849.472624
 30
0.0
 11
5933.290755
 21
1849.472624
 31
0.0
  0
LINE
  8
JISSEN
 10
5943.290755
 20
1859.472624
 30
0.0
 11
5943.290755
 21
1910.285809
 31
0.0
  0
ARC
  8
JISSEN
 10
5673.290755
 20
1839.472624
 30
0.0
 40
10.0
 50
180.0
 51
270.0
  0
ARC
  8
JISSEN
 10
5693.290755
 20
1859.472624
 30
0.0
 40
10.0
 50
180.0
 51
270.0
  0
ARC
  8
JISSEN
 10
5933.290755
 20
1859.472624
 30
0.0
 40
10.0
 50
270.0
 51
0.0
  0
ARC
  8
JISSEN
 10
5953.290755
 20
1839.472624
 30
0.0
 40
10.0
 50
270.0
 51
0.0
  0
CIRCLE
  8
HASEN
 10
5442.059695
 20
2646.528108
 30
0.0
 40
10.0
  0
LINE
  8
JISSEN
 10
5953.290755
 20
2591.528108
 30
0.0
 11
5813.290755
 21
2591.528108
 31
0.0
  0
LINE
  8
JISSEN
 10
5953.290755
 20
2571.528108
 30
0.0
 11
5813.290755
 21
2571.528108
 31
0.0
  0
ARC
  8
JISSEN
 10
5953.290755
 20
2581.528108
 30
0.0
 40
10.0
 50
270.0
 51
90.0
  0
LINE
  8
JISSEN
 10
5243.290755
 20
2746.528108
 30
0.0
 11
6383.290755
 21
2746.528108
 31
0.0
  0
LINE
  8
JISSEN
 10
5363.290755
 20
2723.528108
 30
0.0
 11
5363.290755
 21
2454.528108
 31
0.0
  0
LINE
  8
JISSEN
 10
5328.290755
 20
2746.528108
 30
0.0
 11
5335.290755
 21
2723.528108
 31
0.0
  0
LINE
  8
JISSEN
 10
5335.290755
 20
2723.528108
 30
0.0
 11
5813.290755
 21
2723.528108
 31
0.0
  0
LINE
  8
JISSEN
 10
6298.290755
 20
2746.528108
 30
0.0
 11
6291.290755
 21
2723.528108
 31
0.0
  0
LINE
  8
JISSEN
 10
6291.290755
 20
2723.528108
 30
0.0
 11
5813.290755
 21
2723.528108
 31
0.0
  0
LINE
  8
JISSEN
 10
6263.290755
 20
2723.528108
 30
0.0
 11
6263.290755
 21
2454.528108
 31
0.0
  0
CIRCLE
  8
HASEN
 10
6184.521815
 20
2646.528108
 30
0.0
 40
10.0
  0
LINE
  8
SUNPOU
 10
6214.521815
 20
2646.528108
 30
0.0
 11
6570.528108
 21
2646.528108
 31
0.0
  0
LINE
  8
SUNPOU
 10
6368.290755
 20
2746.528108
 30
0.0
 11
6570.528108
 21
2746.528108
 31
0.0
  0
LINE
  8
SUNPOU
 10
6540.528108
 20
2646.528108
 30
0.0
 11
6540.528108
 21
2746.528108
 31
0.0
  0
INSERT
  8
SUNPOU
  2
ARROWANG
 10
6540.528108
 20
2646.528108
 30
0.0
 41
30.0
 42
30.0
 50
270.0
 43
30.0
  0
INSERT
  8
SUNPOU
  2
ARROWANG
 10
6540.528108
 20
2746.528108
 30
0.0
 41
30.0
 42
30.0
 50
90.0
 43
30.0
  0
TEXT
  8
SUNPOU
 10
6495.528108
 20
2606.528108
 30
0.0
 40
60.0
  1
100
 50
90.0
  7
K
 72
     1
 11
6495.528108
 21
2696.528108
 31
0.0
  0
LINE
  8
SUNPOU
 10
5363.290755
 20
2561.528108
 30
0.0
 11
5363.290755
 21
2507.848379
 31
0.0
  0
LINE
  8
JISSEN
 10
8610.055532
 20
4660.599707
 30
0.0
 11
8610.055532
 21
4410.599707
 31
0.0
  0
INSERT
  8
SUNPOU
  2
ARROWANG
 10
7710.055532
 20
4816.919978
 30
0.0
 41
30.0
 42
30.0
 50
180.0
 43
30.0
  0
LINE
  8
SUNPOU
 10
7710.055532
 20
4816.919978
 30
0.0
 11
8310.055532
 21
4816.919978
 31
0.0
  0
TEXT
  8
SUNPOU
 10
7977.728784
 20
4861.919978
 30
0.0
 40
60.0
  1
600
  7
K
 72
     1
 11
8064.871641
 21
4861.919978
 31
0.0
  0
LINE
  8
JISSEN
 10
8310.055532
 20
4760.599707
 30
0.0
 11
8310.055532
 21
4660.599707
 31
0.0
  0
LINE
  8
SUNPOU
 10
8310.055532
 20
4790.599707
 30
0.0
 11
8310.055532
 21
4846.919978
 31
0.0
  0
INSERT
  8
SUNPOU
  2
ARROWANG
 10
8310.055532
 20
4816.919978
 30
0.0
 41
30.0
 42
30.0
 43
30.0
  0
LINE
  8
SUNPOU
 10
8340.055532
 20
4660.599707
 30
0.0
 11
8462.679473
 21
4660.599707
 31
0.0
  0
LINE
  8
SUNPOU
 10
8340.055532
 20
4760.599707
 30
0.0
 11
8462.679473
 21
4760.599707
 31
0.0
  0
LINE
  8
SUNPOU
 10
8432.679473
 20
4660.599707
 30
0.0
 11
8432.679473
 21
4760.599707
 31
0.0
  0
INSERT
  8
SUNPOU
  2
ARROWANG
 10
8432.679473
 20
4660.599707
 30
0.0
 41
30.0
 42
30.0
 50
270.0
 43
30.0
  0
INSERT
  8
SUNPOU
  2
ARROWANG
 10
8432.679473
 20
4760.599707
 30
0.0
 41
30.0
 42
30.0
 50
90.0
 43
30.0
  0
TEXT
  8
SUNPOU
 10
8387.679473
 20
4620.599707
 30
0.0
 40
60.0
  1
100
 50
90.0
  7
K
 72
     1
 11
8387.679473
 21
4710.599707
 31
0.0
  0
LINE
  8
JISSEN
 10
7825.055532
 20
4760.599707
 30
0.0
 11
7825.055532
 21
4660.599707
 31
0.0
  0
LINE
  8
JISSEN
 10
8610.055532
 20
4660.599707
 30
0.0
 11
7825.055532
 21
4660.599707
 31
0.0
  0
LINE
  8
JISSEN
 10
7825.055532
 20
4760.599707
 30
0.0
 11
8610.055532
 21
4760.599707
 31
0.0
  0
INSERT
  8
SUNPOU
  2
ARROWANG
 10
6263.218616
 20
4461.911706
 30
0.0
 41
30.0
 42
30.0
 50
213.091147
 43
30.0
  0
INSERT
  8
SUNPOU
  2
ARROWANG
 10
7017.241391
 20
4953.286976
 30
0.0
 41
30.0
 42
30.0
 50
33.091147
 43
30.0
  0
INSERT
  8
SUNPOU
  2
ARROWANG
 10
6683.071918
 20
4937.407948
 30
0.0
 41
30.0
 42
30.0
 50
49.998596
 43
30.0
  0
LINE
  8
SUNPOU
 10
6683.071918
 20
4937.407948
 30
0.0
 11
6490.230003
 21
4707.599341
 31
0.0
  0
TEXT
  8
SUNPOU
 10
6628.619055
 20
4728.067045
 30
0.0
 40
60.0
  1
%%C900
 50
33.091147
  7
K
 72
     1
 11
6719.580532
 21
4787.344061
 31
0.0
  0
LINE
  8
SUNPOU
 10
6263.218616
 20
4461.911706
 30
0.0
 11
7017.241391
 21
4953.286976
 31
0.0
  0
LINE
  8
JISSEN
 10
6304.819807
 20
4407.599341
 30
0.0
 11
6490.230003
 21
4407.599341
 31
0.0
  0
LINE
  8
JISSEN
 10
6304.819807
 20
5007.599341
 30
0.0
 11
6490.230003
 21
5007.599341
 31
0.0
  0
ARC
  8
JISSEN
 10
6490.230003
 20
4707.599341
 30
0.0
 40
300.0
 50
270.0
 51
90.0
  0
TEXT
  8
SUNPOU
 10
6476.879493
 20
4761.695142
 30
0.0
 40
60.0
  1
R300
 50
49.998596
  7
K
 72
     1
 11
6552.17967
 21
4851.429932
 31
0.0
  0
TEXT
  8
SUNPOU
 10
7880.462837
 20
4395.599707
 30
0.0
 40
60.0
  1
150
 50
90.0
  7
K
 72
     1
 11
7880.462837
 21
4485.599707
 31
0.0
  0
INSERT
  8
SUNPOU
  2
ARROWANG
 10
7925.462837
 20
4560.599707
 30
0.0
 41
30.0
 42
30.0
 50
90.0
 43
30.0
  0
INSERT
  8
SUNPOU
  2
ARROWANG
 10
7925.462837
 20
4410.599707
 30
0.0
 41
30.0
 42
30.0
 50
270.0
 43
30.0
  0
LINE
  8
SUNPOU
 10
7925.462837
 20
4410.599707
 30
0.0
 11
7925.462837
 21
4560.599707
 31
0.0
  0
LINE
  8
SUNPOU
 10
7895.462837
 20
4560.599707
 30
0.0
 11
7895.462837
 21
4560.599707
 31
0.0
  0
LINE
  8
SUNPOU
 10
7740.055532
 20
4410.599707
 30
0.0
 11
7955.462837
 21
4410.599707
 31
0.0
  0
LINE
  8
SUNPOU
 10
7955.462837
 20
4560.599707
 30
0.0
 11
7959.143011
 21
4560.599707
 31
0.0
  0
TEXT
  8
SUNPOU
 10
7880.462837
 20
4624.885421
 30
0.0
 40
60.0
  1
300
 50
90.0
  7
K
 72
     1
 11
7880.462837
 21
4710.599707
 31
0.0
  0
INSERT
  8
SUNPOU
  2
ARROWANG
 10
7925.462837
 20
4860.599707
 30
0.0
 41
30.0
 42
30.0
 50
90.0
 43
30.0
  0
INSERT
  8
SUNPOU
  2
ARROWANG
 10
7925.462837
 20
4560.599707
 30
0.0
 41
30.0
 42
30.0
 50
270.0
 43
30.0
  0
LINE
  8
SUNPOU
 10
7840.055532
 20
4860.599707
 30
0.0
 11
7955.462837
 21
4860.599707
 31
0.0
  0
LINE
  8
SUNPOU
 10
7840.055532
 20
4560.599707
 30
0.0
 11
7955.462837
 21
4560.599707
 31
0.0
  0
CIRCLE
  8
HASEN
 10
7788.824472
 20
4925.599707
 30
0.0
 40
10.0
  0
LINE
  8
ITTEN
 10
7675.055532
 20
4860.599707
 30
0.0
 11
7860.055532
 21
4860.599707
 31
0.0
  0
LINE
  8
JISSEN
 10
7800.055532
 20
4870.599707
 30
0.0
 11
7710.055532
 21
4870.599707
 31
0.0
  0
LINE
  8
JISSEN
 10
7800.055532
 20
4850.599707
 30
0.0
 11
7710.055532
 21
4850.599707
 31
0.0
  0
ARC
  8
JISSEN
 10
7800.055532
 20
4860.599707
 30
0.0
 40
10.0
 50
270.0
 51
90.0
  0
ARC
  8
JISSEN
 10
7800.055532
 20
4560.599707
 30
0.0
 40
10.0
 50
270.0
 51
90.0
  0
LINE
  8
JISSEN
 10
7800.055532
 20
4550.599707
 30
0.0
 11
7710.055532
 21
4550.599707
 31
0.0
  0
LINE
  8
JISSEN
 10
7800.055532
 20
4570.599707
 30
0.0
 11
7710.055532
 21
4570.599707
 31
0.0
  0
LINE
  8
ITTEN
 10
7675.055532
 20
4560.599707
 30
0.0
 11
7860.055532
 21
4560.599707
 31
0.0
  0
LINE
  8
SUNPOU
 10
7925.462837
 20
4560.599707
 30
0.0
 11
7925.462837
 21
4860.599707
 31
0.0
  0
LINE
  8
ITTEN
 10
8160.055532
 20
5075.599707
 30
0.0
 11
8160.055532
 21
4360.599707
 31
0.0
  0
LINE
  8
JISSEN
 10
7610.055532
 20
5025.599707
 30
0.0
 11
8710.055532
 21
5025.599707
 31
0.0
  0
LINE
  8
JISSEN
 10
7710.055532
 20
5002.599707
 30
0.0
 11
7710.055532
 21
4410.599707
 31
0.0
  0
LINE
  8
JISSEN
 10
7675.055532
 20
5025.599707
 30
0.0
 11
7682.055532
 21
5002.599707
 31
0.0
  0
LINE
  8
JISSEN
 10
7682.055532
 20
5002.599707
 30
0.0
 11
8160.055532
 21
5002.599707
 31
0.0
  0
LINE
  8
JISSEN
 10
8645.055532
 20
5025.599707
 30
0.0
 11
8638.055532
 21
5002.599707
 31
0.0
  0
LINE
  8
JISSEN
 10
8638.055532
 20
5002.599707
 30
0.0
 11
8160.055532
 21
5002.599707
 31
0.0
  0
LINE
  8
JISSEN
 10
7610.055532
 20
4425.599707
 30
0.0
 11
7676.055532
 21
4425.599707
 31
0.0
  0
LINE
  8
JISSEN
 10
7676.055532
 20
4425.599707
 30
0.0
 11
7685.055532
 21
4410.599707
 31
0.0
  0
LINE
  8
JISSEN
 10
7685.055532
 20
4410.599707
 30
0.0
 11
8160.055532
 21
4410.599707
 31
0.0
  0
LINE
  8
JISSEN
 10
8710.055532
 20
4425.599707
 30
0.0
 11
8644.055532
 21
4425.599707
 31
0.0
  0
LINE
  8
JISSEN
 10
8644.055532
 20
4425.599707
 30
0.0
 11
8635.055532
 21
4410.599707
 31
0.0
  0
LINE
  8
JISSEN
 10
8635.055532
 20
4410.599707
 30
0.0
 11
8160.055532
 21
4410.599707
 31
0.0
  0
LINE
  8
JISSEN
 10
8610.055532
 20
5002.599707
 30
0.0
 11
8610.055532
 21
4760.599707
 31
0.0
  0
CIRCLE
  8
HASEN
 10
8531.286592
 20
4925.599707
 30
0.0
 40
10.0
  0
LINE
  8
SUNPOU
 10
8561.286592
 20
4925.599707
 30
0.0
 11
8917.292885
 21
4925.599707
 31
0.0
  0
LINE
  8
SUNPOU
 10
8715.055532
 20
5025.599707
 30
0.0
 11
8917.292885
 21
5025.599707
 31
0.0
  0
LINE
  8
SUNPOU
 10
8887.292885
 20
4925.599707
 30
0.0
 11
8887.292885
 21
5025.599707
 31
0.0
  0
INSERT
  8
SUNPOU
  2
ARROWANG
 10
8887.292885
 20
4925.599707
 30
0.0
 41
30.0
 42
30.0
 50
270.0
 43
30.0
  0
INSERT
  8
SUNPOU
  2
ARROWANG
 10
8887.292885
 20
5025.599707
 30
0.0
 41
30.0
 42
30.0
 50
90.0
 43
30.0
  0
TEXT
  8
SUNPOU
 10
8842.292885
 20
4885.599707
 30
0.0
 40
60.0
  1
100
 50
90.0
  7
K
 72
     1
 11
8842.292885
 21
4975.599707
 31
0.0
  0
CIRCLE
  8
HASEN
 10
8531.286592
 20
4525.599707
 30
0.0
 40
10.0
  0
LINE
  8
SUNPOU
 10
8715.055532
 20
4425.599707
 30
0.0
 11
8869.536515
 21
4425.599707
 31
0.0
  0
LINE
  8
SUNPOU
 10
8561.286592
 20
4525.599707
 30
0.0
 11
8869.536515
 21
4525.599707
 31
0.0
  0
LINE
  8
SUNPOU
 10
8839.536515
 20
4425.599707
 30
0.0
 11
8839.536515
 21
4525.599707
 31
0.0
  0
INSERT
  8
SUNPOU
  2
ARROWANG
 10
8839.536515
 20
4425.599707
 30
0.0
 41
30.0
 42
30.0
 50
270.0
 43
30.0
  0
INSERT
  8
SUNPOU
  2
ARROWANG
 10
8839.536515
 20
4525.599707
 30
0.0
 41
30.0
 42
30.0
 50
90.0
 43
30.0
  0
TEXT
  8
SUNPOU
 10
8794.536515
 20
4385.599707
 30
0.0
 40
60.0
  1
100
 50
90.0
  7
K
 72
     1
 11
8794.536515
 21
4475.599707
 31
0.0
  0
LINE
  8
SUNPOU
 10
7605.055532
 20
4425.599707
 30
0.0
 11
7409.011845
 21
4425.599707
 31
0.0
  0
LINE
  8
SUNPOU
 10
7605.055532
 20
5025.599707
 30
0.0
 11
7409.011845
 21
5025.599707
 31
0.0
  0
LINE
  8
SUNPOU
 10
7439.011845
 20
4425.599707
 30
0.0
 11
7439.011845
 21
5025.599707
 31
0.0
  0
INSERT
  8
SUNPOU
  2
ARROWANG
 10
7439.011845
 20
4425.599707
 30
0.0
 41
30.0
 42
30.0
 50
270.0
 43
30.0
  0
INSERT
  8
SUNPOU
  2
ARROWANG
 10
7439.011845
 20
5025.599707
 30
0.0
 41
30.0
 42
30.0
 50
90.0
 43
30.0
  0
TEXT
  8
SUNPOU
 10
7394.011845
 20
4638.45685
 30
0.0
 40
60.0
  1
600
 50
90.0
  7
K
 72
     1
 11
7394.011845
 21
4725.599707
 31
0.0
  0
LINE
  8
JISSEN
 10
8710.055532
 20
5025.599707
 30
0.0
 11
8710.055532
 21
4425.599707
 31
0.0
  0
LINE
  8
JISSEN
 10
7610.055532
 20
4425.599707
 30
0.0
 11
7610.055532
 21
5025.599707
 31
0.0
  0
LINE
  8
SUNPOU
 10
7610.055532
 20
5055.599707
 30
0.0
 11
7610.055532
 21
5315.552097
 31
0.0
  0
LINE
  8
SUNPOU
 10
8710.055532
 20
5055.599707
 30
0.0
 11
8710.055532
 21
5315.552097
 31
0.0
  0
LINE
  8
SUNPOU
 10
7610.055532
 20
5285.552097
 30
0.0
 11
8710.055532
 21
5285.552097
 31
0.0
  0
INSERT
  8
SUNPOU
  2
ARROWANG
 10
7610.055532
 20
5285.552097
 30
0.0
 41
30.0
 42
30.0
 50
180.0
 43
30.0
  0
INSERT
  8
SUNPOU
  2
ARROWANG
 10
8710.055532
 20
5285.552097
 30
0.0
 41
30.0
 42
30.0
 43
30.0
  0
TEXT
  8
SUNPOU
 10
8041.484118
 20
5330.552097
 30
0.0
 40
60.0
  1
1100
  7
K
 72
     1
 11
8160.055547
 21
5330.552097
 31
0.0
  0
LINE
  8
SUNPOU
 10
7610.055532
 20
5055.599707
 30
0.0
 11
7610.055532
 21
5181.217726
 31
0.0
  0
LINE
  8
SUNPOU
 10
7710.055532
 20
5032.599707
 30
0.0
 11
7710.055532
 21
5181.217726
 31
0.0
  0
LINE
  8
SUNPOU
 10
7610.055532
 20
5151.217726
 30
0.0
 11
7710.055532
 21
5151.217726
 31
0.0
  0
INSERT
  8
SUNPOU
  2
ARROWANG
 10
7610.055532
 20
5151.217726
 30
0.0
 41
30.0
 42
30.0
 50
180.0
 43
30.0
  0
INSERT
  8
SUNPOU
  2
ARROWANG
 10
7710.055532
 20
5151.217726
 30
0.0
 41
30.0
 42
30.0
 43
30.0
  0
TEXT
  8
SUNPOU
 10
7570.055547
 20
5196.217726
 30
0.0
 40
60.0
  1
100
  7
K
 72
     1
 11
7660.055547
 21
5196.217726
 31
0.0
  0
LINE
  8
SUNPOU
 10
7710.055532
 20
5151.217726
 30
0.0
 11
8610.055532
 21
5151.217726
 31
0.0
  0
LINE
  8
SUNPOU
 10
8610.055532
 20
5032.599707
 30
0.0
 11
8610.055532
 21
5181.217726
 31
0.0
  0
INSERT
  8
SUNPOU
  2
ARROWANG
 10
7710.055532
 20
5151.217726
 30
0.0
 41
30.0
 42
30.0
 50
180.0
 43
30.0
  0
INSERT
  8
SUNPOU
  2
ARROWANG
 10
8610.055532
 20
5151.217726
 30
0.0
 41
30.0
 42
30.0
 43
30.0
  0
TEXT
  8
SUNPOU
 10
8074.341246
 20
5196.217726
 30
0.0
 40
60.0
  1
900
  7
K
 72
     1
 11
8160.055532
 21
5196.217726
 31
0.0
  0
LINE
  8
SUNPOU
 10
8610.055532
 20
5151.217726
 30
0.0
 11
8710.055532
 21
5151.217726
 31
0.0
  0
LINE
  8
SUNPOU
 10
8710.055532
 20
5181.217726
 30
0.0
 11
8710.055532
 21
5181.217726
 31
0.0
  0
INSERT
  8
SUNPOU
  2
ARROWANG
 10
8610.055532
 20
5151.217726
 30
0.0
 41
30.0
 42
30.0
 50
180.0
 43
30.0
  0
INSERT
  8
SUNPOU
  2
ARROWANG
 10
8710.055532
 20
5151.217726
 30
0.0
 41
30.0
 42
30.0
 43
30.0
  0
TEXT
  8
SUNPOU
 10
8570.055532
 20
5196.217726
 30
0.0
 40
60.0
  1
100
  7
K
 72
     1
 11
8660.055532
 21
5196.217726
 31
0.0
  0
CIRCLE
  8
JISSEN
 10
6640.230003
 20
4707.599341
 30
0.0
 40
450.0
  0
CIRCLE
  8
JISSEN
 10
6640.230003
 20
4707.599341
 30
0.0
 40
478.0
  0
CIRCLE
  8
JISSEN
 10
6640.230003
 20
4707.599341
 30
0.0
 40
485.0
  0
LINE
  8
HASEN
 10
6244.317556
 20
5089.369653
 30
0.0
 11
6279.605545
 21
5054.081664
 31
0.0
  0
LINE
  8
HASEN
 10
6293.747681
 20
5068.223799
 30
0.0
 11
6279.605545
 21
5054.081664
 31
0.0
  0
LINE
  8
HASEN
 10
6293.747681
 20
5068.223799
 30
0.0
 11
6258.459691
 21
5103.511789
 31
0.0
  0
LINE
  8
ITTEN
 10
6322.031952
 20
5025.797392
 30
0.0
 11
6215.965935
 21
5131.863409
 31
0.0
  0
POINT
  8
HASEN
 10
6639.522897
 20
4708.306448
 30
0.0
  0
LINE
  8
ITTEN
 10
6958.428055
 20
4389.401289
 30
0.0
 11
7064.494072
 21
4283.335272
 31
0.0
  0
LINE
  8
HASEN
 10
6986.712326
 20
4346.974882
 30
0.0
 11
7022.000316
 21
4311.686893
 31
0.0
  0
LINE
  8
HASEN
 10
6986.712326
 20
4346.974882
 30
0.0
 11
7000.854462
 21
4361.117018
 31
0.0
  0
LINE
  8
HASEN
 10
7036.142451
 20
4325.829029
 30
0.0
 11
7000.854462
 21
4361.117018
 31
0.0
  0
LINE
  8
ITTEN
 10
6065.230003
 20
4707.599341
 30
0.0
 11
7215.230003
 21
4707.599341
 31
0.0
  0
LINE
  8
ITTEN
 10
6640.230003
 20
5282.599341
 30
0.0
 11
6640.230003
 21
4132.599341
 31
0.0
  0
LINE
  8
JISSEN
 10
6215.965935
 20
4557.599341
 30
0.0
 11
6280.230003
 21
4557.599341
 31
0.0
  0
LINE
  8
JISSEN
 10
6290.230003
 20
4847.599341
 30
0.0
 11
6290.230003
 21
4567.599341
 31
0.0
  0
LINE
  8
JISSEN
 10
6280.230003
 20
4857.599341
 30
0.0
 11
6215.965935
 21
4857.599341
 31
0.0
  0
LINE
  8
JISSEN
 10
6209.416819
 20
4577.599341
 30
0.0
 11
6260.230003
 21
4577.599341
 31
0.0
  0
LINE
  8
JISSEN
 10
6270.230003
 20
4587.599341
 30
0.0
 11
6270.230003
 21
4827.599341
 31
0.0
  0
LINE
  8
JISSEN
 10
6260.230003
 20
4837.599341
 30
0.0
 11
6209.416819
 21
4837.599341
 31
0.0
  0
ARC
  8
JISSEN
 10
6280.230003
 20
4567.599341
 30
0.0
 40
10.0
 50
270.0
 51
0.0
  0
ARC
  8
JISSEN
 10
6260.230003
 20
4587.599341
 30
0.0
 40
10.0
 50
270.0
 51
0.0
  0
ARC
  8
JISSEN
 10
6260.230003
 20
4827.599341
 30
0.0
 40
10.0
 50
0.0
 51
90.0
  0
ARC
  8
JISSEN
 10
6280.230003
 20
4847.599341
 30
0.0
 40
10.0
 50
0.0
 51
90.0
  0
CIRCLE
  8
JISSEN
 10
6640.230003
 20
4707.599341
 30
0.0
 40
550.0
  0
TEXT
  8
SUNPOU
 10
5036.355265
 20
4620.599707
 30
0.0
 40
60.0
  1
100
 50
90.0
  7
K
 72
     1
 11
5036.355265
 21
4710.599707
 31
0.0
  0
INSERT
  8
SUNPOU
  2
ARROWANG
 10
5081.355265
 20
4760.599707
 30
0.0
 41
30.0
 42
30.0
 50
90.0
 43
30.0
  0
INSERT
  8
SUNPOU
  2
ARROWANG
 10
5081.355265
 20
4660.599707
 30
0.0
 41
30.0
 42
30.0
 50
270.0
 43
30.0
  0
LINE
  8
SUNPOU
 10
5081.355265
 20
4660.599707
 30
0.0
 11
5081.355265
 21
4760.599707
 31
0.0
  0
LINE
  8
SUNPOU
 10
4988.731324
 20
4760.599707
 30
0.0
 11
5111.355265
 21
4760.599707
 31
0.0
  0
LINE
  8
SUNPOU
 10
4988.731324
 20
4660.599707
 30
0.0
 11
5111.355265
 21
4660.599707
 31
0.0
  0
TEXT
  8
SUNPOU
 10
4626.404576
 20
4861.919978
 30
0.0
 40
60.0
  1
600
  7
K
 72
     1
 11
4713.547433
 21
4861.919978
 31
0.0
  0
INSERT
  8
SUNPOU
  2
ARROWANG
 10
4358.731324
 20
4816.919978
 30
0.0
 41
30.0
 42
30.0
 50
180.0
 43
30.0
  0
INSERT
  8
SUNPOU
  2
ARROWANG
 10
4958.731324
 20
4816.919978
 30
0.0
 41
30.0
 42
30.0
 43
30.0
  0
LINE
  8
SUNPOU
 10
4358.731324
 20
4816.919978
 30
0.0
 11
4958.731324
 21
4816.919978
 31
0.0
  0
LINE
  8
SUNPOU
 10
4958.731324
 20
4790.599707
 30
0.0
 11
4958.731324
 21
4846.919978
 31
0.0
  0
LINE
  8
SUNPOU
 10
4358.731324
 20
4840.599707
 30
0.0
 11
4358.731324
 21
4786.919978
 31
0.0
  0
LINE
  8
JISSEN
 10
5258.731324
 20
4660.599707
 30
0.0
 11
5258.731324
 21
4410.599707
 31
0.0
  0
LINE
  8
JISSEN
 10
4958.731324
 20
4760.599707
 30
0.0
 11
4958.731324
 21
4660.599707
 31
0.0
  0
LINE
  8
JISSEN
 10
4473.731324
 20
4760.599707
 30
0.0
 11
5258.731324
 21
4760.599707
 31
0.0
  0
LINE
  8
JISSEN
 10
4473.731324
 20
4760.599707
 30
0.0
 11
4473.731324
 21
4660.599707
 31
0.0
  0
LINE
  8
JISSEN
 10
5258.731324
 20
4660.599707
 30
0.0
 11
4473.731324
 21
4660.599707
 31
0.0
  0
POINT
  8
SUNPOU
 10
3321.747886
 20
4727.705548
 30
0.0
  0
TEXT
  8
SUNPOU
 10
3311.136938
 20
4748.173252
 30
0.0
 40
60.0
  1
%%C900
 50
33.091147
  7
K
 72
     1
 11
3402.098415
 21
4807.450269
 31
0.0
  0
INSERT
  8
SUNPOU
  2
ARROWANG
 10
3699.759274
 20
4973.393183
 30
0.0
 41
30.0
 42
30.0
 50
33.091147
 43
30.0
  0
INSERT
  8
SUNPOU
  2
ARROWANG
 10
2945.736499
 20
4482.017913
 30
0.0
 41
30.0
 42
30.0
 50
213.091147
 43
30.0
  0
LINE
  8
SUNPOU
 10
2945.736499
 20
4482.017913
 30
0.0
 11
3699.759274
 21
4973.393183
 31
0.0
  0
TEXT
  8
SUNPOU
 10
3159.397376
 20
4781.80135
 30
0.0
 40
60.0
  1
R300
 50
49.998596
  7
K
 72
     1
 11
3234.697553
 21
4871.536139
 31
0.0
  0
INSERT
  8
SUNPOU
  2
ARROWANG
 10
3365.589801
 20
4957.514156
 30
0.0
 41
30.0
 42
30.0
 50
49.998596
 43
30.0
  0
LINE
  8
SUNPOU
 10
3365.589801
 20
4957.514156
 30
0.0
 11
3172.747886
 21
4727.705548
 31
0.0
  0
LINE
  8
JISSEN
 10
2987.33769
 20
4427.705548
 30
0.0
 11
3172.747886
 21
4427.705548
 31
0.0
  0
LINE
  8
JISSEN
 10
2987.33769
 20
5027.705548
 30
0.0
 11
3172.747886
 21
5027.705548
 31
0.0
  0
ARC
  8
JISSEN
 10
3172.747886
 20
4727.705548
 30
0.0
 40
300.0
 50
270.0
 51
90.0
  0
TEXT
  8
SUNPOU
 10
4042.687637
 20
4638.45685
 30
0.0
 40
60.0
  1
600
 50
90.0
  7
K
 72
     1
 11
4042.687637
 21
4725.599707
 31
0.0
  0
INSERT
  8
SUNPOU
  2
ARROWANG
 10
4087.687637
 20
5025.599707
 30
0.0
 41
30.0
 42
30.0
 50
90.0
 43
30.0
  0
INSERT
  8
SUNPOU
  2
ARROWANG
 10
4087.687637
 20
4425.599707
 30
0.0
 41
30.0
 42
30.0
 50
270.0
 43
30.0
  0
LINE
  8
SUNPOU
 10
4087.687637
 20
4425.599707
 30
0.0
 11
4087.687637
 21
5025.599707
 31
0.0
  0
LINE
  8
SUNPOU
 10
4253.731324
 20
5025.599707
 30
0.0
 11
4057.687637
 21
5025.599707
 31
0.0
  0
LINE
  8
SUNPOU
 10
4253.731324
 20
4425.599707
 30
0.0
 11
4057.687637
 21
4425.599707
 31
0.0
  0
TEXT
  8
SUNPOU
 10
5443.212307
 20
4385.599707
 30
0.0
 40
60.0
  1
100
 50
90.0
  7
K
 72
     1
 11
5443.212307
 21
4475.599707
 31
0.0
  0
INSERT
  8
SUNPOU
  2
ARROWANG
 10
5488.212307
 20
4525.599707
 30
0.0
 41
30.0
 42
30.0
 50
90.0
 43
30.0
  0
INSERT
  8
SUNPOU
  2
ARROWANG
 10
5488.212307
 20
4425.599707
 30
0.0
 41
30.0
 42
30.0
 50
270.0
 43
30.0
  0
LINE
  8
SUNPOU
 10
5488.212307
 20
4425.599707
 30
0.0
 11
5488.212307
 21
4525.599707
 31
0.0
  0
LINE
  8
SUNPOU
 10
5209.962384
 20
4525.599707
 30
0.0
 11
5518.212307
 21
4525.599707
 31
0.0
  0
LINE
  8
SUNPOU
 10
5363.731324
 20
4425.599707
 30
0.0
 11
5518.212307
 21
4425.599707
 31
0.0
  0
TEXT
  8
SUNPOU
 10
5490.968677
 20
4885.599707
 30
0.0
 40
60.0
  1
100
 50
90.0
  7
K
 72
     1
 11
5490.968677
 21
4975.599707
 31
0.0
  0
INSERT
  8
SUNPOU
  2
ARROWANG
 10
5535.968677
 20
5025.599707
 30
0.0
 41
30.0
 42
30.0
 50
90.0
 43
30.0
  0
INSERT
  8
SUNPOU
  2
ARROWANG
 10
5535.968677
 20
4925.599707
 30
0.0
 41
30.0
 42
30.0
 50
270.0
 43
30.0
  0
LINE
  8
SUNPOU
 10
5535.968677
 20
4925.599707
 30
0.0
 11
5535.968677
 21
5025.599707
 31
0.0
  0
LINE
  8
SUNPOU
 10
5363.731324
 20
5025.599707
 30
0.0
 11
5565.968677
 21
5025.599707
 31
0.0
  0
LINE
  8
SUNPOU
 10
5209.962384
 20
4925.599707
 30
0.0
 11
5565.968677
 21
4925.599707
 31
0.0
  0
TEXT
  8
SUNPOU
 10
5355.029177
 20
5162.37777
 30
0.0
 40
60.0
  1
75
  7
K
  0
LINE
  8
SUNPOU
 10
5333.731324
 20
5120.966856
 30
0.0
 11
5465.731324
 21
5120.966856
 31
0.0
  0
INSERT
  8
SUNPOU
  2
ARROWANG
 10
5258.731324
 20
5120.966856
 30
0.0
 41
30.0
 42
30.0
 50
180.0
 43
30.0
  0
INSERT
  8
SUNPOU
  2
ARROWANG
 10
5333.731324
 20
5120.966856
 30
0.0
 41
30.0
 42
30.0
 43
30.0
  0
LINE
  8
SUNPOU
 10
5333.731324
 20
5055.599707
 30
0.0
 11
5333.731324
 21
5150.966856
 31
0.0
  0
LINE
  8
SUNPOU
 10
5258.731324
 20
5120.966856
 30
0.0
 11
5333.731324
 21
5120.966856
 31
0.0
  0
TEXT
  8
SUNPOU
 10
4723.017038
 20
5165.966856
 30
0.0
 40
60.0
  1
900
  7
K
 72
     1
 11
4808.731324
 21
5165.966856
 31
0.0
  0
INSERT
  8
SUNPOU
  2
ARROWANG
 10
5258.731324
 20
5120.966856
 30
0.0
 41
30.0
 42
30.0
 43
30.0
  0
INSERT
  8
SUNPOU
  2
ARROWANG
 10
4358.731324
 20
5120.966856
 30
0.0
 41
30.0
 42
30.0
 50
180.0
 43
30.0
  0
LINE
  8
SUNPOU
 10
5258.731324
 20
5032.599707
 30
0.0
 11
5258.731324
 21
5150.966856
 31
0.0
  0
LINE
  8
SUNPOU
 10
4358.731324
 20
5120.966856
 30
0.0
 11
5258.731324
 21
5120.966856
 31
0.0
  0
TEXT
  8
SUNPOU
 10
4160.588466
 20
5165.966856
 30
0.0
 40
60.0
  1
75
  7
K
 72
     1
 11
4217.731324
 21
5165.966856
 31
0.0
  0
INSERT
  8
SUNPOU
  2
ARROWANG
 10
4283.731324
 20
5120.966856
 30
0.0
 41
30.0
 42
30.0
 50
180.0
 43
30.0
  0
INSERT
  8
SUNPOU
  2
ARROWANG
 10
4358.731324
 20
5120.966856
 30
0.0
 41
30.0
 42
30.0
 43
30.0
  0
LINE
  8
SUNPOU
 10
4283.731324
 20
5120.966856
 30
0.0
 11
4358.731324
 21
5120.966856
 31
0.0
  0
LINE
  8
SUNPOU
 10
4358.731324
 20
5032.599707
 30
0.0
 11
4358.731324
 21
5150.966856
 31
0.0
  0
LINE
  8
SUNPOU
 10
4283.731324
 20
5055.599707
 30
0.0
 11
4283.731324
 21
5150.966856
 31
0.0
  0
TEXT
  8
SUNPOU
 10
4690.15991
 20
5299.275774
 30
0.0
 40
60.0
  1
1050
  7
K
 72
     1
 11
4808.731338
 21
5299.275774
 31
0.0
  0
INSERT
  8
SUNPOU
  2
ARROWANG
 10
5333.731324
 20
5254.275774
 30
0.0
 41
30.0
 42
30.0
 43
30.0
  0
INSERT
  8
SUNPOU
  2
ARROWANG
 10
4283.731324
 20
5254.275774
 30
0.0
 41
30.0
 42
30.0
 50
180.0
 43
30.0
  0
LINE
  8
SUNPOU
 10
4283.731324
 20
5254.275774
 30
0.0
 11
5333.731324
 21
5254.275774
 31
0.0
  0
LINE
  8
SUNPOU
 10
5333.731324
 20
5055.599707
 30
0.0
 11
5333.731324
 21
5284.275774
 31
0.0
  0
LINE
  8
SUNPOU
 10
4283.731324
 20
5055.599707
 30
0.0
 11
4283.731324
 21
5284.275774
 31
0.0
  0
LINE
  8
JISSEN
 10
5258.731324
 20
5002.599707
 30
0.0
 11
5258.731324
 21
4760.599707
 31
0.0
  0
LINE
  8
JISSEN
 10
5283.731324
 20
4410.599707
 30
0.0
 11
4808.731324
 21
4410.599707
 31
0.0
  0
LINE
  8
JISSEN
 10
5292.731324
 20
4425.599707
 30
0.0
 11
5283.731324
 21
4410.599707
 31
0.0
  0
LINE
  8
JISSEN
 10
5333.731324
 20
4425.599707
 30
0.0
 11
5292.731324
 21
4425.599707
 31
0.0
  0
LINE
  8
JISSEN
 10
4333.731324
 20
4410.599707
 30
0.0
 11
4808.731324
 21
4410.599707
 31
0.0
  0
LINE
  8
JISSEN
 10
4324.731324
 20
4425.599707
 30
0.0
 11
4333.731324
 21
4410.599707
 31
0.0
  0
LINE
  8
JISSEN
 10
4283.731324
 20
4425.599707
 30
0.0
 11
4324.731324
 21
4425.599707
 31
0.0
  0
LINE
  8
JISSEN
 10
5286.731324
 20
5002.599707
 30
0.0
 11
4808.731324
 21
5002.599707
 31
0.0
  0
LINE
  8
JISSEN
 10
5293.731324
 20
5025.599707
 30
0.0
 11
5286.731324
 21
5002.599707
 31
0.0
  0
LINE
  8
JISSEN
 10
4330.731324
 20
5002.599707
 30
0.0
 11
4808.731324
 21
5002.599707
 31
0.0
  0
LINE
  8
JISSEN
 10
4323.731324
 20
5025.599707
 30
0.0
 11
4330.731324
 21
5002.599707
 31
0.0
  0
LINE
  8
JISSEN
 10
4358.731324
 20
5002.599707
 30
0.0
 11
4358.731324
 21
4410.599707
 31
0.0
  0
LINE
  8
JISSEN
 10
4283.731324
 20
5025.599707
 30
0.0
 11
4283.731324
 21
4425.599707
 31
0.0
  0
LINE
  8
JISSEN
 10
5333.731324
 20
5025.599707
 30
0.0
 11
5333.731324
 21
4425.599707
 31
0.0
  0
LINE
  8
JISSEN
 10
4283.731324
 20
5025.599707
 30
0.0
 11
5333.731324
 21
5025.599707
 31
0.0
  0
LINE
  8
ITTEN
 10
4808.731324
 20
5075.599707
 30
0.0
 11
4808.731324
 21
4360.599707
 31
0.0
  0
LINE
  8
SUNPOU
 10
4574.138629
 20
4560.599707
 30
0.0
 11
4574.138629
 21
4860.599707
 31
0.0
  0
LINE
  8
ITTEN
 10
4323.731324
 20
4560.599707
 30
0.0
 11
4508.731324
 21
4560.599707
 31
0.0
  0
LINE
  8
JISSEN
 10
4448.731324
 20
4570.599707
 30
0.0
 11
4358.731324
 21
4570.599707
 31
0.0
  0
LINE
  8
JISSEN
 10
4448.731324
 20
4550.599707
 30
0.0
 11
4358.731324
 21
4550.599707
 31
0.0
  0
ARC
  8
JISSEN
 10
4448.731324
 20
4560.599707
 30
0.0
 40
10.0
 50
270.0
 51
90.0
  0
ARC
  8
JISSEN
 10
4448.731324
 20
4860.599707
 30
0.0
 40
10.0
 50
270.0
 51
90.0
  0
LINE
  8
JISSEN
 10
4448.731324
 20
4850.599707
 30
0.0
 11
4358.731324
 21
4850.599707
 31
0.0
  0
LINE
  8
JISSEN
 10
4448.731324
 20
4870.599707
 30
0.0
 11
4358.731324
 21
4870.599707
 31
0.0
  0
LINE
  8
ITTEN
 10
4323.731324
 20
4860.599707
 30
0.0
 11
4508.731324
 21
4860.599707
 31
0.0
  0
CIRCLE
  8
HASEN
 10
4437.500263
 20
4925.599707
 30
0.0
 40
10.0
  0
LINE
  8
SUNPOU
 10
4488.731324
 20
4560.599707
 30
0.0
 11
4604.138629
 21
4560.599707
 31
0.0
  0
LINE
  8
SUNPOU
 10
4488.731324
 20
4860.599707
 30
0.0
 11
4604.138629
 21
4860.599707
 31
0.0
  0
INSERT
  8
SUNPOU
  2
ARROWANG
 10
4574.138629
 20
4560.599707
 30
0.0
 41
30.0
 42
30.0
 50
270.0
 43
30.0
  0
INSERT
  8
SUNPOU
  2
ARROWANG
 10
4574.138629
 20
4860.599707
 30
0.0
 41
30.0
 42
30.0
 50
90.0
 43
30.0
  0
TEXT
  8
SUNPOU
 10
4529.138629
 20
4624.885421
 30
0.0
 40
60.0
  1
300
 50
90.0
  7
K
 72
     1
 11
4529.138629
 21
4710.599707
 31
0.0
  0
LINE
  8
SUNPOU
 10
4604.138629
 20
4560.599707
 30
0.0
 11
4607.818802
 21
4560.599707
 31
0.0
  0
LINE
  8
SUNPOU
 10
4388.731324
 20
4410.599707
 30
0.0
 11
4604.138629
 21
4410.599707
 31
0.0
  0
LINE
  8
SUNPOU
 10
4544.138629
 20
4560.599707
 30
0.0
 11
4544.138629
 21
4560.599707
 31
0.0
  0
LINE
  8
SUNPOU
 10
4574.138629
 20
4410.599707
 30
0.0
 11
4574.138629
 21
4560.599707
 31
0.0
  0
INSERT
  8
SUNPOU
  2
ARROWANG
 10
4574.138629
 20
4410.599707
 30
0.0
 41
30.0
 42
30.0
 50
270.0
 43
30.0
  0
INSERT
  8
SUNPOU
  2
ARROWANG
 10
4574.138629
 20
4560.599707
 30
0.0
 41
30.0
 42
30.0
 50
90.0
 43
30.0
  0
TEXT
  8
SUNPOU
 10
4529.138629
 20
4395.599707
 30
0.0
 40
60.0
  1
150
 50
90.0
  7
K
 72
     1
 11
4529.138629
 21
4485.599707
 31
0.0
  0
CIRCLE
  8
HASEN
 10
4437.500263
 20
4525.599707
 30
0.0
 40
10.0
  0
ARC
  8
JISSEN
 10
2962.747886
 20
4867.705548
 30
0.0
 40
10.0
 50
0.0
 51
90.0
  0
ARC
  8
JISSEN
 10
2942.747886
 20
4847.705548
 30
0.0
 40
10.0
 50
0.0
 51
90.0
  0
ARC
  8
JISSEN
 10
2942.747886
 20
4607.705548
 30
0.0
 40
10.0
 50
270.0
 51
0.0
  0
ARC
  8
JISSEN
 10
2962.747886
 20
4587.705548
 30
0.0
 40
10.0
 50
270.0
 51
0.0
  0
LINE
  8
JISSEN
 10
2942.747886
 20
4857.705548
 30
0.0
 11
2891.934702
 21
4857.705548
 31
0.0
  0
LINE
  8
JISSEN
 10
2952.747886
 20
4607.705548
 30
0.0
 11
2952.747886
 21
4847.705548
 31
0.0
  0
LINE
  8
JISSEN
 10
2891.934702
 20
4597.705548
 30
0.0
 11
2942.747886
 21
4597.705548
 31
0.0
  0
LINE
  8
JISSEN
 10
2962.747886
 20
4877.705548
 30
0.0
 11
2898.483818
 21
4877.705548
 31
0.0
  0
LINE
  8
JISSEN
 10
2972.747886
 20
4867.705548
 30
0.0
 11
2972.747886
 21
4587.705548
 31
0.0
  0
LINE
  8
JISSEN
 10
2898.483818
 20
4577.705548
 30
0.0
 11
2962.747886
 21
4577.705548
 31
0.0
  0
LINE
  8
ITTEN
 10
3322.747886
 20
5302.705548
 30
0.0
 11
3322.747886
 21
4152.705548
 31
0.0
  0
LINE
  8
ITTEN
 10
2747.747886
 20
4727.705548
 30
0.0
 11
3897.747886
 21
4727.705548
 31
0.0
  0
LINE
  8
HASEN
 10
3700.982665
 20
4363.612906
 30
0.0
 11
3665.694675
 21
4398.900895
 31
0.0
  0
LINE
  8
HASEN
 10
3651.55254
 20
4384.75876
 30
0.0
 11
3665.694675
 21
4398.900895
 31
0.0
  0
LINE
  8
HASEN
 10
3651.55254
 20
4384.75876
 30
0.0
 11
3686.840529
 21
4349.47077
 31
0.0
  0
LINE
  8
ITTEN
 10
3623.268268
 20
4427.185166
 30
0.0
 11
3729.334286
 21
4321.119149
 31
0.0
  0
POINT
  8
HASEN
 10
3322.04078
 20
4728.412655
 30
0.0
  0
LINE
  8
ITTEN
 10
3022.227504
 20
5028.22593
 30
0.0
 11
2916.161487
 21
5134.291948
 31
0.0
  0
LINE
  8
HASEN
 10
2993.943233
 20
5070.652337
 30
0.0
 11
2958.655244
 21
5105.940327
 31
0.0
  0
LINE
  8
HASEN
 10
2993.943233
 20
5070.652337
 30
0.0
 11
2979.801098
 21
5056.510202
 31
0.0
  0
LINE
  8
HASEN
 10
2944.513108
 20
5091.798191
 30
0.0
 11
2979.801098
 21
5056.510202
 31
0.0
  0
CIRCLE
  8
JISSEN
 10
3322.747886
 20
4727.705548
 30
0.0
 40
485.0
  0
CIRCLE
  8
JISSEN
 10
3322.747886
 20
4727.705548
 30
0.0
 40
478.0
  0
CIRCLE
  8
JISSEN
 10
3322.747886
 20
4727.705548
 30
0.0
 40
450.0
  0
CIRCLE
  8
JISSEN
 10
3322.747886
 20
4727.705548
 30
0.0
 40
525.0
  0
LINE
  8
ITTEN
 10
6958.428055
 20
5025.797392
 30
0.0
 11
7064.494072
 21
5131.863409
 31
0.0
  0
LINE
  8
HASEN
 10
6986.712326
 20
5068.223799
 30
0.0
 11
7022.000316
 21
5103.511789
 31
0.0
  0
LINE
  8
HASEN
 10
6986.712326
 20
5068.223799
 30
0.0
 11
7000.854462
 21
5054.081664
 31
0.0
  0
LINE
  8
HASEN
 10
7036.142451
 20
5089.369653
 30
0.0
 11
7000.854462
 21
5054.081664
 31
0.0
  0
LINE
  8
HASEN
 10
6244.317556
 20
4325.829029
 30
0.0
 11
6279.605545
 21
4361.117018
 31
0.0
  0
LINE
  8
HASEN
 10
6293.747681
 20
4346.974882
 30
0.0
 11
6279.605545
 21
4361.117018
 31
0.0
  0
LINE
  8
HASEN
 10
6293.747681
 20
4346.974882
 30
0.0
 11
6258.459691
 21
4311.686893
 31
0.0
  0
LINE
  8
ITTEN
 10
6322.031952
 20
4389.401289
 30
0.0
 11
6215.965935
 21
4283.335272
 31
0.0
  0
POLYLINE
  8
WAKU
 66
     1
 10
0.0
 20
0.0
 30
0.0
 70
     1
  0
VERTEX
  8
WAKU
 10
0.0
 20
0.0
 30
0.0
  0
VERTEX
  8
WAKU
 10
11850.0
 20
0.0
 30
0.0
  0
VERTEX
  8
WAKU
 10
11850.0
 20
8190.0
 30
0.0
  0
VERTEX
  8
WAKU
 10
0.0
 20
8190.0
 30
0.0
  0
SEQEND
  8
WAKU
  0
TEXT
  8
TEXT
 10
11328.735736
 20
846.6282
 30
0.0
 40
120.0
  1
1/30
  7
K
  0
ENDSEC
  0
EOF
