  0
SECTION
  2
HEADER
  9
$ACADVER
  1
AC1009
  9
$INSBASE
 10
0.0
 20
0.0
 30
0.0
  9
$EXTMIN
 10
0.0
 20
0.0
 30
0.0
  9
$EXTMAX
 10
11850.0
 20
8190.0
 30
0.0
  9
$LIMMIN
 10
0.0
 20
0.0
  9
$LIMMAX
 10
11850.0
 20
8190.0
  9
$ORTHOMODE
 70
     0
  9
$REGENMODE
 70
     1
  9
$FILLMODE
 70
     1
  9
$QTEXTMODE
 70
     0
  9
$MIRRTEXT
 70
     0
  9
$DRAGMODE
 70
     2
  9
$LTSCALE
 40
150.0
  9
$OSMODE
 70
    33
  9
$ATTMODE
 70
     1
  9
$TEXTSIZE
 40
350.0
  9
$TRACEWID
 40
0.05
  9
$TEXTSTYLE
  7
K
  9
$CLAYER
  8
TEXT
  9
$CELTYPE
  6
BYLAYER
  9
$CECOLOR
 62
   256
  9
$DIMSCALE
 40
30.0
  9
$DIMASZ
 40
1.5
  9
$DIMEXO
 40
1.0
  9
$DIMDLI
 40
6.0
  9
$DIMRND
 40
0.0
  9
$DIMDLE
 40
0.0
  9
$DIMEXE
 40
1.0
  9
$DIMTP
 40
495.0
  9
$DIMTM
 40
0.0
  9
$DIMTXT
 40
3.0
  9
$DIMCEN
 40
0.0
  9
$DIMTSZ
 40
0.0
  9
$DIMTOL
 70
     0
  9
$DIMLIM
 70
     0
  9
$DIMTIH
 70
     0
  9
$DIMTOH
 70
     0
  9
$DIMSE1
 70
     0
  9
$DIMSE2
 70
     0
  9
$DIMTAD
 70
     1
  9
$DIMZIN
 70
     8
  9
$DIMBLK
  1
ARROW
  9
$DIMASO
 70
     0
  9
$DIMSHO
 70
     0
  9
$DIMPOST
  1

  9
$DIMAPOST
  1

  9
$DIMALT
 70
     0
  9
$DIMALTD
 70
     2
  9
$DIMALTF
 40
25.4
  9
$DIMLFAC
 40
1.0
  9
$DIMTOFL
 70
     1
  9
$DIMTVP
 40
0.0
  9
$DIMTIX
 70
     1
  9
$DIMSOXD
 70
     0
  9
$DIMSAH
 70
     0
  9
$DIMBLK1
  1

  9
$DIMBLK2
  1

  9
$DIMSTYLE
  2
*UNNAMED
  9
$DIMCLRD
 70
     0
  9
$DIMCLRE
 70
     0
  9
$DIMCLRT
 70
     0
  9
$DIMTFAC
 40
1.0
  9
$DIMGAP
 40
0.09
  9
$LUNITS
 70
     2
  9
$LUPREC
 70
     2
  9
$AXISMODE
 70
     1
  9
$AXISUNIT
 10
100.0
 20
100.0
  9
$SKETCHINC
 40
0.1
  9
$FILLETRAD
 40
10.0
  9
$AUNITS
 70
     0
  9
$AUPREC
 70
     2
  9
$MENU
  1
d:stdgx5
  9
$ELEVATION
 40
0.0
  9
$PELEVATION
 40
0.0
  9
$THICKNESS
 40
0.0
  9
$LIMCHECK
 70
     0
  9
$BLIPMODE
 70
     1
  9
$CHAMFERA
 40
0.0
  9
$CHAMFERB
 40
0.0
  9
$SKPOLY
 70
     0
  9
$TDCREATE
 40
2450246.742962962
  9
$TDUPDATE
 40
2450249.713680555
  9
$TDINDWG
 40
0.0070833333
  9
$TDUSRTIMER
 40
0.0070833333
  9
$USRTIMER
 70
     1
  9
$ANGBASE
 50
0.0
  9
$ANGDIR
 70
     0
  9
$PDMODE
 70
     0
  9
$PDSIZE
 40
0.0
  9
$PLINEWID
 40
0.0
  9
$COORDS
 70
     2
  9
$SPLFRAME
 70
     0
  9
$SPLINETYPE
 70
     6
  9
$SPLINESEGS
 70
     8
  9
$ATTDIA
 70
     0
  9
$ATTREQ
 70
     1
  9
$HANDLING
 70
     0
  9
$HANDSEED
  5
0
  9
$SURFTAB1
 70
     6
  9
$SURFTAB2
 70
     6
  9
$SURFTYPE
 70
     6
  9
$SURFU
 70
     6
  9
$SURFV
 70
     6
  9
$UCSNAME
  2

  9
$UCSORG
 10
0.0
 20
0.0
 30
0.0
  9
$UCSXDIR
 10
1.0
 20
0.0
 30
0.0
  9
$UCSYDIR
 10
0.0
 20
1.0
 30
0.0
  9
$PUCSNAME
  2

  9
$PUCSORG
 10
0.0
 20
0.0
 30
0.0
  9
$PUCSXDIR
 10
1.0
 20
0.0
 30
0.0
  9
$PUCSYDIR
 10
0.0
 20
1.0
 30
0.0
  9
$USERI1
 70
     3
  9
$USERI2
 70
    33
  9
$USERI3
 70
     0
  9
$USERI4
 70
     1
  9
$USERI5
 70
     0
  9
$USERR1
 40
30.0
  9
$USERR2
 40
3.0
  9
$USERR3
 40
3.0
  9
$USERR4
 40
1.5
  9
$USERR5
 40
10.0
  9
$WORLDVIEW
 70
     1
  9
$SHADEDGE
 70
     3
  9
$SHADEDIF
 70
    70
  9
$TILEMODE
 70
     1
  9
$MAXACTVP
 70
    16
  9
$PINSBASE
 10
0.0
 20
0.0
 30
0.0
  9
$PLIMCHECK
 70
     0
  9
$PEXTMIN
 10
1.000000E+20
 20
1.000000E+20
 30
1.000000E+20
  9
$PEXTMAX
 10
-1.000000E+20
 20
-1.000000E+20
 30
-1.000000E+20
  9
$PLIMMIN
 10
0.0
 20
0.0
  9
$PLIMMAX
 10
12.0
 20
9.0
  9
$UNITMODE
 70
     0
  9
$VISRETAIN
 70
     0
  0
ENDSEC
  0
SECTION
  2
TABLES
  0
TABLE
  2
VPORT
 70
    10
  0
VPORT
  2
*ACTIVE
 70
     0
 10
0.0
 20
0.0
 11
1.0
 21
1.0
 12
6691.515737
 22
4095.0
 13
0.0
 23
0.0
 14
1.0
 24
1.0
 15
10.0
 25
10.0
 16
0.0
 26
0.0
 36
1.0
 17
0.0
 27
0.0
 37
0.0
 40
8190.0
 41
1.63407
 42
50.0
 43
0.0
 44
0.0
 50
0.0
 51
0.0
 71
     0
 72
   500
 73
     1
 74
     0
 75
     0
 76
     0
 77
     0
 78
     0
  0
VPORT
  2
2
 70
     0
 10
0.5
 20
0.0
 11
1.0
 21
1.0
 12
0.924031
 22
1.052651
 13
0.0
 23
0.0
 14
1.0
 24
1.0
 15
10.0
 25
10.0
 16
0.0
 26
0.0
 36
1.0
 17
0.0
 27
0.0
 37
0.0
 40
2.105302
 41
0.877814
 42
50.0
 43
0.0
 44
0.0
 50
0.0
 51
0.0
 71
     0
 72
   500
 73
     1
 74
     1
 75
     0
 76
     0
 77
     0
 78
     0
  0
VPORT
  2
2
 70
     0
 10
0.0
 20
0.0
 11
0.5
 21
1.0
 12
0.924031
 22
1.052651
 13
0.0
 23
0.0
 14
1.0
 24
1.0
 15
10.0
 25
10.0
 16
0.0
 26
0.0
 36
1.0
 17
0.0
 27
0.0
 37
0.0
 40
2.105302
 41
0.877814
 42
50.0
 43
0.0
 44
0.0
 50
0.0
 51
0.0
 71
     0
 72
   500
 73
     1
 74
     1
 75
     0
 76
     0
 77
     0
 78
     0
  0
VPORT
  2
3
 70
     0
 10
0.0
 20
0.5
 11
1.0
 21
1.0
 12
2.83217
 22
1.052651
 13
0.0
 23
0.0
 14
1.0
 24
1.0
 15
10.0
 25
10.0
 16
0.0
 26
0.0
 36
1.0
 17
0.0
 27
0.0
 37
0.0
 40
2.105302
 41
3.571429
 42
50.0
 43
0.0
 44
0.0
 50
0.0
 51
0.0
 71
     0
 72
   500
 73
     1
 74
     1
 75
     0
 76
     0
 77
     0
 78
     0
  0
VPORT
  2
3
 70
     0
 10
0.0
 20
0.0
 11
1.0
 21
0.5
 12
2.856742
 22
1.052651
 13
0.0
 23
0.0
 14
1.0
 24
1.0
 15
10.0
 25
10.0
 16
0.0
 26
0.0
 36
1.0
 17
0.0
 27
0.0
 37
0.0
 40
2.105302
 41
3.594771
 42
50.0
 43
0.0
 44
0.0
 50
0.0
 51
0.0
 71
     0
 72
   500
 73
     1
 74
     1
 75
     0
 76
     0
 77
     0
 78
     0
  0
VPORT
  2
4
 70
     0
 10
0.5
 20
0.0
 11
1.0
 21
0.5
 12
2.886858
 22
1.052651
 13
0.0
 23
0.0
 14
1.0
 24
1.0
 15
10.0
 25
10.0
 16
0.0
 26
0.0
 36
1.0
 17
0.0
 27
0.0
 37
0.0
 40
4.275207
 41
1.784314
 42
50.0
 43
0.0
 44
0.0
 50
0.0
 51
0.0
 71
     0
 72
   500
 73
     1
 74
     1
 75
     0
 76
     0
 77
     0
 78
     0
  0
VPORT
  2
4
 70
     0
 10
0.5
 20
0.5
 11
1.0
 21
1.0
 12
2.86209
 22
1.052651
 13
0.0
 23
0.0
 14
1.0
 24
1.0
 15
10.0
 25
10.0
 16
0.0
 26
0.0
 36
1.0
 17
0.0
 27
0.0
 37
0.0
 40
4.275207
 41
1.772727
 42
50.0
 43
0.0
 44
0.0
 50
0.0
 51
0.0
 71
     0
 72
   500
 73
     1
 74
     1
 75
     0
 76
     0
 77
     0
 78
     0
  0
VPORT
  2
4
 70
     0
 10
0.0
 20
0.5
 11
0.5
 21
1.0
 12
2.86209
 22
1.052651
 13
0.0
 23
0.0
 14
1.0
 24
1.0
 15
10.0
 25
10.0
 16
0.0
 26
0.0
 36
1.0
 17
0.0
 27
0.0
 37
0.0
 40
4.275207
 41
1.772727
 42
50.0
 43
0.0
 44
0.0
 50
0.0
 51
0.0
 71
     0
 72
   500
 73
     1
 74
     1
 75
     0
 76
     0
 77
     0
 78
     0
  0
VPORT
  2
4
 70
     0
 10
0.0
 20
0.0
 11
0.5
 21
0.5
 12
2.886858
 22
1.052651
 13
0.0
 23
0.0
 14
1.0
 24
1.0
 15
10.0
 25
10.0
 16
0.0
 26
0.0
 36
1.0
 17
0.0
 27
0.0
 37
0.0
 40
4.275207
 41
1.784314
 42
50.0
 43
0.0
 44
0.0
 50
0.0
 51
0.0
 71
     0
 72
   500
 73
     1
 74
     1
 75
     0
 76
     0
 77
     0
 78
     0
  0
ENDTAB
  0
TABLE
  2
LTYPE
 70
     5
  0
LTYPE
  2
CONTINUOUS
 70
    64
  3
実線
 72
    65
 73
     0
 40
0.0
  0
LTYPE
  2
DASHED
 70
    64
  3
__ __ __ __ __ __ __ __ __ __ __ __ __ __ __
 72
    65
 73
     2
 40
0.75
 49
0.5
 49
-0.25
  0
LTYPE
  2
CENTER
 70
    64
  3
____ _ ____ _ ____ _ ____ _ ____ _ ____ _ ____
 72
    65
 73
     4
 40
2.0
 49
1.25
 49
-0.25
 49
0.25
 49
-0.25
  0
LTYPE
  2
PHANTOM
 70
    64
  3
_____ _ _ _____ _ _ _____ _ _ _____ _ _ ____
 72
    65
 73
     6
 40
2.5
 49
1.25
 49
-0.25
 49
0.25
 49
-0.25
 49
0.25
 49
-0.25
  0
LTYPE
  2
HIDDEN
 70
    64
  3
_ _ _ _ _ _ _ _ _ _ _ _ _ _ _ _ _ _ _ _ _ _ _
 72
    65
 73
     2
 40
0.375
 49
0.25
 49
-0.125
  0
ENDTAB
  0
TABLE
  2
LAYER
 70
    14
  0
LAYER
  2
0
 70
     0
 62
     7
  6
CONTINUOUS
  0
LAYER
  2
HASEN
 70
    64
 62
     2
  6
DASHED
  0
LAYER
  2
ITTEN
 70
    64
 62
     1
  6
CENTER
  0
LAYER
  2
SUNPOU
 70
    64
 62
     3
  6
CONTINUOUS
  0
LAYER
  2
TEXT
 70
    64
 62
     3
  6
CONTINUOUS
  0
LAYER
  2
SAISEN
 70
    64
 62
     4
  6
CONTINUOUS
  0
LAYER
  2
JISSEN
 70
    64
 62
     7
  6
CONTINUOUS
  0
LAYER
  2
WAKU
 70
    64
 62
    -5
  6
CONTINUOUS
  0
ENDTAB
  0
TABLE
  2
STYLE
 70
     2
  0
STYLE
  2
STANDARD
 70
     0
 40
0.0
 41
1.0
 50
0.0
 71
     0
 42
0.2
  3
ROMANS
  4
EXTFONT
  0
STYLE
  2
K
 70
    64
 40
0.0
 41
1.0
 50
0.0
 71
     0
 42
350.0
  3
ROMANS
  4
EXTFONT
  0
ENDTAB
  0
TABLE
  2
VIEW
 70
     0
  0
ENDTAB
  0
TABLE
  2
UCS
 70
     0
  0
ENDTAB
  0
TABLE
  2
APPID
 70
     1
  0
APPID
  2
ACAD
 70
    64
  0
ENDTAB
  0
TABLE
  2
DIMSTYLE
 70
     0
  0
ENDTAB
  0
ENDSEC
  0
SECTION
  2
BLOCKS
  0
BLOCK
  8
SUNPOU
  2
ARROWANG
 70
    64
 10
0.0
 20
0.0
 30
0.0
  3
ARROWANG
  0
LINE
  8
SUNPOU
 10
0.0
 20
0.0
 30
0.0
 11
-1.5
 21
0.401924
 31
0.0
  0
LINE
  8
SUNPOU
 10
0.0
 20
0.0
 30
0.0
 11
-1.5
 21
-0.401924
 31
0.0
  0
ENDBLK
  8
SUNPOU
  0
ENDSEC
  0
SECTION
  2
ENTITIES
  0
TEXT
  8
JISSEN
 10
2565.632564
 20
7483.531654
 30
0.0
 40
300.0
  1
組立マンホール構造図（内径１２００ｍｍ）
  7
K
  0
TEXT
  8
TEXT
 10
2358.913327
 20
6041.919062
 30
0.0
 40
90.0
  1
Ｍ２Ｂ２４０
  7
K
  0
TEXT
  8
TEXT
 10
4461.869268
 20
6040.195569
 30
0.0
 40
90.0
  1
Ｍ２Ｂ２１０
  7
K
  0
TEXT
  8
TEXT
 10
6614.257241
 20
6051.29024
 30
0.0
 40
90.0
  1
Ｍ２Ｂ１８０
  7
K
  0
TEXT
  8
TEXT
 10
8729.780647
 20
6049.566746
 30
0.0
 40
90.0
  1
Ｍ２Ｂ１５０
  7
K
  0
TEXT
  8
TEXT
 10
6699.321111
 20
2908.306171
 30
0.0
 40
90.0
  1
Ｍ２Ｂ９０
  7
K
  0
ARC
  8
JISSEN
 10
6947.808492
 20
1987.510163
 30
0.0
 40
322.0
 50
90.0
 51
270.0
  0
ARC
  8
HASEN
 10
6947.808492
 20
1987.510163
 30
0.0
 40
322.0
 50
270.0
 51
90.0
  0
LINE
  8
SUNPOU
 10
5956.248711
 20
1532.510163
 30
0.0
 11
5956.248711
 21
1622.510163
 31
0.0
  0
LINE
  8
SUNPOU
 10
5956.248711
 20
1517.510163
 30
0.0
 11
5956.248711
 21
1427.510163
 31
0.0
  0
TEXT
  8
SUNPOU
 10
5911.248711
 20
1351.795877
 30
0.0
 40
60.0
  1
15
 50
90.0
  7
K
 72
     2
 11
5911.248711
 21
1457.510163
 31
0.0
  0
LINE
  8
SUNPOU
 10
5956.248711
 20
1517.510163
 30
0.0
 11
5956.248711
 21
1385.510163
 31
0.0
  0
INSERT
  8
SUNPOU
  2
ARROWANG
 10
5956.248711
 20
1532.510163
 30
0.0
 41
45.0
 42
45.0
 50
270.0
 43
45.0
  0
INSERT
  8
SUNPOU
  2
ARROWANG
 10
5956.248711
 20
1517.510163
 30
0.0
 41
45.0
 42
45.0
 50
90.0
 43
45.0
  0
LINE
  8
SUNPOU
 10
6289.808492
 20
1517.510163
 30
0.0
 11
5926.248711
 21
1517.510163
 31
0.0
  0
LINE
  8
SUNPOU
 10
5956.248711
 20
1532.510163
 30
0.0
 11
5956.248711
 21
1517.510163
 31
0.0
  0
TEXT
  8
SUNPOU
 10
5911.248711
 20
1896.795877
 30
0.0
 40
60.0
  1
900
 50
90.0
  7
K
 72
     1
 11
5911.248711
 21
1982.510163
 31
0.0
  0
INSERT
  8
SUNPOU
  2
ARROWANG
 10
5956.248711
 20
2432.510163
 30
0.0
 41
45.0
 42
45.0
 50
90.0
 43
45.0
  0
INSERT
  8
SUNPOU
  2
ARROWANG
 10
5956.248711
 20
1532.510163
 30
0.0
 41
45.0
 42
45.0
 50
270.0
 43
45.0
  0
LINE
  8
SUNPOU
 10
5956.248711
 20
1532.510163
 30
0.0
 11
5956.248711
 21
2432.510163
 31
0.0
  0
LINE
  8
SUNPOU
 10
6058.052691
 20
2432.510163
 30
0.0
 11
5926.248711
 21
2432.510163
 31
0.0
  0
LINE
  8
SUNPOU
 10
6217.808492
 20
1532.510163
 30
0.0
 11
5926.248711
 21
1532.510163
 31
0.0
  0
TEXT
  8
SUNPOU
 10
6043.052691
 20
2441.367306
 30
0.0
 40
60.0
  1
23
 50
90.0
  7
K
 72
     1
 11
6043.052691
 21
2498.510163
 31
0.0
  0
LINE
  8
SUNPOU
 10
6088.052691
 20
2409.510163
 30
0.0
 11
6088.052693
 21
2319.510163
 31
0.0
  0
LINE
  8
SUNPOU
 10
6088.052691
 20
2432.510163
 30
0.0
 11
6088.052691
 21
2564.510163
 31
0.0
  0
INSERT
  8
SUNPOU
  2
ARROWANG
 10
6088.052691
 20
2432.510163
 30
0.0
 41
45.0
 42
45.0
 50
270.0
 43
45.0
  0
INSERT
  8
SUNPOU
  2
ARROWANG
 10
6088.052691
 20
2409.510163
 30
0.0
 41
45.0
 42
45.0
 50
90.0
 43
45.0
  0
LINE
  8
SUNPOU
 10
6088.052691
 20
2409.510163
 30
0.0
 11
6088.052691
 21
2432.510163
 31
0.0
  0
LINE
  8
SUNPOU
 10
6217.808492
 20
2432.510163
 30
0.0
 11
6058.052691
 21
2432.510163
 31
0.0
  0
LINE
  8
SUNPOU
 10
6284.808492
 20
2409.510163
 30
0.0
 11
6058.052691
 21
2409.510163
 31
0.0
  0
LINE
  8
ITTEN
 10
6947.808492
 20
2482.510163
 30
0.0
 11
6947.808492
 21
1467.510163
 31
0.0
  0
LINE
  8
JISSEN
 10
6247.808492
 20
1532.510163
 30
0.0
 11
6308.808492
 21
1532.510163
 31
0.0
  0
LINE
  8
JISSEN
 10
6308.808492
 20
1532.510163
 30
0.0
 11
6319.808492
 21
1517.510163
 31
0.0
  0
LINE
  8
JISSEN
 10
6319.808492
 20
1517.510163
 30
0.0
 11
6947.808492
 21
1517.510163
 31
0.0
  0
LINE
  8
JISSEN
 10
7647.808492
 20
1532.510163
 30
0.0
 11
7586.808492
 21
1532.510163
 31
0.0
  0
LINE
  8
JISSEN
 10
7586.808492
 20
1532.510163
 30
0.0
 11
7575.808492
 21
1517.510163
 31
0.0
  0
LINE
  8
JISSEN
 10
7575.808492
 20
1517.510163
 30
0.0
 11
6947.808492
 21
1517.510163
 31
0.0
  0
LINE
  8
JISSEN
 10
6947.808492
 20
1532.510163
 30
0.0
 11
7586.808492
 21
1532.510163
 31
0.0
  0
LINE
  8
JISSEN
 10
6247.808492
 20
2432.510163
 30
0.0
 11
6307.808492
 21
2432.510163
 31
0.0
  0
LINE
  8
JISSEN
 10
6307.808492
 20
2432.510163
 30
0.0
 11
6314.808492
 21
2409.510163
 31
0.0
  0
LINE
  8
JISSEN
 10
6314.808492
 20
2409.510163
 30
0.0
 11
6947.808492
 21
2409.510163
 31
0.0
  0
LINE
  8
JISSEN
 10
6307.808492
 20
2432.510163
 30
0.0
 11
6947.808492
 21
2432.510163
 31
0.0
  0
LINE
  8
JISSEN
 10
7587.808492
 20
2432.510163
 30
0.0
 11
6947.808492
 21
2432.510163
 31
0.0
  0
LINE
  8
HASEN
 10
7580.808492
 20
2409.510163
 30
0.0
 11
6947.808492
 21
2409.510163
 31
0.0
  0
LINE
  8
HASEN
 10
7587.808492
 20
2432.510163
 30
0.0
 11
7580.808492
 21
2409.510163
 31
0.0
  0
LINE
  8
JISSEN
 10
7647.808492
 20
2432.510163
 30
0.0
 11
7587.808492
 21
2432.510163
 31
0.0
  0
LINE
  8
JISSEN
 10
6347.808492
 20
2409.510163
 30
0.0
 11
6347.808492
 21
1517.510163
 31
0.0
  0
LINE
  8
HASEN
 10
7547.808492
 20
2409.510163
 30
0.0
 11
7547.808492
 21
1517.510163
 31
0.0
  0
LINE
  8
JISSEN
 10
6247.808492
 20
1532.510163
 30
0.0
 11
6247.808492
 21
2432.510163
 31
0.0
  0
LINE
  8
JISSEN
 10
7647.808492
 20
1532.510163
 30
0.0
 11
7647.808492
 21
2432.510163
 31
0.0
  0
ARC
  8
JISSEN
 10
6467.808492
 20
2267.510163
 30
0.0
 40
10.0
 50
270.0
 51
90.0
  0
LINE
  8
JISSEN
 10
6347.808492
 20
2277.510163
 30
0.0
 11
6467.808492
 21
2277.510163
 31
0.0
  0
LINE
  8
JISSEN
 10
6347.808492
 20
2257.510163
 30
0.0
 11
6467.808492
 21
2257.510163
 31
0.0
  0
LINE
  8
ITTEN
 10
6297.808492
 20
2267.510163
 30
0.0
 11
6527.808492
 21
2267.510163
 31
0.0
  0
LINE
  8
SUNPOU
 10
6314.808492
 20
2439.510163
 30
0.0
 11
6314.808492
 21
2532.826955
 31
0.0
  0
LINE
  8
SUNPOU
 10
7580.808492
 20
2439.510163
 30
0.0
 11
7580.808492
 21
2532.826955
 31
0.0
  0
LINE
  8
SUNPOU
 10
6314.808492
 20
2502.826955
 30
0.0
 11
7580.808492
 21
2502.826955
 31
0.0
  0
INSERT
  8
SUNPOU
  2
ARROWANG
 10
6314.808492
 20
2502.826955
 30
0.0
 41
45.0
 42
45.0
 50
180.0
 43
45.0
  0
INSERT
  8
SUNPOU
  2
ARROWANG
 10
7580.808492
 20
2502.826955
 30
0.0
 41
45.0
 42
45.0
 43
45.0
  0
TEXT
  8
SUNPOU
 10
6829.237078
 20
2547.826955
 30
0.0
 40
60.0
  1
1266
  7
K
 72
     1
 11
6947.808507
 21
2547.826955
 31
0.0
  0
LINE
  8
SUNPOU
 10
6307.808492
 20
2462.510163
 30
0.0
 11
6307.808492
 21
2665.110419
 31
0.0
  0
LINE
  8
SUNPOU
 10
7587.808492
 20
2462.510163
 30
0.0
 11
7587.808492
 21
2665.110419
 31
0.0
  0
LINE
  8
SUNPOU
 10
6307.808492
 20
2635.110419
 30
0.0
 11
7587.808492
 21
2635.110419
 31
0.0
  0
INSERT
  8
SUNPOU
  2
ARROWANG
 10
6307.808492
 20
2635.110419
 30
0.0
 41
45.0
 42
45.0
 50
180.0
 43
45.0
  0
INSERT
  8
SUNPOU
  2
ARROWANG
 10
7587.808492
 20
2635.110419
 30
0.0
 41
45.0
 42
45.0
 43
45.0
  0
TEXT
  8
SUNPOU
 10
6829.237078
 20
2680.110419
 30
0.0
 40
60.0
  1
1280
  7
K
 72
     1
 11
6947.808507
 21
2680.110419
 31
0.0
  0
LINE
  8
SUNPOU
 10
6247.808492
 20
2462.510163
 30
0.0
 11
6247.808492
 21
2794.317524
 31
0.0
  0
LINE
  8
SUNPOU
 10
6347.808492
 20
2439.510163
 30
0.0
 11
6347.808492
 21
2794.317524
 31
0.0
  0
LINE
  8
SUNPOU
 10
6247.808492
 20
2764.317524
 30
0.0
 11
6347.808492
 21
2764.317524
 31
0.0
  0
INSERT
  8
SUNPOU
  2
ARROWANG
 10
6347.808492
 20
2764.317524
 30
0.0
 41
45.0
 42
45.0
 50
180.0
 43
45.0
  0
INSERT
  8
SUNPOU
  2
ARROWANG
 10
6247.808492
 20
2764.317524
 30
0.0
 41
45.0
 42
45.0
 43
45.0
  0
TEXT
  8
SUNPOU
 10
6207.808507
 20
2809.317524
 30
0.0
 40
60.0
  1
100
  7
K
 72
     1
 11
6297.808507
 21
2809.317524
 31
0.0
  0
LINE
  8
SUNPOU
 10
6347.808492
 20
2764.317524
 30
0.0
 11
6437.808492
 21
2764.317524
 31
0.0
  0
LINE
  8
SUNPOU
 10
6247.808492
 20
2764.317524
 30
0.0
 11
6157.808492
 21
2764.317524
 31
0.0
  0
LINE
  8
SUNPOU
 10
6347.808492
 20
2764.317524
 30
0.0
 11
7547.808492
 21
2764.317524
 31
0.0
  0
LINE
  8
SUNPOU
 10
7547.808492
 20
2439.510163
 30
0.0
 11
7547.808492
 21
2794.317524
 31
0.0
  0
INSERT
  8
SUNPOU
  2
ARROWANG
 10
6347.808492
 20
2764.317524
 30
0.0
 41
45.0
 42
45.0
 50
180.0
 43
45.0
  0
INSERT
  8
SUNPOU
  2
ARROWANG
 10
7547.808492
 20
2764.317524
 30
0.0
 41
45.0
 42
45.0
 43
45.0
  0
TEXT
  8
SUNPOU
 10
6829.237063
 20
2809.317524
 30
0.0
 40
60.0
  1
1200
  7
K
 72
     1
 11
6947.808492
 21
2809.317524
 31
0.0
  0
LINE
  8
SUNPOU
 10
7547.808492
 20
2764.317524
 30
0.0
 11
7647.808492
 21
2764.317524
 31
0.0
  0
LINE
  8
SUNPOU
 10
7647.808492
 20
2462.510163
 30
0.0
 11
7647.808492
 21
2794.317524
 31
0.0
  0
INSERT
  8
SUNPOU
  2
ARROWANG
 10
7647.808492
 20
2764.317524
 30
0.0
 41
45.0
 42
45.0
 50
180.0
 43
45.0
  0
INSERT
  8
SUNPOU
  2
ARROWANG
 10
7547.808492
 20
2764.317524
 30
0.0
 41
45.0
 42
45.0
 43
45.0
  0
TEXT
  8
SUNPOU
 10
7507.808492
 20
2824.317524
 30
0.0
 40
60.0
  1
100
  7
K
 72
     4
 11
7597.808492
 21
2854.317524
 31
0.0
  0
LINE
  8
SUNPOU
 10
7647.808492
 20
2764.317524
 30
0.0
 11
7737.808492
 21
2764.317524
 31
0.0
  0
LINE
  8
SUNPOU
 10
7547.808492
 20
2764.317524
 30
0.0
 11
7457.808492
 21
2764.317524
 31
0.0
  0
LINE
  8
SUNPOU
 10
6319.808492
 20
1487.510163
 30
0.0
 11
6319.808492
 21
1328.183117
 31
0.0
  0
LINE
  8
SUNPOU
 10
7575.808492
 20
1487.510163
 30
0.0
 11
7575.808492
 21
1328.183117
 31
0.0
  0
LINE
  8
SUNPOU
 10
6319.808492
 20
1358.183117
 30
0.0
 11
7575.808492
 21
1358.183117
 31
0.0
  0
INSERT
  8
SUNPOU
  2
ARROWANG
 10
7575.808492
 20
1358.183117
 30
0.0
 41
45.0
 42
45.0
 43
45.0
  0
INSERT
  8
SUNPOU
  2
ARROWANG
 10
6319.808492
 20
1358.183117
 30
0.0
 41
45.0
 42
45.0
 50
180.0
 43
45.0
  0
TEXT
  8
SUNPOU
 10
6829.237063
 20
1403.183117
 30
0.0
 40
60.0
  1
1256
  7
K
 72
     1
 11
6947.808492
 21
1403.183117
 31
0.0
  0
LINE
  8
SUNPOU
 10
6308.808492
 20
1502.510163
 30
0.0
 11
6308.808492
 21
1206.154184
 31
0.0
  0
LINE
  8
SUNPOU
 10
7586.808492
 20
1502.510163
 30
0.0
 11
7586.808492
 21
1206.154184
 31
0.0
  0
LINE
  8
SUNPOU
 10
6308.808492
 20
1236.154184
 30
0.0
 11
7586.808492
 21
1236.154184
 31
0.0
  0
INSERT
  8
SUNPOU
  2
ARROWANG
 10
6308.808492
 20
1236.154184
 30
0.0
 41
45.0
 42
45.0
 50
180.0
 43
45.0
  0
INSERT
  8
SUNPOU
  2
ARROWANG
 10
7586.808492
 20
1236.154184
 30
0.0
 41
45.0
 42
45.0
 43
45.0
  0
TEXT
  8
SUNPOU
 10
6829.237078
 20
1281.154184
 30
0.0
 40
60.0
  1
1278
  7
K
 72
     1
 11
6947.808507
 21
1281.154184
 31
0.0
  0
CIRCLE
  8
SAISEN
 10
6452.833745
 20
1632.510163
 30
0.0
 40
12.5
  0
CIRCLE
  8
SAISEN
 10
7442.783239
 20
1632.510163
 30
0.0
 40
12.5
  0
LINE
  8
SUNPOU
 10
7677.808492
 20
1532.510163
 30
0.0
 11
7817.315206
 21
1532.510163
 31
0.0
  0
LINE
  8
SUNPOU
 10
7472.783239
 20
1632.510163
 30
0.0
 11
7817.315206
 21
1632.510163
 31
0.0
  0
LINE
  8
SUNPOU
 10
7787.315206
 20
1532.510163
 30
0.0
 11
7787.315206
 21
1632.510163
 31
0.0
  0
INSERT
  8
SUNPOU
  2
ARROWANG
 10
7787.315206
 20
1532.510163
 30
0.0
 41
45.0
 42
45.0
 50
90.0
 43
45.0
  0
INSERT
  8
SUNPOU
  2
ARROWANG
 10
7787.315206
 20
1632.510163
 30
0.0
 41
45.0
 42
45.0
 50
270.0
 43
45.0
  0
LINE
  8
SUNPOU
 10
7787.315206
 20
1632.510163
 30
0.0
 11
7787.315206
 21
1830.510163
 31
0.0
  0
LINE
  8
SUNPOU
 10
7787.315206
 20
1532.510163
 30
0.0
 11
7787.315208
 21
1442.510163
 31
0.0
  0
TEXT
  8
SUNPOU
 10
7742.315206
 20
1641.510163
 30
0.0
 40
60.0
  1
100
 50
90.0
  7
K
 72
     1
 11
7742.315206
 21
1731.510163
 31
0.0
  0
CIRCLE
  8
SAISEN
 10
7442.783239
 20
2332.510163
 30
0.0
 40
12.5
  0
CIRCLE
  8
SAISEN
 10
6452.833745
 20
2332.510163
 30
0.0
 40
12.5
  0
LINE
  8
SUNPOU
 10
7472.783239
 20
2332.510163
 30
0.0
 11
7802.234247
 21
2332.510163
 31
0.0
  0
LINE
  8
SUNPOU
 10
7677.808492
 20
2432.510163
 30
0.0
 11
7802.234247
 21
2432.510163
 31
0.0
  0
LINE
  8
SUNPOU
 10
7772.234247
 20
2332.510163
 30
0.0
 11
7772.234247
 21
2432.510163
 31
0.0
  0
INSERT
  8
SUNPOU
  2
ARROWANG
 10
7772.234247
 20
2332.510163
 30
0.0
 41
45.0
 42
45.0
 50
90.0
 43
45.0
  0
INSERT
  8
SUNPOU
  2
ARROWANG
 10
7772.234247
 20
2432.510163
 30
0.0
 41
45.0
 42
45.0
 50
270.0
 43
45.0
  0
LINE
  8
SUNPOU
 10
7772.234247
 20
2332.510163
 30
0.0
 11
7772.234247
 21
2134.510163
 31
0.0
  0
LINE
  8
SUNPOU
 10
7772.234247
 20
2432.510163
 30
0.0
 11
7772.234247
 21
2522.510163
 31
0.0
  0
TEXT
  8
SUNPOU
 10
7727.234247
 20
2143.510163
 30
0.0
 40
60.0
  1
100
 50
90.0
  7
K
 72
     1
 11
7727.234247
 21
2233.510163
 31
0.0
  0
LINE
  8
SUNPOU
 10
8064.525106
 20
4049.727156
 30
0.0
 11
8064.525106
 21
4139.727156
 31
0.0
  0
LINE
  8
SUNPOU
 10
8064.525106
 20
4034.727156
 30
0.0
 11
8064.525106
 21
3944.727156
 31
0.0
  0
TEXT
  8
SUNPOU
 10
8019.525106
 20
3869.01287
 30
0.0
 40
60.0
  1
15
 50
90.0
  7
K
 72
     2
 11
8019.525106
 21
3974.727156
 31
0.0
  0
LINE
  8
SUNPOU
 10
8064.525106
 20
4034.727156
 30
0.0
 11
8064.525106
 21
3902.727156
 31
0.0
  0
INSERT
  8
SUNPOU
  2
ARROWANG
 10
8064.525106
 20
4049.727156
 30
0.0
 41
45.0
 42
45.0
 50
270.0
 43
45.0
  0
INSERT
  8
SUNPOU
  2
ARROWANG
 10
8064.525106
 20
4034.727156
 30
0.0
 41
45.0
 42
45.0
 50
90.0
 43
45.0
  0
LINE
  8
SUNPOU
 10
8417.899364
 20
4034.727156
 30
0.0
 11
8034.525106
 21
4034.727156
 31
0.0
  0
LINE
  8
SUNPOU
 10
8064.525106
 20
4049.727156
 30
0.0
 11
8064.525106
 21
4034.727156
 31
0.0
  0
TEXT
  8
SUNPOU
 10
8019.525106
 20
4681.155728
 30
0.0
 40
60.0
  1
1500
 50
90.0
  7
K
 72
     1
 11
8019.525106
 21
4799.727156
 31
0.0
  0
INSERT
  8
SUNPOU
  2
ARROWANG
 10
8064.525106
 20
5549.727156
 30
0.0
 41
45.0
 42
45.0
 50
90.0
 43
45.0
  0
INSERT
  8
SUNPOU
  2
ARROWANG
 10
8064.525106
 20
4049.727156
 30
0.0
 41
45.0
 42
45.0
 50
270.0
 43
45.0
  0
LINE
  8
SUNPOU
 10
8064.525106
 20
4049.727156
 30
0.0
 11
8064.525106
 21
5549.727156
 31
0.0
  0
LINE
  8
SUNPOU
 10
8186.143564
 20
5549.727156
 30
0.0
 11
8034.525106
 21
5549.727156
 31
0.0
  0
LINE
  8
SUNPOU
 10
8345.899364
 20
4049.727156
 30
0.0
 11
8034.525106
 21
4049.727156
 31
0.0
  0
TEXT
  8
SUNPOU
 10
8171.143564
 20
5558.584299
 30
0.0
 40
60.0
  1
23
 50
90.0
  7
K
 72
     1
 11
8171.143564
 21
5615.727156
 31
0.0
  0
LINE
  8
SUNPOU
 10
8216.143564
 20
5526.727156
 30
0.0
 11
8216.143565
 21
5436.727156
 31
0.0
  0
LINE
  8
SUNPOU
 10
8216.143564
 20
5549.727156
 30
0.0
 11
8216.143564
 21
5681.727156
 31
0.0
  0
INSERT
  8
SUNPOU
  2
ARROWANG
 10
8216.143564
 20
5549.727156
 30
0.0
 41
45.0
 42
45.0
 50
270.0
 43
45.0
  0
INSERT
  8
SUNPOU
  2
ARROWANG
 10
8216.143564
 20
5526.727156
 30
0.0
 41
45.0
 42
45.0
 50
90.0
 43
45.0
  0
LINE
  8
SUNPOU
 10
8216.143564
 20
5526.727156
 30
0.0
 11
8216.143564
 21
5549.727156
 31
0.0
  0
LINE
  8
SUNPOU
 10
8345.899364
 20
5549.727156
 30
0.0
 11
8186.143564
 21
5549.727156
 31
0.0
  0
LINE
  8
SUNPOU
 10
8412.899364
 20
5526.727156
 30
0.0
 11
8186.143564
 21
5526.727156
 31
0.0
  0
LINE
  8
ITTEN
 10
9075.899364
 20
5599.727156
 30
0.0
 11
9075.899364
 21
3984.727156
 31
0.0
  0
LINE
  8
JISSEN
 10
8375.899364
 20
4049.727156
 30
0.0
 11
8436.899364
 21
4049.727156
 31
0.0
  0
LINE
  8
JISSEN
 10
8436.899364
 20
4049.727156
 30
0.0
 11
8447.899364
 21
4034.727156
 31
0.0
  0
LINE
  8
JISSEN
 10
8447.899364
 20
4034.727156
 30
0.0
 11
9075.899364
 21
4034.727156
 31
0.0
  0
LINE
  8
JISSEN
 10
9775.899364
 20
4049.727156
 30
0.0
 11
9714.899364
 21
4049.727156
 31
0.0
  0
LINE
  8
JISSEN
 10
9714.899364
 20
4049.727156
 30
0.0
 11
9703.899364
 21
4034.727156
 31
0.0
  0
LINE
  8
JISSEN
 10
9703.899364
 20
4034.727156
 30
0.0
 11
9075.899364
 21
4034.727156
 31
0.0
  0
LINE
  8
JISSEN
 10
9075.899364
 20
4049.727156
 30
0.0
 11
9714.899364
 21
4049.727156
 31
0.0
  0
LINE
  8
JISSEN
 10
8375.899364
 20
5549.727156
 30
0.0
 11
8435.899364
 21
5549.727156
 31
0.0
  0
LINE
  8
JISSEN
 10
8435.899364
 20
5549.727156
 30
0.0
 11
8442.899364
 21
5526.727156
 31
0.0
  0
LINE
  8
JISSEN
 10
8442.899364
 20
5526.727156
 30
0.0
 11
9075.899364
 21
5526.727156
 31
0.0
  0
LINE
  8
JISSEN
 10
8435.899364
 20
5549.727156
 30
0.0
 11
9075.899364
 21
5549.727156
 31
0.0
  0
LINE
  8
JISSEN
 10
9715.899364
 20
5549.727156
 30
0.0
 11
9075.899364
 21
5549.727156
 31
0.0
  0
LINE
  8
HASEN
 10
9708.899364
 20
5526.727156
 30
0.0
 11
9075.899364
 21
5526.727156
 31
0.0
  0
LINE
  8
HASEN
 10
9715.899364
 20
5549.727156
 30
0.0
 11
9708.899364
 21
5526.727156
 31
0.0
  0
LINE
  8
JISSEN
 10
9775.899364
 20
5549.727156
 30
0.0
 11
9715.899364
 21
5549.727156
 31
0.0
  0
LINE
  8
JISSEN
 10
8475.899364
 20
5526.727156
 30
0.0
 11
8475.899364
 21
4034.727156
 31
0.0
  0
LINE
  8
HASEN
 10
9675.899364
 20
5526.727156
 30
0.0
 11
9675.899364
 21
4034.727156
 31
0.0
  0
LINE
  8
JISSEN
 10
8375.899364
 20
4049.727156
 30
0.0
 11
8375.899364
 21
5549.727156
 31
0.0
  0
LINE
  8
JISSEN
 10
9775.899364
 20
4049.727156
 30
0.0
 11
9775.899364
 21
5549.727156
 31
0.0
  0
ARC
  8
HASEN
 10
9075.899364
 20
4704.727156
 30
0.0
 40
560.0
 50
270.0
 51
90.0
  0
ARC
  8
JISSEN
 10
9075.899364
 20
4704.727156
 30
0.0
 40
560.0
 50
90.0
 51
270.0
  0
ARC
  8
JISSEN
 10
8595.899364
 20
5384.727156
 30
0.0
 40
10.0
 50
270.0
 51
90.0
  0
LINE
  8
JISSEN
 10
8475.899364
 20
5394.727156
 30
0.0
 11
8595.899364
 21
5394.727156
 31
0.0
  0
LINE
  8
JISSEN
 10
8475.899364
 20
5374.727156
 30
0.0
 11
8595.899364
 21
5374.727156
 31
0.0
  0
LINE
  8
ITTEN
 10
8425.899364
 20
5384.727156
 30
0.0
 11
8655.899364
 21
5384.727156
 31
0.0
  0
ARC
  8
JISSEN
 10
8595.899364
 20
5084.727156
 30
0.0
 40
10.0
 50
270.0
 51
90.0
  0
LINE
  8
JISSEN
 10
8475.899364
 20
5094.727156
 30
0.0
 11
8595.899364
 21
5094.727156
 31
0.0
  0
LINE
  8
ITTEN
 10
8425.899364
 20
5084.727156
 30
0.0
 11
8655.899364
 21
5084.727156
 31
0.0
  0
LINE
  8
JISSEN
 10
8475.899364
 20
5074.727156
 30
0.0
 11
8595.899364
 21
5074.727156
 31
0.0
  0
LINE
  8
SUNPOU
 10
8442.899364
 20
5556.727156
 30
0.0
 11
8442.899364
 21
5650.043948
 31
0.0
  0
LINE
  8
SUNPOU
 10
9708.899364
 20
5556.727156
 30
0.0
 11
9708.899364
 21
5650.043948
 31
0.0
  0
LINE
  8
SUNPOU
 10
8442.899364
 20
5620.043948
 30
0.0
 11
9708.899364
 21
5620.043948
 31
0.0
  0
INSERT
  8
SUNPOU
  2
ARROWANG
 10
8442.899364
 20
5620.043948
 30
0.0
 41
45.0
 42
45.0
 50
180.0
 43
45.0
  0
INSERT
  8
SUNPOU
  2
ARROWANG
 10
9708.899364
 20
5620.043948
 30
0.0
 41
45.0
 42
45.0
 43
45.0
  0
TEXT
  8
SUNPOU
 10
8957.32795
 20
5665.043948
 30
0.0
 40
60.0
  1
1266
  7
K
 72
     1
 11
9075.899379
 21
5665.043948
 31
0.0
  0
LINE
  8
SUNPOU
 10
8435.899364
 20
5579.727156
 30
0.0
 11
8435.899364
 21
5782.327413
 31
0.0
  0
LINE
  8
SUNPOU
 10
9715.899364
 20
5579.727156
 30
0.0
 11
9715.899364
 21
5782.327413
 31
0.0
  0
LINE
  8
SUNPOU
 10
8435.899364
 20
5752.327413
 30
0.0
 11
9715.899364
 21
5752.327413
 31
0.0
  0
INSERT
  8
SUNPOU
  2
ARROWANG
 10
8435.899364
 20
5752.327413
 30
0.0
 41
45.0
 42
45.0
 50
180.0
 43
45.0
  0
INSERT
  8
SUNPOU
  2
ARROWANG
 10
9715.899364
 20
5752.327413
 30
0.0
 41
45.0
 42
45.0
 43
45.0
  0
TEXT
  8
SUNPOU
 10
8957.32795
 20
5797.327413
 30
0.0
 40
60.0
  1
1280
  7
K
 72
     1
 11
9075.899379
 21
5797.327413
 31
0.0
  0
LINE
  8
SUNPOU
 10
8375.899364
 20
5579.727156
 30
0.0
 11
8375.899364
 21
5911.534517
 31
0.0
  0
LINE
  8
SUNPOU
 10
8475.899364
 20
5556.727156
 30
0.0
 11
8475.899364
 21
5911.534517
 31
0.0
  0
LINE
  8
SUNPOU
 10
8375.899364
 20
5881.534517
 30
0.0
 11
8475.899364
 21
5881.534517
 31
0.0
  0
INSERT
  8
SUNPOU
  2
ARROWANG
 10
8475.899364
 20
5881.534517
 30
0.0
 41
45.0
 42
45.0
 50
180.0
 43
45.0
  0
INSERT
  8
SUNPOU
  2
ARROWANG
 10
8375.899364
 20
5881.534517
 30
0.0
 41
45.0
 42
45.0
 43
45.0
  0
TEXT
  8
SUNPOU
 10
8335.899379
 20
5926.534517
 30
0.0
 40
60.0
  1
100
  7
K
 72
     1
 11
8425.899379
 21
5926.534517
 31
0.0
  0
LINE
  8
SUNPOU
 10
8475.899364
 20
5881.534517
 30
0.0
 11
8565.899364
 21
5881.534517
 31
0.0
  0
LINE
  8
SUNPOU
 10
8375.899364
 20
5881.534517
 30
0.0
 11
8285.899364
 21
5881.534517
 31
0.0
  0
LINE
  8
SUNPOU
 10
8475.899364
 20
5881.534517
 30
0.0
 11
9675.899364
 21
5881.534517
 31
0.0
  0
LINE
  8
SUNPOU
 10
9675.899364
 20
5556.727156
 30
0.0
 11
9675.899364
 21
5911.534517
 31
0.0
  0
INSERT
  8
SUNPOU
  2
ARROWANG
 10
8475.899364
 20
5881.534517
 30
0.0
 41
45.0
 42
45.0
 50
180.0
 43
45.0
  0
INSERT
  8
SUNPOU
  2
ARROWANG
 10
9675.899364
 20
5881.534517
 30
0.0
 41
45.0
 42
45.0
 43
45.0
  0
TEXT
  8
SUNPOU
 10
8957.327936
 20
5926.534517
 30
0.0
 40
60.0
  1
1200
  7
K
 72
     1
 11
9075.899364
 21
5926.534517
 31
0.0
  0
LINE
  8
SUNPOU
 10
9675.899364
 20
5881.534517
 30
0.0
 11
9775.899364
 21
5881.534517
 31
0.0
  0
LINE
  8
SUNPOU
 10
9775.899364
 20
5579.727156
 30
0.0
 11
9775.899364
 21
5911.534517
 31
0.0
  0
INSERT
  8
SUNPOU
  2
ARROWANG
 10
9775.899364
 20
5881.534517
 30
0.0
 41
45.0
 42
45.0
 50
180.0
 43
45.0
  0
INSERT
  8
SUNPOU
  2
ARROWANG
 10
9675.899364
 20
5881.534517
 30
0.0
 41
45.0
 42
45.0
 43
45.0
  0
TEXT
  8
SUNPOU
 10
9635.899364
 20
5941.534517
 30
0.0
 40
60.0
  1
100
  7
K
 72
     4
 11
9725.899364
 21
5971.534517
 31
0.0
  0
LINE
  8
SUNPOU
 10
9775.899364
 20
5881.534517
 30
0.0
 11
9865.899364
 21
5881.534517
 31
0.0
  0
LINE
  8
SUNPOU
 10
9675.899364
 20
5881.534517
 30
0.0
 11
9585.899364
 21
5881.534517
 31
0.0
  0
LINE
  8
SUNPOU
 10
8447.899364
 20
4004.727156
 30
0.0
 11
8447.899364
 21
3845.40011
 31
0.0
  0
LINE
  8
SUNPOU
 10
9703.899364
 20
4004.727156
 30
0.0
 11
9703.899364
 21
3845.40011
 31
0.0
  0
LINE
  8
SUNPOU
 10
8447.899364
 20
3875.40011
 30
0.0
 11
9703.899364
 21
3875.40011
 31
0.0
  0
INSERT
  8
SUNPOU
  2
ARROWANG
 10
9703.899364
 20
3875.40011
 30
0.0
 41
45.0
 42
45.0
 43
45.0
  0
INSERT
  8
SUNPOU
  2
ARROWANG
 10
8447.899364
 20
3875.40011
 30
0.0
 41
45.0
 42
45.0
 50
180.0
 43
45.0
  0
TEXT
  8
SUNPOU
 10
8957.327936
 20
3920.40011
 30
0.0
 40
60.0
  1
1256
  7
K
 72
     1
 11
9075.899364
 21
3920.40011
 31
0.0
  0
LINE
  8
SUNPOU
 10
8436.899364
 20
4019.727156
 30
0.0
 11
8436.899364
 21
3723.371177
 31
0.0
  0
LINE
  8
SUNPOU
 10
9714.899364
 20
4019.727156
 30
0.0
 11
9714.899364
 21
3723.371177
 31
0.0
  0
LINE
  8
SUNPOU
 10
8436.899364
 20
3753.371177
 30
0.0
 11
9714.899364
 21
3753.371177
 31
0.0
  0
INSERT
  8
SUNPOU
  2
ARROWANG
 10
8436.899364
 20
3753.371177
 30
0.0
 41
45.0
 42
45.0
 50
180.0
 43
45.0
  0
INSERT
  8
SUNPOU
  2
ARROWANG
 10
9714.899364
 20
3753.371177
 30
0.0
 41
45.0
 42
45.0
 43
45.0
  0
TEXT
  8
SUNPOU
 10
8957.32795
 20
3798.371177
 30
0.0
 40
60.0
  1
1278
  7
K
 72
     1
 11
9075.899379
 21
3798.371177
 31
0.0
  0
LINE
  8
SUNPOU
 10
8685.899364
 20
5084.727156
 30
0.0
 11
8790.874889
 21
5084.727156
 31
0.0
  0
LINE
  8
SUNPOU
 10
8760.874889
 20
5084.727156
 30
0.0
 11
8760.874889
 21
5384.727156
 31
0.0
  0
LINE
  8
SUNPOU
 10
8685.899364
 20
5384.727156
 30
0.0
 11
8790.874889
 21
5384.727156
 31
0.0
  0
INSERT
  8
SUNPOU
  2
ARROWANG
 10
8760.874889
 20
5084.727156
 30
0.0
 41
45.0
 42
45.0
 50
270.0
 43
45.0
  0
INSERT
  8
SUNPOU
  2
ARROWANG
 10
8760.874889
 20
5384.727156
 30
0.0
 41
45.0
 42
45.0
 50
90.0
 43
45.0
  0
TEXT
  8
SUNPOU
 10
8715.874889
 20
5149.01287
 30
0.0
 40
60.0
  1
300
 50
90.0
  7
K
 72
     1
 11
8715.874889
 21
5234.727156
 31
0.0
  0
CIRCLE
  8
SAISEN
 10
8580.924618
 20
4149.727156
 30
0.0
 40
12.5
  0
CIRCLE
  8
SAISEN
 10
9570.874111
 20
4149.727156
 30
0.0
 40
12.5
  0
LINE
  8
SUNPOU
 10
9805.899364
 20
4049.727156
 30
0.0
 11
9945.406079
 21
4049.727156
 31
0.0
  0
LINE
  8
SUNPOU
 10
9600.874111
 20
4149.727156
 30
0.0
 11
9945.406079
 21
4149.727156
 31
0.0
  0
LINE
  8
SUNPOU
 10
9915.406079
 20
4049.727156
 30
0.0
 11
9915.406079
 21
4149.727156
 31
0.0
  0
INSERT
  8
SUNPOU
  2
ARROWANG
 10
9915.406079
 20
4049.727156
 30
0.0
 41
45.0
 42
45.0
 50
90.0
 43
45.0
  0
INSERT
  8
SUNPOU
  2
ARROWANG
 10
9915.406079
 20
4149.727156
 30
0.0
 41
45.0
 42
45.0
 50
270.0
 43
45.0
  0
LINE
  8
SUNPOU
 10
9915.406079
 20
4149.727156
 30
0.0
 11
9915.406079
 21
4347.727156
 31
0.0
  0
LINE
  8
SUNPOU
 10
9915.406079
 20
4049.727156
 30
0.0
 11
9915.40608
 21
3959.727156
 31
0.0
  0
TEXT
  8
SUNPOU
 10
9870.406079
 20
4158.727156
 30
0.0
 40
60.0
  1
100
 50
90.0
  7
K
 72
     1
 11
9870.406079
 21
4248.727156
 31
0.0
  0
CIRCLE
  8
SAISEN
 10
9570.874111
 20
5449.727156
 30
0.0
 40
12.5
  0
CIRCLE
  8
SAISEN
 10
8580.924618
 20
5449.727156
 30
0.0
 40
12.5
  0
LINE
  8
SUNPOU
 10
9600.874111
 20
5449.727156
 30
0.0
 11
9930.32512
 21
5449.727156
 31
0.0
  0
LINE
  8
SUNPOU
 10
9805.899364
 20
5549.727156
 30
0.0
 11
9930.32512
 21
5549.727156
 31
0.0
  0
LINE
  8
SUNPOU
 10
9900.32512
 20
5449.727156
 30
0.0
 11
9900.32512
 21
5549.727156
 31
0.0
  0
INSERT
  8
SUNPOU
  2
ARROWANG
 10
9900.32512
 20
5449.727156
 30
0.0
 41
45.0
 42
45.0
 50
90.0
 43
45.0
  0
INSERT
  8
SUNPOU
  2
ARROWANG
 10
9900.32512
 20
5549.727156
 30
0.0
 41
45.0
 42
45.0
 50
270.0
 43
45.0
  0
LINE
  8
SUNPOU
 10
9900.32512
 20
5449.727156
 30
0.0
 11
9900.32512
 21
5251.727156
 31
0.0
  0
LINE
  8
SUNPOU
 10
9900.32512
 20
5549.727156
 30
0.0
 11
9900.32512
 21
5639.727156
 31
0.0
  0
TEXT
  8
SUNPOU
 10
9855.32512
 20
5260.727156
 30
0.0
 40
60.0
  1
100
 50
90.0
  7
K
 72
     1
 11
9855.32512
 21
5350.727156
 31
0.0
  0
LINE
  8
SUNPOU
 10
5949.157232
 20
3749.727156
 30
0.0
 11
5949.157232
 21
3839.727156
 31
0.0
  0
LINE
  8
SUNPOU
 10
5949.157232
 20
3734.727156
 30
0.0
 11
5949.157232
 21
3644.727156
 31
0.0
  0
TEXT
  8
SUNPOU
 10
5889.157232
 20
3680.798585
 30
0.0
 40
60.0
  1
15
 50
90.0
  7
K
 72
     4
 11
5859.157232
 21
3742.227156
 31
0.0
  0
INSERT
  8
SUNPOU
  2
ARROWANG
 10
5949.157232
 20
3749.727156
 30
0.0
 41
45.0
 42
45.0
 50
270.0
 43
45.0
  0
INSERT
  8
SUNPOU
  2
ARROWANG
 10
5949.157232
 20
3734.727156
 30
0.0
 41
45.0
 42
45.0
 50
90.0
 43
45.0
  0
LINE
  8
SUNPOU
 10
6298.048956
 20
3734.727156
 30
0.0
 11
5919.157232
 21
3734.727156
 31
0.0
  0
LINE
  8
SUNPOU
 10
5949.157232
 20
3749.727156
 30
0.0
 11
5949.157232
 21
3734.727156
 31
0.0
  0
TEXT
  8
SUNPOU
 10
5904.157232
 20
4531.155728
 30
0.0
 40
60.0
  1
1800
 50
90.0
  7
K
 72
     1
 11
5904.157232
 21
4649.727156
 31
0.0
  0
INSERT
  8
SUNPOU
  2
ARROWANG
 10
5949.157232
 20
5549.727156
 30
0.0
 41
45.0
 42
45.0
 50
90.0
 43
45.0
  0
INSERT
  8
SUNPOU
  2
ARROWANG
 10
5949.157232
 20
3749.727156
 30
0.0
 41
45.0
 42
45.0
 50
270.0
 43
45.0
  0
LINE
  8
SUNPOU
 10
5949.157232
 20
3749.727156
 30
0.0
 11
5949.157232
 21
5549.727156
 31
0.0
  0
LINE
  8
SUNPOU
 10
6066.293155
 20
5549.727156
 30
0.0
 11
5919.157232
 21
5549.727156
 31
0.0
  0
LINE
  8
SUNPOU
 10
6226.048956
 20
3749.727156
 30
0.0
 11
5919.157232
 21
3749.727156
 31
0.0
  0
TEXT
  8
SUNPOU
 10
7735.474711
 20
5260.727156
 30
0.0
 40
60.0
  1
100
 50
90.0
  7
K
 72
     1
 11
7735.474711
 21
5350.727156
 31
0.0
  0
LINE
  8
SUNPOU
 10
7780.474711
 20
5549.727156
 30
0.0
 11
7780.474711
 21
5639.727156
 31
0.0
  0
LINE
  8
SUNPOU
 10
7780.474711
 20
5449.727156
 30
0.0
 11
7780.474711
 21
5251.727156
 31
0.0
  0
INSERT
  8
SUNPOU
  2
ARROWANG
 10
7780.474711
 20
5549.727156
 30
0.0
 41
45.0
 42
45.0
 50
270.0
 43
45.0
  0
INSERT
  8
SUNPOU
  2
ARROWANG
 10
7780.474711
 20
5449.727156
 30
0.0
 41
45.0
 42
45.0
 50
90.0
 43
45.0
  0
LINE
  8
SUNPOU
 10
7780.474711
 20
5449.727156
 30
0.0
 11
7780.474711
 21
5549.727156
 31
0.0
  0
LINE
  8
SUNPOU
 10
7686.048956
 20
5549.727156
 30
0.0
 11
7810.474711
 21
5549.727156
 31
0.0
  0
LINE
  8
SUNPOU
 10
7481.023703
 20
5449.727156
 30
0.0
 11
7810.474711
 21
5449.727156
 31
0.0
  0
CIRCLE
  8
SAISEN
 10
6461.074209
 20
5449.727156
 30
0.0
 40
12.5
  0
CIRCLE
  8
SAISEN
 10
7451.023703
 20
5449.727156
 30
0.0
 40
12.5
  0
TEXT
  8
SUNPOU
 10
7750.55567
 20
3858.727156
 30
0.0
 40
60.0
  1
100
 50
90.0
  7
K
 72
     1
 11
7750.55567
 21
3948.727156
 31
0.0
  0
LINE
  8
SUNPOU
 10
7795.55567
 20
3749.727156
 30
0.0
 11
7795.555672
 21
3659.727156
 31
0.0
  0
LINE
  8
SUNPOU
 10
7795.55567
 20
3849.727156
 30
0.0
 11
7795.55567
 21
4047.727156
 31
0.0
  0
INSERT
  8
SUNPOU
  2
ARROWANG
 10
7795.55567
 20
3849.727156
 30
0.0
 41
45.0
 42
45.0
 50
270.0
 43
45.0
  0
INSERT
  8
SUNPOU
  2
ARROWANG
 10
7795.55567
 20
3749.727156
 30
0.0
 41
45.0
 42
45.0
 50
90.0
 43
45.0
  0
LINE
  8
SUNPOU
 10
7795.55567
 20
3749.727156
 30
0.0
 11
7795.55567
 21
3849.727156
 31
0.0
  0
LINE
  8
SUNPOU
 10
7481.023703
 20
3849.727156
 30
0.0
 11
7825.55567
 21
3849.727156
 31
0.0
  0
LINE
  8
SUNPOU
 10
7686.048956
 20
3749.727156
 30
0.0
 11
7825.55567
 21
3749.727156
 31
0.0
  0
CIRCLE
  8
SAISEN
 10
7451.023703
 20
3849.727156
 30
0.0
 40
12.5
  0
CIRCLE
  8
SAISEN
 10
6461.074209
 20
3849.727156
 30
0.0
 40
12.5
  0
TEXT
  8
SUNPOU
 10
6596.02448
 20
5149.01287
 30
0.0
 40
60.0
  1
300
 50
90.0
  7
K
 72
     1
 11
6596.02448
 21
5234.727156
 31
0.0
  0
INSERT
  8
SUNPOU
  2
ARROWANG
 10
6641.02448
 20
5384.727156
 30
0.0
 41
45.0
 42
45.0
 50
90.0
 43
45.0
  0
INSERT
  8
SUNPOU
  2
ARROWANG
 10
6641.02448
 20
5084.727156
 30
0.0
 41
45.0
 42
45.0
 50
270.0
 43
45.0
  0
LINE
  8
SUNPOU
 10
6566.048956
 20
5384.727156
 30
0.0
 11
6671.02448
 21
5384.727156
 31
0.0
  0
LINE
  8
SUNPOU
 10
6641.02448
 20
5084.727156
 30
0.0
 11
6641.02448
 21
5384.727156
 31
0.0
  0
TEXT
  8
SUNPOU
 10
6596.02448
 20
4849.01287
 30
0.0
 40
60.0
  1
300
 50
90.0
  7
K
 72
     1
 11
6596.02448
 21
4934.727156
 31
0.0
  0
INSERT
  8
SUNPOU
  2
ARROWANG
 10
6641.02448
 20
5084.727156
 30
0.0
 41
45.0
 42
45.0
 50
90.0
 43
45.0
  0
INSERT
  8
SUNPOU
  2
ARROWANG
 10
6641.02448
 20
4784.727156
 30
0.0
 41
45.0
 42
45.0
 50
270.0
 43
45.0
  0
LINE
  8
SUNPOU
 10
6566.048956
 20
5084.727156
 30
0.0
 11
6671.02448
 21
5084.727156
 31
0.0
  0
LINE
  8
SUNPOU
 10
6641.02448
 20
4784.727156
 30
0.0
 11
6641.02448
 21
5084.727156
 31
0.0
  0
LINE
  8
SUNPOU
 10
6566.048956
 20
4784.727156
 30
0.0
 11
6671.02448
 21
4784.727156
 31
0.0
  0
TEXT
  8
SUNPOU
 10
6837.477542
 20
3498.371177
 30
0.0
 40
60.0
  1
1278
  7
K
 72
     1
 11
6956.048971
 21
3498.371177
 31
0.0
  0
INSERT
  8
SUNPOU
  2
ARROWANG
 10
7595.048956
 20
3453.371177
 30
0.0
 41
45.0
 42
45.0
 43
45.0
  0
INSERT
  8
SUNPOU
  2
ARROWANG
 10
6317.048956
 20
3453.371177
 30
0.0
 41
45.0
 42
45.0
 50
180.0
 43
45.0
  0
LINE
  8
SUNPOU
 10
6317.048956
 20
3453.371177
 30
0.0
 11
7595.048956
 21
3453.371177
 31
0.0
  0
LINE
  8
SUNPOU
 10
7595.048956
 20
3719.727156
 30
0.0
 11
7595.048956
 21
3423.371177
 31
0.0
  0
LINE
  8
SUNPOU
 10
6317.048956
 20
3719.727156
 30
0.0
 11
6317.048956
 21
3423.371177
 31
0.0
  0
TEXT
  8
SUNPOU
 10
6837.477527
 20
3620.40011
 30
0.0
 40
60.0
  1
1256
  7
K
 72
     1
 11
6956.048956
 21
3620.40011
 31
0.0
  0
INSERT
  8
SUNPOU
  2
ARROWANG
 10
6328.048956
 20
3575.40011
 30
0.0
 41
45.0
 42
45.0
 50
180.0
 43
45.0
  0
INSERT
  8
SUNPOU
  2
ARROWANG
 10
7584.048956
 20
3575.40011
 30
0.0
 41
45.0
 42
45.0
 43
45.0
  0
LINE
  8
SUNPOU
 10
6328.048956
 20
3575.40011
 30
0.0
 11
7584.048956
 21
3575.40011
 31
0.0
  0
LINE
  8
SUNPOU
 10
7584.048956
 20
3704.727156
 30
0.0
 11
7584.048956
 21
3545.40011
 31
0.0
  0
LINE
  8
SUNPOU
 10
6328.048956
 20
3704.727156
 30
0.0
 11
6328.048956
 21
3545.40011
 31
0.0
  0
LINE
  8
SUNPOU
 10
7556.048956
 20
5881.534517
 30
0.0
 11
7466.048956
 21
5881.534517
 31
0.0
  0
LINE
  8
SUNPOU
 10
7656.048956
 20
5881.534517
 30
0.0
 11
7746.048956
 21
5881.534517
 31
0.0
  0
TEXT
  8
SUNPOU
 10
7516.048956
 20
5941.534517
 30
0.0
 40
60.0
  1
100
  7
K
 72
     4
 11
7606.048956
 21
5971.534517
 31
0.0
  0
INSERT
  8
SUNPOU
  2
ARROWANG
 10
7556.048956
 20
5881.534517
 30
0.0
 41
45.0
 42
45.0
 43
45.0
  0
INSERT
  8
SUNPOU
  2
ARROWANG
 10
7656.048956
 20
5881.534517
 30
0.0
 41
45.0
 42
45.0
 50
180.0
 43
45.0
  0
LINE
  8
SUNPOU
 10
7656.048956
 20
5579.727156
 30
0.0
 11
7656.048956
 21
5911.534517
 31
0.0
  0
LINE
  8
SUNPOU
 10
7556.048956
 20
5881.534517
 30
0.0
 11
7656.048956
 21
5881.534517
 31
0.0
  0
TEXT
  8
SUNPOU
 10
6837.477527
 20
5926.534517
 30
0.0
 40
60.0
  1
1200
  7
K
 72
     1
 11
6956.048956
 21
5926.534517
 31
0.0
  0
INSERT
  8
SUNPOU
  2
ARROWANG
 10
7556.048956
 20
5881.534517
 30
0.0
 41
45.0
 42
45.0
 43
45.0
  0
INSERT
  8
SUNPOU
  2
ARROWANG
 10
6356.048956
 20
5881.534517
 30
0.0
 41
45.0
 42
45.0
 50
180.0
 43
45.0
  0
LINE
  8
SUNPOU
 10
7556.048956
 20
5556.727156
 30
0.0
 11
7556.048956
 21
5911.534517
 31
0.0
  0
LINE
  8
SUNPOU
 10
6356.048956
 20
5881.534517
 30
0.0
 11
7556.048956
 21
5881.534517
 31
0.0
  0
LINE
  8
SUNPOU
 10
6256.048956
 20
5881.534517
 30
0.0
 11
6166.048956
 21
5881.534517
 31
0.0
  0
LINE
  8
SUNPOU
 10
6356.048956
 20
5881.534517
 30
0.0
 11
6446.048956
 21
5881.534517
 31
0.0
  0
TEXT
  8
SUNPOU
 10
6216.048971
 20
5926.534517
 30
0.0
 40
60.0
  1
100
  7
K
 72
     1
 11
6306.048971
 21
5926.534517
 31
0.0
  0
INSERT
  8
SUNPOU
  2
ARROWANG
 10
6256.048956
 20
5881.534517
 30
0.0
 41
45.0
 42
45.0
 43
45.0
  0
INSERT
  8
SUNPOU
  2
ARROWANG
 10
6356.048956
 20
5881.534517
 30
0.0
 41
45.0
 42
45.0
 50
180.0
 43
45.0
  0
LINE
  8
SUNPOU
 10
6256.048956
 20
5881.534517
 30
0.0
 11
6356.048956
 21
5881.534517
 31
0.0
  0
LINE
  8
SUNPOU
 10
6356.048956
 20
5556.727156
 30
0.0
 11
6356.048956
 21
5911.534517
 31
0.0
  0
LINE
  8
SUNPOU
 10
6256.048956
 20
5579.727156
 30
0.0
 11
6256.048956
 21
5911.534517
 31
0.0
  0
TEXT
  8
SUNPOU
 10
6837.477542
 20
5797.327413
 30
0.0
 40
60.0
  1
1280
  7
K
 72
     1
 11
6956.048971
 21
5797.327413
 31
0.0
  0
INSERT
  8
SUNPOU
  2
ARROWANG
 10
7596.048956
 20
5752.327413
 30
0.0
 41
45.0
 42
45.0
 43
45.0
  0
INSERT
  8
SUNPOU
  2
ARROWANG
 10
6316.048956
 20
5752.327413
 30
0.0
 41
45.0
 42
45.0
 50
180.0
 43
45.0
  0
LINE
  8
SUNPOU
 10
6316.048956
 20
5752.327413
 30
0.0
 11
7596.048956
 21
5752.327413
 31
0.0
  0
LINE
  8
SUNPOU
 10
7596.048956
 20
5579.727156
 30
0.0
 11
7596.048956
 21
5782.327413
 31
0.0
  0
LINE
  8
SUNPOU
 10
6316.048956
 20
5579.727156
 30
0.0
 11
6316.048956
 21
5782.327413
 31
0.0
  0
TEXT
  8
SUNPOU
 10
6837.477542
 20
5665.043948
 30
0.0
 40
60.0
  1
1266
  7
K
 72
     1
 11
6956.048971
 21
5665.043948
 31
0.0
  0
INSERT
  8
SUNPOU
  2
ARROWANG
 10
7589.048956
 20
5620.043948
 30
0.0
 41
45.0
 42
45.0
 43
45.0
  0
INSERT
  8
SUNPOU
  2
ARROWANG
 10
6323.048956
 20
5620.043948
 30
0.0
 41
45.0
 42
45.0
 50
180.0
 43
45.0
  0
LINE
  8
SUNPOU
 10
6323.048956
 20
5620.043948
 30
0.0
 11
7589.048956
 21
5620.043948
 31
0.0
  0
LINE
  8
SUNPOU
 10
7589.048956
 20
5556.727156
 30
0.0
 11
7589.048956
 21
5650.043948
 31
0.0
  0
LINE
  8
SUNPOU
 10
6323.048956
 20
5556.727156
 30
0.0
 11
6323.048956
 21
5650.043948
 31
0.0
  0
LINE
  8
JISSEN
 10
6356.048956
 20
4774.727156
 30
0.0
 11
6476.048956
 21
4774.727156
 31
0.0
  0
LINE
  8
ITTEN
 10
6306.048956
 20
4784.727156
 30
0.0
 11
6536.048956
 21
4784.727156
 31
0.0
  0
LINE
  8
JISSEN
 10
6356.048956
 20
4794.727156
 30
0.0
 11
6476.048956
 21
4794.727156
 31
0.0
  0
ARC
  8
JISSEN
 10
6476.048956
 20
4784.727156
 30
0.0
 40
10.0
 50
270.0
 51
90.0
  0
LINE
  8
JISSEN
 10
6356.048956
 20
5074.727156
 30
0.0
 11
6476.048956
 21
5074.727156
 31
0.0
  0
LINE
  8
ITTEN
 10
6306.048956
 20
5084.727156
 30
0.0
 11
6536.048956
 21
5084.727156
 31
0.0
  0
LINE
  8
JISSEN
 10
6356.048956
 20
5094.727156
 30
0.0
 11
6476.048956
 21
5094.727156
 31
0.0
  0
ARC
  8
JISSEN
 10
6476.048956
 20
5084.727156
 30
0.0
 40
10.0
 50
270.0
 51
90.0
  0
LINE
  8
ITTEN
 10
6306.048956
 20
5384.727156
 30
0.0
 11
6536.048956
 21
5384.727156
 31
0.0
  0
LINE
  8
JISSEN
 10
6356.048956
 20
5374.727156
 30
0.0
 11
6476.048956
 21
5374.727156
 31
0.0
  0
LINE
  8
JISSEN
 10
6356.048956
 20
5394.727156
 30
0.0
 11
6476.048956
 21
5394.727156
 31
0.0
  0
ARC
  8
JISSEN
 10
6476.048956
 20
5384.727156
 30
0.0
 40
10.0
 50
270.0
 51
90.0
  0
ARC
  8
JISSEN
 10
6956.048956
 20
4404.727156
 30
0.0
 40
560.0
 50
90.0
 51
270.0
  0
ARC
  8
HASEN
 10
6956.048956
 20
4404.727156
 30
0.0
 40
560.0
 50
270.0
 51
90.0
  0
LINE
  8
JISSEN
 10
7656.048956
 20
3749.727156
 30
0.0
 11
7656.048956
 21
5549.727156
 31
0.0
  0
LINE
  8
JISSEN
 10
6256.048956
 20
3749.727156
 30
0.0
 11
6256.048956
 21
5549.727156
 31
0.0
  0
LINE
  8
HASEN
 10
7556.048956
 20
5526.727156
 30
0.0
 11
7556.048956
 21
3734.727156
 31
0.0
  0
LINE
  8
JISSEN
 10
6356.048956
 20
5526.727156
 30
0.0
 11
6356.048956
 21
3734.727156
 31
0.0
  0
LINE
  8
JISSEN
 10
7656.048956
 20
5549.727156
 30
0.0
 11
7596.048956
 21
5549.727156
 31
0.0
  0
LINE
  8
HASEN
 10
7596.048956
 20
5549.727156
 30
0.0
 11
7589.048956
 21
5526.727156
 31
0.0
  0
LINE
  8
HASEN
 10
7589.048956
 20
5526.727156
 30
0.0
 11
6956.048956
 21
5526.727156
 31
0.0
  0
LINE
  8
JISSEN
 10
7596.048956
 20
5549.727156
 30
0.0
 11
6956.048956
 21
5549.727156
 31
0.0
  0
LINE
  8
JISSEN
 10
6316.048956
 20
5549.727156
 30
0.0
 11
6956.048956
 21
5549.727156
 31
0.0
  0
LINE
  8
JISSEN
 10
6323.048956
 20
5526.727156
 30
0.0
 11
6956.048956
 21
5526.727156
 31
0.0
  0
LINE
  8
JISSEN
 10
6316.048956
 20
5549.727156
 30
0.0
 11
6323.048956
 21
5526.727156
 31
0.0
  0
LINE
  8
JISSEN
 10
6256.048956
 20
5549.727156
 30
0.0
 11
6316.048956
 21
5549.727156
 31
0.0
  0
LINE
  8
JISSEN
 10
6956.048956
 20
3749.727156
 30
0.0
 11
7595.048956
 21
3749.727156
 31
0.0
  0
LINE
  8
JISSEN
 10
7584.048956
 20
3734.727156
 30
0.0
 11
6956.048956
 21
3734.727156
 31
0.0
  0
LINE
  8
JISSEN
 10
7595.048956
 20
3749.727156
 30
0.0
 11
7584.048956
 21
3734.727156
 31
0.0
  0
LINE
  8
JISSEN
 10
7656.048956
 20
3749.727156
 30
0.0
 11
7595.048956
 21
3749.727156
 31
0.0
  0
LINE
  8
JISSEN
 10
6328.048956
 20
3734.727156
 30
0.0
 11
6956.048956
 21
3734.727156
 31
0.0
  0
LINE
  8
JISSEN
 10
6317.048956
 20
3749.727156
 30
0.0
 11
6328.048956
 21
3734.727156
 31
0.0
  0
LINE
  8
JISSEN
 10
6256.048956
 20
3749.727156
 30
0.0
 11
6317.048956
 21
3749.727156
 31
0.0
  0
LINE
  8
ITTEN
 10
6956.048956
 20
5599.727156
 30
0.0
 11
6956.048956
 21
3684.727156
 31
0.0
  0
LINE
  8
SUNPOU
 10
6293.048956
 20
5526.727156
 30
0.0
 11
6066.293155
 21
5526.727156
 31
0.0
  0
LINE
  8
SUNPOU
 10
6226.048956
 20
5549.727156
 30
0.0
 11
6066.293155
 21
5549.727156
 31
0.0
  0
LINE
  8
SUNPOU
 10
6096.293155
 20
5526.727156
 30
0.0
 11
6096.293155
 21
5549.727156
 31
0.0
  0
INSERT
  8
SUNPOU
  2
ARROWANG
 10
6096.293155
 20
5526.727156
 30
0.0
 41
45.0
 42
45.0
 50
90.0
 43
45.0
  0
INSERT
  8
SUNPOU
  2
ARROWANG
 10
6096.293155
 20
5549.727156
 30
0.0
 41
45.0
 42
45.0
 50
270.0
 43
45.0
  0
LINE
  8
SUNPOU
 10
6096.293155
 20
5549.727156
 30
0.0
 11
6096.293155
 21
5681.727156
 31
0.0
  0
LINE
  8
SUNPOU
 10
6096.293155
 20
5526.727156
 30
0.0
 11
6096.293157
 21
5436.727156
 31
0.0
  0
TEXT
  8
SUNPOU
 10
6051.293155
 20
5558.584299
 30
0.0
 40
60.0
  1
23
 50
90.0
  7
K
 72
     1
 11
6051.293155
 21
5615.727156
 31
0.0
  0
TEXT
  8
SUNPOU
 10
3923.202283
 20
5558.584299
 30
0.0
 40
60.0
  1
23
 50
90.0
  7
K
 72
     1
 11
3923.202283
 21
5615.727156
 31
0.0
  0
LINE
  8
SUNPOU
 10
3968.202283
 20
5526.727156
 30
0.0
 11
3968.202284
 21
5436.727156
 31
0.0
  0
LINE
  8
SUNPOU
 10
3968.202283
 20
5549.727156
 30
0.0
 11
3968.202283
 21
5681.727156
 31
0.0
  0
INSERT
  8
SUNPOU
  2
ARROWANG
 10
3968.202283
 20
5549.727156
 30
0.0
 41
45.0
 42
45.0
 50
270.0
 43
45.0
  0
INSERT
  8
SUNPOU
  2
ARROWANG
 10
3968.202283
 20
5526.727156
 30
0.0
 41
45.0
 42
45.0
 50
90.0
 43
45.0
  0
LINE
  8
SUNPOU
 10
3968.202283
 20
5526.727156
 30
0.0
 11
3968.202283
 21
5549.727156
 31
0.0
  0
LINE
  8
SUNPOU
 10
4097.958083
 20
5549.727156
 30
0.0
 11
3938.202283
 21
5549.727156
 31
0.0
  0
LINE
  8
SUNPOU
 10
4164.958083
 20
5526.727156
 30
0.0
 11
3938.202283
 21
5526.727156
 31
0.0
  0
LINE
  8
SUNPOU
 10
3829.306824
 20
3449.727156
 30
0.0
 11
3829.306824
 21
3539.727156
 31
0.0
  0
LINE
  8
SUNPOU
 10
3829.306824
 20
3434.727156
 30
0.0
 11
3829.306824
 21
3344.727156
 31
0.0
  0
TEXT
  8
SUNPOU
 10
3784.306824
 20
3269.01287
 30
0.0
 40
60.0
  1
15
 50
90.0
  7
K
 72
     2
 11
3784.306824
 21
3374.727156
 31
0.0
  0
LINE
  8
SUNPOU
 10
3829.306824
 20
3434.727156
 30
0.0
 11
3829.306824
 21
3302.727156
 31
0.0
  0
INSERT
  8
SUNPOU
  2
ARROWANG
 10
3829.306824
 20
3449.727156
 30
0.0
 41
45.0
 42
45.0
 50
270.0
 43
45.0
  0
INSERT
  8
SUNPOU
  2
ARROWANG
 10
3829.306824
 20
3434.727156
 30
0.0
 41
45.0
 42
45.0
 50
90.0
 43
45.0
  0
LINE
  8
SUNPOU
 10
4169.958083
 20
3434.727156
 30
0.0
 11
3799.306824
 21
3434.727156
 31
0.0
  0
LINE
  8
SUNPOU
 10
3829.306824
 20
3449.727156
 30
0.0
 11
3829.306824
 21
3434.727156
 31
0.0
  0
TEXT
  8
SUNPOU
 10
3784.306824
 20
4385.441442
 30
0.0
 40
60.0
  1
2100
 50
90.0
  7
K
 72
     1
 11
3784.306824
 21
4499.727156
 31
0.0
  0
INSERT
  8
SUNPOU
  2
ARROWANG
 10
3829.306824
 20
5549.727156
 30
0.0
 41
45.0
 42
45.0
 50
90.0
 43
45.0
  0
INSERT
  8
SUNPOU
  2
ARROWANG
 10
3829.306824
 20
3449.727156
 30
0.0
 41
45.0
 42
45.0
 50
270.0
 43
45.0
  0
LINE
  8
SUNPOU
 10
3829.306824
 20
3449.727156
 30
0.0
 11
3829.306824
 21
5549.727156
 31
0.0
  0
LINE
  8
SUNPOU
 10
4097.958083
 20
5549.727156
 30
0.0
 11
3799.306824
 21
5549.727156
 31
0.0
  0
LINE
  8
SUNPOU
 10
4097.958083
 20
3449.727156
 30
0.0
 11
3799.306824
 21
3449.727156
 31
0.0
  0
LINE
  8
ITTEN
 10
4827.958083
 20
5599.727156
 30
0.0
 11
4827.958083
 21
3384.727156
 31
0.0
  0
LINE
  8
JISSEN
 10
4127.958083
 20
3449.727156
 30
0.0
 11
4188.958083
 21
3449.727156
 31
0.0
  0
LINE
  8
JISSEN
 10
4188.958083
 20
3449.727156
 30
0.0
 11
4199.958083
 21
3434.727156
 31
0.0
  0
LINE
  8
JISSEN
 10
4199.958083
 20
3434.727156
 30
0.0
 11
4827.958083
 21
3434.727156
 31
0.0
  0
LINE
  8
JISSEN
 10
5527.958083
 20
3449.727156
 30
0.0
 11
5466.958083
 21
3449.727156
 31
0.0
  0
LINE
  8
JISSEN
 10
5466.958083
 20
3449.727156
 30
0.0
 11
5455.958083
 21
3434.727156
 31
0.0
  0
LINE
  8
JISSEN
 10
5455.958083
 20
3434.727156
 30
0.0
 11
4827.958083
 21
3434.727156
 31
0.0
  0
LINE
  8
JISSEN
 10
4827.958083
 20
3449.727156
 30
0.0
 11
5466.958083
 21
3449.727156
 31
0.0
  0
LINE
  8
JISSEN
 10
4127.958083
 20
5549.727156
 30
0.0
 11
4187.958083
 21
5549.727156
 31
0.0
  0
LINE
  8
JISSEN
 10
4187.958083
 20
5549.727156
 30
0.0
 11
4194.958083
 21
5526.727156
 31
0.0
  0
LINE
  8
JISSEN
 10
4194.958083
 20
5526.727156
 30
0.0
 11
4827.958083
 21
5526.727156
 31
0.0
  0
LINE
  8
JISSEN
 10
4187.958083
 20
5549.727156
 30
0.0
 11
4827.958083
 21
5549.727156
 31
0.0
  0
LINE
  8
JISSEN
 10
5467.958083
 20
5549.727156
 30
0.0
 11
4827.958083
 21
5549.727156
 31
0.0
  0
LINE
  8
HASEN
 10
5460.958083
 20
5526.727156
 30
0.0
 11
4827.958083
 21
5526.727156
 31
0.0
  0
LINE
  8
HASEN
 10
5467.958083
 20
5549.727156
 30
0.0
 11
5460.958083
 21
5526.727156
 31
0.0
  0
LINE
  8
JISSEN
 10
5527.958083
 20
5549.727156
 30
0.0
 11
5467.958083
 21
5549.727156
 31
0.0
  0
LINE
  8
JISSEN
 10
4227.958083
 20
5526.727156
 30
0.0
 11
4227.958083
 21
3434.727156
 31
0.0
  0
LINE
  8
HASEN
 10
5427.958083
 20
5526.727156
 30
0.0
 11
5427.958083
 21
3434.727156
 31
0.0
  0
LINE
  8
JISSEN
 10
4127.958083
 20
3449.727156
 30
0.0
 11
4127.958083
 21
5549.727156
 31
0.0
  0
LINE
  8
JISSEN
 10
5527.958083
 20
3449.727156
 30
0.0
 11
5527.958083
 21
5549.727156
 31
0.0
  0
ARC
  8
HASEN
 10
4827.958083
 20
4104.727156
 30
0.0
 40
560.0
 50
270.0
 51
90.0
  0
ARC
  8
JISSEN
 10
4827.958083
 20
4104.727156
 30
0.0
 40
560.0
 50
90.0
 51
270.0
  0
ARC
  8
JISSEN
 10
4347.958083
 20
5384.727156
 30
0.0
 40
10.0
 50
270.0
 51
90.0
  0
LINE
  8
JISSEN
 10
4227.958083
 20
5394.727156
 30
0.0
 11
4347.958083
 21
5394.727156
 31
0.0
  0
LINE
  8
JISSEN
 10
4227.958083
 20
5374.727156
 30
0.0
 11
4347.958083
 21
5374.727156
 31
0.0
  0
LINE
  8
ITTEN
 10
4177.958083
 20
5384.727156
 30
0.0
 11
4407.958083
 21
5384.727156
 31
0.0
  0
ARC
  8
JISSEN
 10
4347.958083
 20
5084.727156
 30
0.0
 40
10.0
 50
270.0
 51
90.0
  0
LINE
  8
JISSEN
 10
4227.958083
 20
5094.727156
 30
0.0
 11
4347.958083
 21
5094.727156
 31
0.0
  0
LINE
  8
ITTEN
 10
4177.958083
 20
5084.727156
 30
0.0
 11
4407.958083
 21
5084.727156
 31
0.0
  0
LINE
  8
JISSEN
 10
4227.958083
 20
5074.727156
 30
0.0
 11
4347.958083
 21
5074.727156
 31
0.0
  0
ARC
  8
JISSEN
 10
4347.958083
 20
4784.727156
 30
0.0
 40
10.0
 50
270.0
 51
90.0
  0
LINE
  8
JISSEN
 10
4227.958083
 20
4794.727156
 30
0.0
 11
4347.958083
 21
4794.727156
 31
0.0
  0
LINE
  8
ITTEN
 10
4177.958083
 20
4784.727156
 30
0.0
 11
4407.958083
 21
4784.727156
 31
0.0
  0
LINE
  8
JISSEN
 10
4227.958083
 20
4774.727156
 30
0.0
 11
4347.958083
 21
4774.727156
 31
0.0
  0
ARC
  8
JISSEN
 10
4347.958083
 20
4484.727156
 30
0.0
 40
10.0
 50
270.0
 51
90.0
  0
LINE
  8
JISSEN
 10
4227.958083
 20
4494.727156
 30
0.0
 11
4347.958083
 21
4494.727156
 31
0.0
  0
LINE
  8
ITTEN
 10
4177.958083
 20
4484.727156
 30
0.0
 11
4407.958083
 21
4484.727156
 31
0.0
  0
LINE
  8
JISSEN
 10
4227.958083
 20
4474.727156
 30
0.0
 11
4347.958083
 21
4474.727156
 31
0.0
  0
LINE
  8
SUNPOU
 10
4194.958083
 20
5556.727156
 30
0.0
 11
4194.958083
 21
5650.043948
 31
0.0
  0
LINE
  8
SUNPOU
 10
5460.958083
 20
5556.727156
 30
0.0
 11
5460.958083
 21
5650.043948
 31
0.0
  0
LINE
  8
SUNPOU
 10
4194.958083
 20
5620.043948
 30
0.0
 11
5460.958083
 21
5620.043948
 31
0.0
  0
INSERT
  8
SUNPOU
  2
ARROWANG
 10
4194.958083
 20
5620.043948
 30
0.0
 41
45.0
 42
45.0
 50
180.0
 43
45.0
  0
INSERT
  8
SUNPOU
  2
ARROWANG
 10
5460.958083
 20
5620.043948
 30
0.0
 41
45.0
 42
45.0
 43
45.0
  0
TEXT
  8
SUNPOU
 10
4709.38667
 20
5665.043948
 30
0.0
 40
60.0
  1
1266
  7
K
 72
     1
 11
4827.958098
 21
5665.043948
 31
0.0
  0
LINE
  8
SUNPOU
 10
4187.958083
 20
5579.727156
 30
0.0
 11
4187.958083
 21
5782.327413
 31
0.0
  0
LINE
  8
SUNPOU
 10
5467.958083
 20
5579.727156
 30
0.0
 11
5467.958083
 21
5782.327413
 31
0.0
  0
LINE
  8
SUNPOU
 10
4187.958083
 20
5752.327413
 30
0.0
 11
5467.958083
 21
5752.327413
 31
0.0
  0
INSERT
  8
SUNPOU
  2
ARROWANG
 10
4187.958083
 20
5752.327413
 30
0.0
 41
45.0
 42
45.0
 50
180.0
 43
45.0
  0
INSERT
  8
SUNPOU
  2
ARROWANG
 10
5467.958083
 20
5752.327413
 30
0.0
 41
45.0
 42
45.0
 43
45.0
  0
TEXT
  8
SUNPOU
 10
4709.38667
 20
5797.327413
 30
0.0
 40
60.0
  1
1280
  7
K
 72
     1
 11
4827.958098
 21
5797.327413
 31
0.0
  0
LINE
  8
SUNPOU
 10
4127.958083
 20
5579.727156
 30
0.0
 11
4127.958083
 21
5911.534517
 31
0.0
  0
LINE
  8
SUNPOU
 10
4227.958083
 20
5556.727156
 30
0.0
 11
4227.958083
 21
5911.534517
 31
0.0
  0
LINE
  8
SUNPOU
 10
4127.958083
 20
5881.534517
 30
0.0
 11
4227.958083
 21
5881.534517
 31
0.0
  0
INSERT
  8
SUNPOU
  2
ARROWANG
 10
4227.958083
 20
5881.534517
 30
0.0
 41
45.0
 42
45.0
 50
180.0
 43
45.0
  0
INSERT
  8
SUNPOU
  2
ARROWANG
 10
4127.958083
 20
5881.534517
 30
0.0
 41
45.0
 42
45.0
 43
45.0
  0
TEXT
  8
SUNPOU
 10
4087.958098
 20
5926.534517
 30
0.0
 40
60.0
  1
100
  7
K
 72
     1
 11
4177.958098
 21
5926.534517
 31
0.0
  0
LINE
  8
SUNPOU
 10
4227.958083
 20
5881.534517
 30
0.0
 11
4317.958083
 21
5881.534517
 31
0.0
  0
LINE
  8
SUNPOU
 10
4127.958083
 20
5881.534517
 30
0.0
 11
4037.958083
 21
5881.534517
 31
0.0
  0
LINE
  8
SUNPOU
 10
4227.958083
 20
5881.534517
 30
0.0
 11
5427.958083
 21
5881.534517
 31
0.0
  0
LINE
  8
SUNPOU
 10
5427.958083
 20
5556.727156
 30
0.0
 11
5427.958083
 21
5911.534517
 31
0.0
  0
INSERT
  8
SUNPOU
  2
ARROWANG
 10
4227.958083
 20
5881.534517
 30
0.0
 41
45.0
 42
45.0
 50
180.0
 43
45.0
  0
INSERT
  8
SUNPOU
  2
ARROWANG
 10
5427.958083
 20
5881.534517
 30
0.0
 41
45.0
 42
45.0
 43
45.0
  0
TEXT
  8
SUNPOU
 10
4709.386655
 20
5926.534517
 30
0.0
 40
60.0
  1
1200
  7
K
 72
     1
 11
4827.958083
 21
5926.534517
 31
0.0
  0
LINE
  8
SUNPOU
 10
5427.958083
 20
5881.534517
 30
0.0
 11
5527.958083
 21
5881.534517
 31
0.0
  0
LINE
  8
SUNPOU
 10
5527.958083
 20
5579.727156
 30
0.0
 11
5527.958083
 21
5911.534517
 31
0.0
  0
INSERT
  8
SUNPOU
  2
ARROWANG
 10
5527.958083
 20
5881.534517
 30
0.0
 41
45.0
 42
45.0
 50
180.0
 43
45.0
  0
INSERT
  8
SUNPOU
  2
ARROWANG
 10
5427.958083
 20
5881.534517
 30
0.0
 41
45.0
 42
45.0
 43
45.0
  0
TEXT
  8
SUNPOU
 10
5387.958083
 20
5941.534517
 30
0.0
 40
60.0
  1
100
  7
K
 72
     4
 11
5477.958083
 21
5971.534517
 31
0.0
  0
LINE
  8
SUNPOU
 10
5527.958083
 20
5881.534517
 30
0.0
 11
5617.958083
 21
5881.534517
 31
0.0
  0
LINE
  8
SUNPOU
 10
5427.958083
 20
5881.534517
 30
0.0
 11
5337.958083
 21
5881.534517
 31
0.0
  0
LINE
  8
SUNPOU
 10
4199.958083
 20
3404.727156
 30
0.0
 11
4199.958083
 21
3245.40011
 31
0.0
  0
LINE
  8
SUNPOU
 10
5455.958083
 20
3404.727156
 30
0.0
 11
5455.958083
 21
3245.40011
 31
0.0
  0
LINE
  8
SUNPOU
 10
4199.958083
 20
3275.40011
 30
0.0
 11
5455.958083
 21
3275.40011
 31
0.0
  0
INSERT
  8
SUNPOU
  2
ARROWANG
 10
5455.958083
 20
3275.40011
 30
0.0
 41
45.0
 42
45.0
 43
45.0
  0
INSERT
  8
SUNPOU
  2
ARROWANG
 10
4199.958083
 20
3275.40011
 30
0.0
 41
45.0
 42
45.0
 50
180.0
 43
45.0
  0
TEXT
  8
SUNPOU
 10
4709.386655
 20
3320.40011
 30
0.0
 40
60.0
  1
1256
  7
K
 72
     1
 11
4827.958083
 21
3320.40011
 31
0.0
  0
LINE
  8
SUNPOU
 10
4188.958083
 20
3419.727156
 30
0.0
 11
4188.958083
 21
3123.371177
 31
0.0
  0
LINE
  8
SUNPOU
 10
5466.958083
 20
3419.727156
 30
0.0
 11
5466.958083
 21
3123.371177
 31
0.0
  0
LINE
  8
SUNPOU
 10
4188.958083
 20
3153.371177
 30
0.0
 11
5466.958083
 21
3153.371177
 31
0.0
  0
INSERT
  8
SUNPOU
  2
ARROWANG
 10
4188.958083
 20
3153.371177
 30
0.0
 41
45.0
 42
45.0
 50
180.0
 43
45.0
  0
INSERT
  8
SUNPOU
  2
ARROWANG
 10
5466.958083
 20
3153.371177
 30
0.0
 41
45.0
 42
45.0
 43
45.0
  0
TEXT
  8
SUNPOU
 10
4709.38667
 20
3198.371177
 30
0.0
 40
60.0
  1
1278
  7
K
 72
     1
 11
4827.958098
 21
3198.371177
 31
0.0
  0
LINE
  8
SUNPOU
 10
4437.958083
 20
4484.727156
 30
0.0
 11
4542.933608
 21
4484.727156
 31
0.0
  0
LINE
  8
SUNPOU
 10
4512.933608
 20
4484.727156
 30
0.0
 11
4512.933608
 21
4784.727156
 31
0.0
  0
LINE
  8
SUNPOU
 10
4437.958083
 20
4784.727156
 30
0.0
 11
4542.933608
 21
4784.727156
 31
0.0
  0
INSERT
  8
SUNPOU
  2
ARROWANG
 10
4512.933608
 20
4484.727156
 30
0.0
 41
45.0
 42
45.0
 50
270.0
 43
45.0
  0
INSERT
  8
SUNPOU
  2
ARROWANG
 10
4512.933608
 20
4784.727156
 30
0.0
 41
45.0
 42
45.0
 50
90.0
 43
45.0
  0
TEXT
  8
SUNPOU
 10
4467.933608
 20
4549.01287
 30
0.0
 40
60.0
  1
300
 50
90.0
  7
K
 72
     1
 11
4467.933608
 21
4634.727156
 31
0.0
  0
LINE
  8
SUNPOU
 10
4512.933608
 20
4784.727156
 30
0.0
 11
4512.933608
 21
5084.727156
 31
0.0
  0
LINE
  8
SUNPOU
 10
4437.958083
 20
5084.727156
 30
0.0
 11
4542.933608
 21
5084.727156
 31
0.0
  0
INSERT
  8
SUNPOU
  2
ARROWANG
 10
4512.933608
 20
4784.727156
 30
0.0
 41
45.0
 42
45.0
 50
270.0
 43
45.0
  0
INSERT
  8
SUNPOU
  2
ARROWANG
 10
4512.933608
 20
5084.727156
 30
0.0
 41
45.0
 42
45.0
 50
90.0
 43
45.0
  0
TEXT
  8
SUNPOU
 10
4467.933608
 20
4849.01287
 30
0.0
 40
60.0
  1
300
 50
90.0
  7
K
 72
     1
 11
4467.933608
 21
4934.727156
 31
0.0
  0
LINE
  8
SUNPOU
 10
4512.933608
 20
5084.727156
 30
0.0
 11
4512.933608
 21
5384.727156
 31
0.0
  0
LINE
  8
SUNPOU
 10
4437.958083
 20
5384.727156
 30
0.0
 11
4542.933608
 21
5384.727156
 31
0.0
  0
INSERT
  8
SUNPOU
  2
ARROWANG
 10
4512.933608
 20
5084.727156
 30
0.0
 41
45.0
 42
45.0
 50
270.0
 43
45.0
  0
INSERT
  8
SUNPOU
  2
ARROWANG
 10
4512.933608
 20
5384.727156
 30
0.0
 41
45.0
 42
45.0
 50
90.0
 43
45.0
  0
TEXT
  8
SUNPOU
 10
4467.933608
 20
5149.01287
 30
0.0
 40
60.0
  1
300
 50
90.0
  7
K
 72
     1
 11
4467.933608
 21
5234.727156
 31
0.0
  0
CIRCLE
  8
SAISEN
 10
4332.983337
 20
3549.727156
 30
0.0
 40
12.5
  0
CIRCLE
  8
SAISEN
 10
5322.93283
 20
3549.727156
 30
0.0
 40
12.5
  0
LINE
  8
SUNPOU
 10
5557.958083
 20
3449.727156
 30
0.0
 11
5697.464798
 21
3449.727156
 31
0.0
  0
LINE
  8
SUNPOU
 10
5352.93283
 20
3549.727156
 30
0.0
 11
5697.464798
 21
3549.727156
 31
0.0
  0
LINE
  8
SUNPOU
 10
5667.464798
 20
3449.727156
 30
0.0
 11
5667.464798
 21
3549.727156
 31
0.0
  0
INSERT
  8
SUNPOU
  2
ARROWANG
 10
5667.464798
 20
3449.727156
 30
0.0
 41
45.0
 42
45.0
 50
90.0
 43
45.0
  0
INSERT
  8
SUNPOU
  2
ARROWANG
 10
5667.464798
 20
3549.727156
 30
0.0
 41
45.0
 42
45.0
 50
270.0
 43
45.0
  0
LINE
  8
SUNPOU
 10
5667.464798
 20
3549.727156
 30
0.0
 11
5667.464798
 21
3747.727156
 31
0.0
  0
LINE
  8
SUNPOU
 10
5667.464798
 20
3449.727156
 30
0.0
 11
5667.464799
 21
3359.727156
 31
0.0
  0
TEXT
  8
SUNPOU
 10
5622.464798
 20
3558.727156
 30
0.0
 40
60.0
  1
100
 50
90.0
  7
K
 72
     1
 11
5622.464798
 21
3648.727156
 31
0.0
  0
CIRCLE
  8
SAISEN
 10
5322.93283
 20
5449.727156
 30
0.0
 40
12.5
  0
CIRCLE
  8
SAISEN
 10
4332.983337
 20
5449.727156
 30
0.0
 40
12.5
  0
LINE
  8
SUNPOU
 10
5352.93283
 20
5449.727156
 30
0.0
 11
5682.383839
 21
5449.727156
 31
0.0
  0
LINE
  8
SUNPOU
 10
5557.958083
 20
5549.727156
 30
0.0
 11
5682.383839
 21
5549.727156
 31
0.0
  0
LINE
  8
SUNPOU
 10
5652.383839
 20
5449.727156
 30
0.0
 11
5652.383839
 21
5549.727156
 31
0.0
  0
INSERT
  8
SUNPOU
  2
ARROWANG
 10
5652.383839
 20
5449.727156
 30
0.0
 41
45.0
 42
45.0
 50
90.0
 43
45.0
  0
INSERT
  8
SUNPOU
  2
ARROWANG
 10
5652.383839
 20
5549.727156
 30
0.0
 41
45.0
 42
45.0
 50
270.0
 43
45.0
  0
LINE
  8
SUNPOU
 10
5652.383839
 20
5449.727156
 30
0.0
 11
5652.383839
 21
5251.727156
 31
0.0
  0
LINE
  8
SUNPOU
 10
5652.383839
 20
5549.727156
 30
0.0
 11
5652.383839
 21
5639.727156
 31
0.0
  0
TEXT
  8
SUNPOU
 10
5607.383839
 20
5260.727156
 30
0.0
 40
60.0
  1
100
 50
90.0
  7
K
 72
     1
 11
5607.383839
 21
5350.727156
 31
0.0
  0
TEXT
  8
SUNPOU
 10
3476.822828
 20
5260.727156
 30
0.0
 40
60.0
  1
100
 50
90.0
  7
K
 72
     1
 11
3476.822828
 21
5350.727156
 31
0.0
  0
LINE
  8
SUNPOU
 10
3521.822828
 20
5549.727156
 30
0.0
 11
3521.822828
 21
5639.727156
 31
0.0
  0
LINE
  8
SUNPOU
 10
3521.822828
 20
5449.727156
 30
0.0
 11
3521.822828
 21
5251.727156
 31
0.0
  0
INSERT
  8
SUNPOU
  2
ARROWANG
 10
3521.822828
 20
5549.727156
 30
0.0
 41
45.0
 42
45.0
 50
270.0
 43
45.0
  0
INSERT
  8
SUNPOU
  2
ARROWANG
 10
3521.822828
 20
5449.727156
 30
0.0
 41
45.0
 42
45.0
 50
90.0
 43
45.0
  0
LINE
  8
SUNPOU
 10
3521.822828
 20
5449.727156
 30
0.0
 11
3521.822828
 21
5549.727156
 31
0.0
  0
LINE
  8
SUNPOU
 10
3427.397072
 20
5549.727156
 30
0.0
 11
3551.822828
 21
5549.727156
 31
0.0
  0
LINE
  8
SUNPOU
 10
3222.371819
 20
5449.727156
 30
0.0
 11
3551.822828
 21
5449.727156
 31
0.0
  0
CIRCLE
  8
SAISEN
 10
2202.422325
 20
5449.727156
 30
0.0
 40
12.5
  0
CIRCLE
  8
SAISEN
 10
3192.371819
 20
5449.727156
 30
0.0
 40
12.5
  0
TEXT
  8
SUNPOU
 10
3491.903786
 20
3258.727156
 30
0.0
 40
60.0
  1
100
 50
90.0
  7
K
 72
     1
 11
3491.903786
 21
3348.727156
 31
0.0
  0
LINE
  8
SUNPOU
 10
3536.903786
 20
3149.727156
 30
0.0
 11
3536.903788
 21
3059.727156
 31
0.0
  0
LINE
  8
SUNPOU
 10
3536.903786
 20
3249.727156
 30
0.0
 11
3536.903786
 21
3447.727156
 31
0.0
  0
INSERT
  8
SUNPOU
  2
ARROWANG
 10
3536.903786
 20
3249.727156
 30
0.0
 41
45.0
 42
45.0
 50
270.0
 43
45.0
  0
INSERT
  8
SUNPOU
  2
ARROWANG
 10
3536.903786
 20
3149.727156
 30
0.0
 41
45.0
 42
45.0
 50
90.0
 43
45.0
  0
LINE
  8
SUNPOU
 10
3536.903786
 20
3149.727156
 30
0.0
 11
3536.903786
 21
3249.727156
 31
0.0
  0
LINE
  8
SUNPOU
 10
3222.371819
 20
3249.727156
 30
0.0
 11
3566.903786
 21
3249.727156
 31
0.0
  0
LINE
  8
SUNPOU
 10
3427.397072
 20
3149.727156
 30
0.0
 11
3566.903786
 21
3149.727156
 31
0.0
  0
CIRCLE
  8
SAISEN
 10
3192.371819
 20
3249.727156
 30
0.0
 40
12.5
  0
CIRCLE
  8
SAISEN
 10
2202.422325
 20
3249.727156
 30
0.0
 40
12.5
  0
TEXT
  8
SUNPOU
 10
2337.372597
 20
5149.01287
 30
0.0
 40
60.0
  1
300
 50
90.0
  7
K
 72
     1
 11
2337.372597
 21
5234.727156
 31
0.0
  0
INSERT
  8
SUNPOU
  2
ARROWANG
 10
2382.372597
 20
5384.727156
 30
0.0
 41
45.0
 42
45.0
 50
90.0
 43
45.0
  0
INSERT
  8
SUNPOU
  2
ARROWANG
 10
2382.372597
 20
5084.727156
 30
0.0
 41
45.0
 42
45.0
 50
270.0
 43
45.0
  0
LINE
  8
SUNPOU
 10
2307.397072
 20
5384.727156
 30
0.0
 11
2412.372597
 21
5384.727156
 31
0.0
  0
LINE
  8
SUNPOU
 10
2382.372597
 20
5084.727156
 30
0.0
 11
2382.372597
 21
5384.727156
 31
0.0
  0
TEXT
  8
SUNPOU
 10
2337.372597
 20
4849.01287
 30
0.0
 40
60.0
  1
300
 50
90.0
  7
K
 72
     1
 11
2337.372597
 21
4934.727156
 31
0.0
  0
INSERT
  8
SUNPOU
  2
ARROWANG
 10
2382.372597
 20
5084.727156
 30
0.0
 41
45.0
 42
45.0
 50
90.0
 43
45.0
  0
INSERT
  8
SUNPOU
  2
ARROWANG
 10
2382.372597
 20
4784.727156
 30
0.0
 41
45.0
 42
45.0
 50
270.0
 43
45.0
  0
LINE
  8
SUNPOU
 10
2307.397072
 20
5084.727156
 30
0.0
 11
2412.372597
 21
5084.727156
 31
0.0
  0
LINE
  8
SUNPOU
 10
2382.372597
 20
4784.727156
 30
0.0
 11
2382.372597
 21
5084.727156
 31
0.0
  0
TEXT
  8
SUNPOU
 10
2337.372597
 20
4549.01287
 30
0.0
 40
60.0
  1
300
 50
90.0
  7
K
 72
     1
 11
2337.372597
 21
4634.727156
 31
0.0
  0
INSERT
  8
SUNPOU
  2
ARROWANG
 10
2382.372597
 20
4784.727156
 30
0.0
 41
45.0
 42
45.0
 50
90.0
 43
45.0
  0
INSERT
  8
SUNPOU
  2
ARROWANG
 10
2382.372597
 20
4484.727156
 30
0.0
 41
45.0
 42
45.0
 50
270.0
 43
45.0
  0
LINE
  8
SUNPOU
 10
2307.397072
 20
4784.727156
 30
0.0
 11
2412.372597
 21
4784.727156
 31
0.0
  0
LINE
  8
SUNPOU
 10
2382.372597
 20
4484.727156
 30
0.0
 11
2382.372597
 21
4784.727156
 31
0.0
  0
TEXT
  8
SUNPOU
 10
2337.372597
 20
4249.01287
 30
0.0
 40
60.0
  1
300
 50
90.0
  7
K
 72
     1
 11
2337.372597
 21
4334.727156
 31
0.0
  0
INSERT
  8
SUNPOU
  2
ARROWANG
 10
2382.372597
 20
4484.727156
 30
0.0
 41
45.0
 42
45.0
 50
90.0
 43
45.0
  0
INSERT
  8
SUNPOU
  2
ARROWANG
 10
2382.372597
 20
4184.727156
 30
0.0
 41
45.0
 42
45.0
 50
270.0
 43
45.0
  0
LINE
  8
SUNPOU
 10
2382.372597
 20
4184.727156
 30
0.0
 11
2382.372597
 21
4484.727156
 31
0.0
  0
LINE
  8
SUNPOU
 10
2307.397072
 20
4484.727156
 30
0.0
 11
2412.372597
 21
4484.727156
 31
0.0
  0
LINE
  8
SUNPOU
 10
2307.397072
 20
4184.727156
 30
0.0
 11
2412.372597
 21
4184.727156
 31
0.0
  0
TEXT
  8
SUNPOU
 10
2578.825658
 20
2898.371177
 30
0.0
 40
60.0
  1
1278
  7
K
 72
     1
 11
2697.397087
 21
2898.371177
 31
0.0
  0
INSERT
  8
SUNPOU
  2
ARROWANG
 10
3336.397072
 20
2853.371177
 30
0.0
 41
45.0
 42
45.0
 43
45.0
  0
INSERT
  8
SUNPOU
  2
ARROWANG
 10
2058.397072
 20
2853.371177
 30
0.0
 41
45.0
 42
45.0
 50
180.0
 43
45.0
  0
LINE
  8
SUNPOU
 10
2058.397072
 20
2853.371177
 30
0.0
 11
3336.397072
 21
2853.371177
 31
0.0
  0
LINE
  8
SUNPOU
 10
3336.397072
 20
3119.727156
 30
0.0
 11
3336.397072
 21
2823.371177
 31
0.0
  0
LINE
  8
SUNPOU
 10
2058.397072
 20
3119.727156
 30
0.0
 11
2058.397072
 21
2823.371177
 31
0.0
  0
TEXT
  8
SUNPOU
 10
2578.825644
 20
3020.40011
 30
0.0
 40
60.0
  1
1256
  7
K
 72
     1
 11
2697.397072
 21
3020.40011
 31
0.0
  0
INSERT
  8
SUNPOU
  2
ARROWANG
 10
2069.397072
 20
2975.40011
 30
0.0
 41
45.0
 42
45.0
 50
180.0
 43
45.0
  0
INSERT
  8
SUNPOU
  2
ARROWANG
 10
3325.397072
 20
2975.40011
 30
0.0
 41
45.0
 42
45.0
 43
45.0
  0
LINE
  8
SUNPOU
 10
2069.397072
 20
2975.40011
 30
0.0
 11
3325.397072
 21
2975.40011
 31
0.0
  0
LINE
  8
SUNPOU
 10
3325.397072
 20
3104.727156
 30
0.0
 11
3325.397072
 21
2945.40011
 31
0.0
  0
LINE
  8
SUNPOU
 10
2069.397072
 20
3104.727156
 30
0.0
 11
2069.397072
 21
2945.40011
 31
0.0
  0
LINE
  8
SUNPOU
 10
3297.397072
 20
5881.534517
 30
0.0
 11
3207.397072
 21
5881.534517
 31
0.0
  0
LINE
  8
SUNPOU
 10
3397.397072
 20
5881.534517
 30
0.0
 11
3487.397072
 21
5881.534517
 31
0.0
  0
TEXT
  8
SUNPOU
 10
3257.397072
 20
5941.534517
 30
0.0
 40
60.0
  1
100
  7
K
 72
     4
 11
3347.397072
 21
5971.534517
 31
0.0
  0
INSERT
  8
SUNPOU
  2
ARROWANG
 10
3297.397072
 20
5881.534517
 30
0.0
 41
45.0
 42
45.0
 43
45.0
  0
INSERT
  8
SUNPOU
  2
ARROWANG
 10
3397.397072
 20
5881.534517
 30
0.0
 41
45.0
 42
45.0
 50
180.0
 43
45.0
  0
LINE
  8
SUNPOU
 10
3397.397072
 20
5579.727156
 30
0.0
 11
3397.397072
 21
5911.534517
 31
0.0
  0
LINE
  8
SUNPOU
 10
3297.397072
 20
5881.534517
 30
0.0
 11
3397.397072
 21
5881.534517
 31
0.0
  0
TEXT
  8
SUNPOU
 10
2578.825644
 20
5926.534517
 30
0.0
 40
60.0
  1
1200
  7
K
 72
     1
 11
2697.397072
 21
5926.534517
 31
0.0
  0
INSERT
  8
SUNPOU
  2
ARROWANG
 10
3297.397072
 20
5881.534517
 30
0.0
 41
45.0
 42
45.0
 43
45.0
  0
INSERT
  8
SUNPOU
  2
ARROWANG
 10
2097.397072
 20
5881.534517
 30
0.0
 41
45.0
 42
45.0
 50
180.0
 43
45.0
  0
LINE
  8
SUNPOU
 10
3297.397072
 20
5556.727156
 30
0.0
 11
3297.397072
 21
5911.534517
 31
0.0
  0
LINE
  8
SUNPOU
 10
2097.397072
 20
5881.534517
 30
0.0
 11
3297.397072
 21
5881.534517
 31
0.0
  0
LINE
  8
SUNPOU
 10
1997.397072
 20
5881.534517
 30
0.0
 11
1907.397072
 21
5881.534517
 31
0.0
  0
LINE
  8
SUNPOU
 10
2097.397072
 20
5881.534517
 30
0.0
 11
2187.397072
 21
5881.534517
 31
0.0
  0
TEXT
  8
SUNPOU
 10
1957.397087
 20
5926.534517
 30
0.0
 40
60.0
  1
100
  7
K
 72
     1
 11
2047.397087
 21
5926.534517
 31
0.0
  0
INSERT
  8
SUNPOU
  2
ARROWANG
 10
1997.397072
 20
5881.534517
 30
0.0
 41
45.0
 42
45.0
 43
45.0
  0
INSERT
  8
SUNPOU
  2
ARROWANG
 10
2097.397072
 20
5881.534517
 30
0.0
 41
45.0
 42
45.0
 50
180.0
 43
45.0
  0
LINE
  8
SUNPOU
 10
1997.397072
 20
5881.534517
 30
0.0
 11
2097.397072
 21
5881.534517
 31
0.0
  0
LINE
  8
SUNPOU
 10
2097.397072
 20
5556.727156
 30
0.0
 11
2097.397072
 21
5911.534517
 31
0.0
  0
LINE
  8
SUNPOU
 10
1997.397072
 20
5579.727156
 30
0.0
 11
1997.397072
 21
5911.534517
 31
0.0
  0
TEXT
  8
SUNPOU
 10
2578.825658
 20
5797.327413
 30
0.0
 40
60.0
  1
1280
  7
K
 72
     1
 11
2697.397087
 21
5797.327413
 31
0.0
  0
INSERT
  8
SUNPOU
  2
ARROWANG
 10
3337.397072
 20
5752.327413
 30
0.0
 41
45.0
 42
45.0
 43
45.0
  0
INSERT
  8
SUNPOU
  2
ARROWANG
 10
2057.397072
 20
5752.327413
 30
0.0
 41
45.0
 42
45.0
 50
180.0
 43
45.0
  0
LINE
  8
SUNPOU
 10
2057.397072
 20
5752.327413
 30
0.0
 11
3337.397072
 21
5752.327413
 31
0.0
  0
LINE
  8
SUNPOU
 10
3337.397072
 20
5579.727156
 30
0.0
 11
3337.397072
 21
5782.327413
 31
0.0
  0
LINE
  8
SUNPOU
 10
2057.397072
 20
5579.727156
 30
0.0
 11
2057.397072
 21
5782.327413
 31
0.0
  0
TEXT
  8
SUNPOU
 10
2578.825658
 20
5665.043948
 30
0.0
 40
60.0
  1
1266
  7
K
 72
     1
 11
2697.397087
 21
5665.043948
 31
0.0
  0
INSERT
  8
SUNPOU
  2
ARROWANG
 10
3330.397072
 20
5620.043948
 30
0.0
 41
45.0
 42
45.0
 43
45.0
  0
INSERT
  8
SUNPOU
  2
ARROWANG
 10
2064.397072
 20
5620.043948
 30
0.0
 41
45.0
 42
45.0
 50
180.0
 43
45.0
  0
LINE
  8
SUNPOU
 10
2064.397072
 20
5620.043948
 30
0.0
 11
3330.397072
 21
5620.043948
 31
0.0
  0
LINE
  8
SUNPOU
 10
3330.397072
 20
5556.727156
 30
0.0
 11
3330.397072
 21
5650.043948
 31
0.0
  0
LINE
  8
SUNPOU
 10
2064.397072
 20
5556.727156
 30
0.0
 11
2064.397072
 21
5650.043948
 31
0.0
  0
TEXT
  8
SUNPOU
 10
1808.701203
 20
5558.584299
 30
0.0
 40
60.0
  1
23
 50
90.0
  7
K
 72
     1
 11
1808.701203
 21
5615.727156
 31
0.0
  0
LINE
  8
SUNPOU
 10
1853.701203
 20
5526.727156
 30
0.0
 11
1853.701205
 21
5436.727156
 31
0.0
  0
LINE
  8
SUNPOU
 10
1853.701203
 20
5549.727156
 30
0.0
 11
1853.701203
 21
5681.727156
 31
0.0
  0
INSERT
  8
SUNPOU
  2
ARROWANG
 10
1853.701203
 20
5549.727156
 30
0.0
 41
45.0
 42
45.0
 50
270.0
 43
45.0
  0
INSERT
  8
SUNPOU
  2
ARROWANG
 10
1853.701203
 20
5526.727156
 30
0.0
 41
45.0
 42
45.0
 50
90.0
 43
45.0
  0
LINE
  8
SUNPOU
 10
1853.701203
 20
5526.727156
 30
0.0
 11
1853.701203
 21
5549.727156
 31
0.0
  0
LINE
  8
SUNPOU
 10
1967.397072
 20
5549.727156
 30
0.0
 11
1823.701203
 21
5549.727156
 31
0.0
  0
LINE
  8
SUNPOU
 10
2034.397072
 20
5526.727156
 30
0.0
 11
1823.701203
 21
5526.727156
 31
0.0
  0
TEXT
  8
SUNPOU
 10
1672.972572
 20
3007.298585
 30
0.0
 40
60.0
  1
15
 50
90.0
  7
K
 72
     1
 11
1672.972572
 21
3068.727156
 31
0.0
  0
LINE
  8
SUNPOU
 10
1717.972572
 20
3149.727156
 30
0.0
 11
1717.972572
 21
3239.727156
 31
0.0
  0
LINE
  8
SUNPOU
 10
1717.972572
 20
3134.727156
 30
0.0
 11
1717.972572
 21
3002.727156
 31
0.0
  0
INSERT
  8
SUNPOU
  2
ARROWANG
 10
1717.972572
 20
3149.727156
 30
0.0
 41
45.0
 42
45.0
 50
270.0
 43
45.0
  0
INSERT
  8
SUNPOU
  2
ARROWANG
 10
1717.972572
 20
3134.727156
 30
0.0
 41
45.0
 42
45.0
 50
90.0
 43
45.0
  0
LINE
  8
SUNPOU
 10
1717.972572
 20
3134.727156
 30
0.0
 11
1717.972572
 21
3149.727156
 31
0.0
  0
LINE
  8
SUNPOU
 10
1747.972572
 20
3149.727156
 30
0.0
 11
1747.972572
 21
3149.727156
 31
0.0
  0
LINE
  8
SUNPOU
 10
2039.397072
 20
3134.727156
 30
0.0
 11
1687.972572
 21
3134.727156
 31
0.0
  0
TEXT
  8
SUNPOU
 10
1672.972572
 20
4235.441442
 30
0.0
 40
60.0
  1
2400
 50
90.0
  7
K
 72
     1
 11
1672.972572
 21
4349.727156
 31
0.0
  0
INSERT
  8
SUNPOU
  2
ARROWANG
 10
1717.972572
 20
5549.727156
 30
0.0
 41
45.0
 42
45.0
 50
90.0
 43
45.0
  0
INSERT
  8
SUNPOU
  2
ARROWANG
 10
1717.972572
 20
3149.727156
 30
0.0
 41
45.0
 42
45.0
 50
270.0
 43
45.0
  0
LINE
  8
SUNPOU
 10
1717.972572
 20
3149.727156
 30
0.0
 11
1717.972572
 21
5549.727156
 31
0.0
  0
LINE
  8
SUNPOU
 10
1967.397072
 20
5549.727156
 30
0.0
 11
1687.972572
 21
5549.727156
 31
0.0
  0
LINE
  8
SUNPOU
 10
1967.397072
 20
3149.727156
 30
0.0
 11
1687.972572
 21
3149.727156
 31
0.0
  0
LINE
  8
JISSEN
 10
2097.397072
 20
4174.727156
 30
0.0
 11
2217.397072
 21
4174.727156
 31
0.0
  0
LINE
  8
ITTEN
 10
2047.397072
 20
4184.727156
 30
0.0
 11
2277.397072
 21
4184.727156
 31
0.0
  0
LINE
  8
JISSEN
 10
2097.397072
 20
4194.727156
 30
0.0
 11
2217.397072
 21
4194.727156
 31
0.0
  0
ARC
  8
JISSEN
 10
2217.397072
 20
4184.727156
 30
0.0
 40
10.0
 50
270.0
 51
90.0
  0
LINE
  8
JISSEN
 10
2097.397072
 20
4474.727156
 30
0.0
 11
2217.397072
 21
4474.727156
 31
0.0
  0
LINE
  8
ITTEN
 10
2047.397072
 20
4484.727156
 30
0.0
 11
2277.397072
 21
4484.727156
 31
0.0
  0
LINE
  8
JISSEN
 10
2097.397072
 20
4494.727156
 30
0.0
 11
2217.397072
 21
4494.727156
 31
0.0
  0
ARC
  8
JISSEN
 10
2217.397072
 20
4484.727156
 30
0.0
 40
10.0
 50
270.0
 51
90.0
  0
LINE
  8
JISSEN
 10
2097.397072
 20
4774.727156
 30
0.0
 11
2217.397072
 21
4774.727156
 31
0.0
  0
LINE
  8
ITTEN
 10
2047.397072
 20
4784.727156
 30
0.0
 11
2277.397072
 21
4784.727156
 31
0.0
  0
LINE
  8
JISSEN
 10
2097.397072
 20
4794.727156
 30
0.0
 11
2217.397072
 21
4794.727156
 31
0.0
  0
ARC
  8
JISSEN
 10
2217.397072
 20
4784.727156
 30
0.0
 40
10.0
 50
270.0
 51
90.0
  0
LINE
  8
JISSEN
 10
2097.397072
 20
5074.727156
 30
0.0
 11
2217.397072
 21
5074.727156
 31
0.0
  0
LINE
  8
ITTEN
 10
2047.397072
 20
5084.727156
 30
0.0
 11
2277.397072
 21
5084.727156
 31
0.0
  0
LINE
  8
JISSEN
 10
2097.397072
 20
5094.727156
 30
0.0
 11
2217.397072
 21
5094.727156
 31
0.0
  0
ARC
  8
JISSEN
 10
2217.397072
 20
5084.727156
 30
0.0
 40
10.0
 50
270.0
 51
90.0
  0
LINE
  8
ITTEN
 10
2047.397072
 20
5384.727156
 30
0.0
 11
2277.397072
 21
5384.727156
 31
0.0
  0
LINE
  8
JISSEN
 10
2097.397072
 20
5374.727156
 30
0.0
 11
2217.397072
 21
5374.727156
 31
0.0
  0
LINE
  8
JISSEN
 10
2097.397072
 20
5394.727156
 30
0.0
 11
2217.397072
 21
5394.727156
 31
0.0
  0
ARC
  8
JISSEN
 10
2217.397072
 20
5384.727156
 30
0.0
 40
10.0
 50
270.0
 51
90.0
  0
LINE
  8
HASEN
 10
3263.082497
 20
1730.672038
 30
0.0
 11
3257.397072
 21
1510.672038
 31
0.0
  0
LINE
  8
HASEN
 10
3257.397072
 20
2350.672038
 30
0.0
 11
3257.397072
 21
2146.07863
 31
0.0
  0
LINE
  8
HASEN
 10
2131.711647
 20
1730.672038
 30
0.0
 11
2137.397072
 21
1510.672038
 31
0.0
  0
LINE
  8
HASEN
 10
2137.397072
 20
2350.672038
 30
0.0
 11
2137.397072
 21
2146.07863
 31
0.0
  0
ARC
  8
JISSEN
 10
2697.397072
 20
3804.727156
 30
0.0
 40
560.0
 50
90.0
 51
270.0
  0
ARC
  8
HASEN
 10
2697.397072
 20
3804.727156
 30
0.0
 40
560.0
 50
270.0
 51
90.0
  0
LINE
  8
JISSEN
 10
3397.397072
 20
3149.727156
 30
0.0
 11
3397.397072
 21
5549.727156
 31
0.0
  0
LINE
  8
JISSEN
 10
1997.397072
 20
3149.727156
 30
0.0
 11
1997.397072
 21
5549.727156
 31
0.0
  0
LINE
  8
HASEN
 10
3297.397072
 20
5526.727156
 30
0.0
 11
3297.397072
 21
3134.727156
 31
0.0
  0
LINE
  8
JISSEN
 10
2097.397072
 20
5526.727156
 30
0.0
 11
2097.397072
 21
3134.727156
 31
0.0
  0
LINE
  8
JISSEN
 10
3397.397072
 20
5549.727156
 30
0.0
 11
3337.397072
 21
5549.727156
 31
0.0
  0
LINE
  8
HASEN
 10
3337.397072
 20
5549.727156
 30
0.0
 11
3330.397072
 21
5526.727156
 31
0.0
  0
LINE
  8
HASEN
 10
3330.397072
 20
5526.727156
 30
0.0
 11
2697.397072
 21
5526.727156
 31
0.0
  0
LINE
  8
JISSEN
 10
3337.397072
 20
5549.727156
 30
0.0
 11
2697.397072
 21
5549.727156
 31
0.0
  0
LINE
  8
JISSEN
 10
2057.397072
 20
5549.727156
 30
0.0
 11
2697.397072
 21
5549.727156
 31
0.0
  0
LINE
  8
JISSEN
 10
2064.397072
 20
5526.727156
 30
0.0
 11
2697.397072
 21
5526.727156
 31
0.0
  0
LINE
  8
JISSEN
 10
2057.397072
 20
5549.727156
 30
0.0
 11
2064.397072
 21
5526.727156
 31
0.0
  0
LINE
  8
JISSEN
 10
1997.397072
 20
5549.727156
 30
0.0
 11
2057.397072
 21
5549.727156
 31
0.0
  0
LINE
  8
JISSEN
 10
2697.397072
 20
3149.727156
 30
0.0
 11
3336.397072
 21
3149.727156
 31
0.0
  0
LINE
  8
JISSEN
 10
3325.397072
 20
3134.727156
 30
0.0
 11
2697.397072
 21
3134.727156
 31
0.0
  0
LINE
  8
JISSEN
 10
3336.397072
 20
3149.727156
 30
0.0
 11
3325.397072
 21
3134.727156
 31
0.0
  0
LINE
  8
JISSEN
 10
3397.397072
 20
3149.727156
 30
0.0
 11
3336.397072
 21
3149.727156
 31
0.0
  0
LINE
  8
JISSEN
 10
2069.397072
 20
3134.727156
 30
0.0
 11
2697.397072
 21
3134.727156
 31
0.0
  0
LINE
  8
JISSEN
 10
2058.397072
 20
3149.727156
 30
0.0
 11
2069.397072
 21
3134.727156
 31
0.0
  0
LINE
  8
JISSEN
 10
1997.397072
 20
3149.727156
 30
0.0
 11
2058.397072
 21
3149.727156
 31
0.0
  0
LINE
  8
ITTEN
 10
2697.397072
 20
5599.727156
 30
0.0
 11
2697.397072
 21
3076.727156
 31
0.0
  0
LINE
  8
JISSEN
 10
2207.397072
 20
1930.672038
 30
0.0
 11
2207.397072
 21
1760.672038
 31
0.0
  0
LINE
  8
JISSEN
 10
2227.397072
 20
1740.672038
 30
0.0
 11
2227.397072
 21
1930.672038
 31
0.0
  0
ARC
  8
JISSEN
 10
2217.397072
 20
1740.672038
 30
0.0
 40
10.0
 50
270.0
 51
0.0
  0
ARC
  8
JISSEN
 10
2197.397072
 20
1760.672038
 30
0.0
 40
10.0
 50
270.0
 51
0.0
  0
LINE
  8
JISSEN
 10
2197.397072
 20
1750.672038
 30
0.0
 11
2125.033551
 21
1750.672038
 31
0.0
  0
LINE
  8
JISSEN
 10
2217.397072
 20
1730.672038
 30
0.0
 11
2131.711647
 21
1730.672038
 31
0.0
  0
LINE
  8
JISSEN
 10
2217.397072
 20
2130.672038
 30
0.0
 11
2131.711647
 21
2130.672038
 31
0.0
  0
LINE
  8
JISSEN
 10
2227.397072
 20
2120.672038
 30
0.0
 11
2227.397072
 21
1930.672038
 31
0.0
  0
LINE
  8
ITTEN
 10
3121.728491
 20
1506.34062
 30
0.0
 11
3227.794508
 21
1400.274603
 31
0.0
  0
LINE
  8
HASEN
 10
3150.012762
 20
1463.914213
 30
0.0
 11
3185.300751
 21
1428.626223
 31
0.0
  0
LINE
  8
HASEN
 10
3150.012762
 20
1463.914213
 30
0.0
 11
3164.154897
 21
1478.056349
 31
0.0
  0
LINE
  8
HASEN
 10
3199.442887
 20
1442.768359
 30
0.0
 11
3164.154897
 21
1478.056349
 31
0.0
  0
LINE
  8
ITTEN
 10
2273.065654
 20
1506.34062
 30
0.0
 11
2166.999637
 21
1400.274603
 31
0.0
  0
LINE
  8
HASEN
 10
2230.639247
 20
1478.056349
 30
0.0
 11
2195.351258
 21
1442.768359
 31
0.0
  0
LINE
  8
HASEN
 10
2230.639247
 20
1478.056349
 30
0.0
 11
2244.781383
 21
1463.914213
 31
0.0
  0
LINE
  8
HASEN
 10
2209.493393
 20
1428.626223
 30
0.0
 11
2244.781383
 21
1463.914213
 31
0.0
  0
LINE
  8
ITTEN
 10
2273.065654
 20
2355.003456
 30
0.0
 11
2166.999637
 21
2461.069474
 31
0.0
  0
LINE
  8
HASEN
 10
2244.781383
 20
2397.429863
 30
0.0
 11
2209.493393
 21
2432.717853
 31
0.0
  0
LINE
  8
HASEN
 10
2244.781383
 20
2397.429863
 30
0.0
 11
2230.639247
 21
2383.287728
 31
0.0
  0
LINE
  8
HASEN
 10
2195.351258
 20
2418.575717
 30
0.0
 11
2230.639247
 21
2383.287728
 31
0.0
  0
LINE
  8
JISSEN
 10
2207.397072
 20
1930.672038
 30
0.0
 11
2207.397072
 21
2100.672038
 31
0.0
  0
LINE
  8
ITTEN
 10
2423.33451
 20
1930.672038
 30
0.0
 11
1947.397072
 21
1930.672038
 31
0.0
  0
POINT
  8
JISSEN
 10
2697.397072
 20
1931.672038
 30
0.0
  0
POINT
  8
JISSEN
 10
2698.397072
 20
1930.672038
 30
0.0
  0
LINE
  8
ITTEN
 10
3447.397072
 20
1930.672038
 30
0.0
 11
2423.33451
 21
1930.672038
 31
0.0
  0
LINE
  8
ITTEN
 10
2697.397072
 20
2680.672038
 30
0.0
 11
2697.397072
 21
1180.672038
 31
0.0
  0
CIRCLE
  8
JISSEN
 10
2697.397072
 20
1930.672038
 30
0.0
 40
640.0
  0
CIRCLE
  8
JISSEN
 10
2697.397072
 20
1930.672038
 30
0.0
 40
633.0
  0
CIRCLE
  8
JISSEN
 10
2697.397072
 20
1930.672038
 30
0.0
 40
600.0
  0
CIRCLE
  8
JISSEN
 10
2697.397072
 20
1930.672038
 30
0.0
 40
700.0
  0
LINE
  8
HASEN
 10
3185.300751
 20
2432.717853
 30
0.0
 11
3150.012762
 21
2397.429863
 31
0.0
  0
LINE
  8
HASEN
 10
3164.154897
 20
2383.287728
 30
0.0
 11
3150.012762
 21
2397.429863
 31
0.0
  0
LINE
  8
HASEN
 10
3164.154897
 20
2383.287728
 30
0.0
 11
3199.442887
 21
2418.575717
 31
0.0
  0
LINE
  8
ITTEN
 10
3121.728491
 20
2355.003456
 30
0.0
 11
3227.794508
 21
2461.069474
 31
0.0
  0
LINE
  8
JISSEN
 10
2227.397072
 20
2120.672038
 30
0.0
 11
2227.397072
 21
1980.672038
 31
0.0
  0
LINE
  8
JISSEN
 10
2217.397072
 20
2130.672038
 30
0.0
 11
2153.133004
 21
2130.672038
 31
0.0
  0
LINE
  8
JISSEN
 10
2197.397072
 20
2110.672038
 30
0.0
 11
2125.033551
 21
2110.672038
 31
0.0
  0
ARC
  8
JISSEN
 10
2197.397072
 20
2100.672038
 30
0.0
 40
10.0
 50
0.0
 51
90.0
  0
ARC
  8
JISSEN
 10
2217.397072
 20
2120.672038
 30
0.0
 40
10.0
 50
0.0
 51
90.0
  0
TEXT
  8
TEXT
 10
5607.5839
 20
6255.381294
 30
0.0
 40
120.0
  1
管取付壁
  7
K
  0
POLYLINE
  8
WAKU
 66
     1
 10
0.0
 20
0.0
 30
0.0
 70
     1
  0
VERTEX
  8
WAKU
 10
0.0
 20
0.0
 30
0.0
  0
VERTEX
  8
WAKU
 10
11850.0
 20
0.0
 30
0.0
  0
VERTEX
  8
WAKU
 10
11850.0
 20
8190.0
 30
0.0
  0
VERTEX
  8
WAKU
 10
0.0
 20
8190.0
 30
0.0
  0
SEQEND
  8
WAKU
  0
TEXT
  8
TEXT
 10
11194.241355
 20
593.854101
 30
0.0
 40
120.0
  1
1/30
  7
K
  0
TEXT
  8
SUNPOU
 10
3923.202283
 20
2441.367306
 30
0.0
 40
60.0
  1
23
 50
90.0
  7
K
 72
     1
 11
3923.202283
 21
2498.510163
 31
0.0
  0
LINE
  8
SUNPOU
 10
3968.202283
 20
2409.510163
 30
0.0
 11
3968.202284
 21
2319.510163
 31
0.0
  0
LINE
  8
SUNPOU
 10
3968.202283
 20
2432.510163
 30
0.0
 11
3968.202283
 21
2564.510163
 31
0.0
  0
INSERT
  8
SUNPOU
  2
ARROWANG
 10
3968.202283
 20
2432.510163
 30
0.0
 41
45.0
 42
45.0
 50
270.0
 43
45.0
  0
INSERT
  8
SUNPOU
  2
ARROWANG
 10
3968.202283
 20
2409.510163
 30
0.0
 41
45.0
 42
45.0
 50
90.0
 43
45.0
  0
LINE
  8
SUNPOU
 10
3968.202283
 20
2409.510163
 30
0.0
 11
3968.202283
 21
2432.510163
 31
0.0
  0
LINE
  8
SUNPOU
 10
4097.958083
 20
2432.510163
 30
0.0
 11
3938.202283
 21
2432.510163
 31
0.0
  0
LINE
  8
SUNPOU
 10
4164.958083
 20
2409.510163
 30
0.0
 11
3938.202283
 21
2409.510163
 31
0.0
  0
LINE
  8
ITTEN
 10
4827.958083
 20
2482.510163
 30
0.0
 11
4827.958083
 21
1167.510163
 31
0.0
  0
LINE
  8
JISSEN
 10
4127.958083
 20
1232.510163
 30
0.0
 11
4188.958083
 21
1232.510163
 31
0.0
  0
LINE
  8
JISSEN
 10
4188.958083
 20
1232.510163
 30
0.0
 11
4199.958083
 21
1217.510163
 31
0.0
  0
LINE
  8
JISSEN
 10
4199.958083
 20
1217.510163
 30
0.0
 11
4827.958083
 21
1217.510163
 31
0.0
  0
LINE
  8
JISSEN
 10
5527.958083
 20
1232.510163
 30
0.0
 11
5466.958083
 21
1232.510163
 31
0.0
  0
LINE
  8
JISSEN
 10
5466.958083
 20
1232.510163
 30
0.0
 11
5455.958083
 21
1217.510163
 31
0.0
  0
LINE
  8
JISSEN
 10
5455.958083
 20
1217.510163
 30
0.0
 11
4827.958083
 21
1217.510163
 31
0.0
  0
LINE
  8
JISSEN
 10
4827.958083
 20
1232.510163
 30
0.0
 11
5466.958083
 21
1232.510163
 31
0.0
  0
LINE
  8
JISSEN
 10
4127.958083
 20
2432.510163
 30
0.0
 11
4187.958083
 21
2432.510163
 31
0.0
  0
LINE
  8
JISSEN
 10
4187.958083
 20
2432.510163
 30
0.0
 11
4194.958083
 21
2409.510163
 31
0.0
  0
LINE
  8
JISSEN
 10
4194.958083
 20
2409.510163
 30
0.0
 11
4827.958083
 21
2409.510163
 31
0.0
  0
LINE
  8
JISSEN
 10
4187.958083
 20
2432.510163
 30
0.0
 11
4827.958083
 21
2432.510163
 31
0.0
  0
LINE
  8
JISSEN
 10
5467.958083
 20
2432.510163
 30
0.0
 11
4827.958083
 21
2432.510163
 31
0.0
  0
LINE
  8
HASEN
 10
5460.958083
 20
2409.510163
 30
0.0
 11
4827.958083
 21
2409.510163
 31
0.0
  0
LINE
  8
HASEN
 10
5467.958083
 20
2432.510163
 30
0.0
 11
5460.958083
 21
2409.510163
 31
0.0
  0
LINE
  8
JISSEN
 10
5527.958083
 20
2432.510163
 30
0.0
 11
5467.958083
 21
2432.510163
 31
0.0
  0
LINE
  8
JISSEN
 10
4227.958083
 20
2409.510163
 30
0.0
 11
4227.958083
 21
1217.510163
 31
0.0
  0
LINE
  8
HASEN
 10
5427.958083
 20
2409.510163
 30
0.0
 11
5427.958083
 21
1217.510163
 31
0.0
  0
LINE
  8
JISSEN
 10
4127.958083
 20
1232.510163
 30
0.0
 11
4127.958083
 21
2432.510163
 31
0.0
  0
LINE
  8
JISSEN
 10
5527.958083
 20
1232.510163
 30
0.0
 11
5527.958083
 21
2432.510163
 31
0.0
  0
ARC
  8
JISSEN
 10
4347.958083
 20
2267.510163
 30
0.0
 40
10.0
 50
270.0
 51
90.0
  0
LINE
  8
JISSEN
 10
4227.958083
 20
2277.510163
 30
0.0
 11
4347.958083
 21
2277.510163
 31
0.0
  0
LINE
  8
JISSEN
 10
4227.958083
 20
2257.510163
 30
0.0
 11
4347.958083
 21
2257.510163
 31
0.0
  0
LINE
  8
ITTEN
 10
4177.958083
 20
2267.510163
 30
0.0
 11
4407.958083
 21
2267.510163
 31
0.0
  0
LINE
  8
SUNPOU
 10
4194.958083
 20
2439.510163
 30
0.0
 11
4194.958083
 21
2532.826955
 31
0.0
  0
LINE
  8
SUNPOU
 10
5460.958083
 20
2439.510163
 30
0.0
 11
5460.958083
 21
2532.826955
 31
0.0
  0
LINE
  8
SUNPOU
 10
4194.958083
 20
2502.826955
 30
0.0
 11
5460.958083
 21
2502.826955
 31
0.0
  0
INSERT
  8
SUNPOU
  2
ARROWANG
 10
4194.958083
 20
2502.826955
 30
0.0
 41
45.0
 42
45.0
 50
180.0
 43
45.0
  0
INSERT
  8
SUNPOU
  2
ARROWANG
 10
5460.958083
 20
2502.826955
 30
0.0
 41
45.0
 42
45.0
 43
45.0
  0
TEXT
  8
SUNPOU
 10
4709.38667
 20
2547.826955
 30
0.0
 40
60.0
  1
1266
  7
K
 72
     1
 11
4827.958098
 21
2547.826955
 31
0.0
  0
LINE
  8
SUNPOU
 10
4187.958083
 20
2462.510163
 30
0.0
 11
4187.958083
 21
2665.110419
 31
0.0
  0
LINE
  8
SUNPOU
 10
5467.958083
 20
2462.510163
 30
0.0
 11
5467.958083
 21
2665.110419
 31
0.0
  0
LINE
  8
SUNPOU
 10
4187.958083
 20
2635.110419
 30
0.0
 11
5467.958083
 21
2635.110419
 31
0.0
  0
INSERT
  8
SUNPOU
  2
ARROWANG
 10
4187.958083
 20
2635.110419
 30
0.0
 41
45.0
 42
45.0
 50
180.0
 43
45.0
  0
INSERT
  8
SUNPOU
  2
ARROWANG
 10
5467.958083
 20
2635.110419
 30
0.0
 41
45.0
 42
45.0
 43
45.0
  0
TEXT
  8
SUNPOU
 10
4709.38667
 20
2680.110419
 30
0.0
 40
60.0
  1
1280
  7
K
 72
     1
 11
4827.958098
 21
2680.110419
 31
0.0
  0
LINE
  8
SUNPOU
 10
4127.958083
 20
2462.510163
 30
0.0
 11
4127.958083
 21
2794.317524
 31
0.0
  0
LINE
  8
SUNPOU
 10
4227.958083
 20
2439.510163
 30
0.0
 11
4227.958083
 21
2794.317524
 31
0.0
  0
LINE
  8
SUNPOU
 10
4127.958083
 20
2764.317524
 30
0.0
 11
4227.958083
 21
2764.317524
 31
0.0
  0
INSERT
  8
SUNPOU
  2
ARROWANG
 10
4227.958083
 20
2764.317524
 30
0.0
 41
45.0
 42
45.0
 50
180.0
 43
45.0
  0
INSERT
  8
SUNPOU
  2
ARROWANG
 10
4127.958083
 20
2764.317524
 30
0.0
 41
45.0
 42
45.0
 43
45.0
  0
TEXT
  8
SUNPOU
 10
4087.958098
 20
2809.317524
 30
0.0
 40
60.0
  1
100
  7
K
 72
     1
 11
4177.958098
 21
2809.317524
 31
0.0
  0
LINE
  8
SUNPOU
 10
4227.958083
 20
2764.317524
 30
0.0
 11
4317.958083
 21
2764.317524
 31
0.0
  0
LINE
  8
SUNPOU
 10
4127.958083
 20
2764.317524
 30
0.0
 11
4037.958083
 21
2764.317524
 31
0.0
  0
LINE
  8
SUNPOU
 10
4227.958083
 20
2764.317524
 30
0.0
 11
5427.958083
 21
2764.317524
 31
0.0
  0
LINE
  8
SUNPOU
 10
5427.958083
 20
2439.510163
 30
0.0
 11
5427.958083
 21
2794.317524
 31
0.0
  0
INSERT
  8
SUNPOU
  2
ARROWANG
 10
4227.958083
 20
2764.317524
 30
0.0
 41
45.0
 42
45.0
 50
180.0
 43
45.0
  0
INSERT
  8
SUNPOU
  2
ARROWANG
 10
5427.958083
 20
2764.317524
 30
0.0
 41
45.0
 42
45.0
 43
45.0
  0
TEXT
  8
SUNPOU
 10
4709.386655
 20
2809.317524
 30
0.0
 40
60.0
  1
1200
  7
K
 72
     1
 11
4827.958083
 21
2809.317524
 31
0.0
  0
LINE
  8
SUNPOU
 10
5427.958083
 20
2764.317524
 30
0.0
 11
5527.958083
 21
2764.317524
 31
0.0
  0
LINE
  8
SUNPOU
 10
5527.958083
 20
2462.510163
 30
0.0
 11
5527.958083
 21
2794.317524
 31
0.0
  0
INSERT
  8
SUNPOU
  2
ARROWANG
 10
5527.958083
 20
2764.317524
 30
0.0
 41
45.0
 42
45.0
 50
180.0
 43
45.0
  0
INSERT
  8
SUNPOU
  2
ARROWANG
 10
5427.958083
 20
2764.317524
 30
0.0
 41
45.0
 42
45.0
 43
45.0
  0
TEXT
  8
SUNPOU
 10
5387.958083
 20
2824.317524
 30
0.0
 40
60.0
  1
100
  7
K
 72
     4
 11
5477.958083
 21
2854.317524
 31
0.0
  0
LINE
  8
SUNPOU
 10
5527.958083
 20
2764.317524
 30
0.0
 11
5617.958083
 21
2764.317524
 31
0.0
  0
LINE
  8
SUNPOU
 10
5427.958083
 20
2764.317524
 30
0.0
 11
5337.958083
 21
2764.317524
 31
0.0
  0
LINE
  8
SUNPOU
 10
4199.958083
 20
1187.510163
 30
0.0
 11
4199.958083
 21
1028.183117
 31
0.0
  0
LINE
  8
SUNPOU
 10
5455.958083
 20
1187.510163
 30
0.0
 11
5455.958083
 21
1028.183117
 31
0.0
  0
LINE
  8
SUNPOU
 10
4199.958083
 20
1058.183117
 30
0.0
 11
5455.958083
 21
1058.183117
 31
0.0
  0
INSERT
  8
SUNPOU
  2
ARROWANG
 10
5455.958083
 20
1058.183117
 30
0.0
 41
45.0
 42
45.0
 43
45.0
  0
INSERT
  8
SUNPOU
  2
ARROWANG
 10
4199.958083
 20
1058.183117
 30
0.0
 41
45.0
 42
45.0
 50
180.0
 43
45.0
  0
TEXT
  8
SUNPOU
 10
4709.386655
 20
1103.183117
 30
0.0
 40
60.0
  1
1256
  7
K
 72
     1
 11
4827.958083
 21
1103.183117
 31
0.0
  0
LINE
  8
SUNPOU
 10
4188.958083
 20
1202.510163
 30
0.0
 11
4188.958083
 21
906.154184
 31
0.0
  0
LINE
  8
SUNPOU
 10
5466.958083
 20
1202.510163
 30
0.0
 11
5466.958083
 21
906.154184
 31
0.0
  0
LINE
  8
SUNPOU
 10
4188.958083
 20
936.154184
 30
0.0
 11
5466.958083
 21
936.154184
 31
0.0
  0
INSERT
  8
SUNPOU
  2
ARROWANG
 10
4188.958083
 20
936.154184
 30
0.0
 41
45.0
 42
45.0
 50
180.0
 43
45.0
  0
INSERT
  8
SUNPOU
  2
ARROWANG
 10
5466.958083
 20
936.154184
 30
0.0
 41
45.0
 42
45.0
 43
45.0
  0
TEXT
  8
SUNPOU
 10
4709.38667
 20
981.154184
 30
0.0
 40
60.0
  1
1278
  7
K
 72
     1
 11
4827.958098
 21
981.154184
 31
0.0
  0
CIRCLE
  8
SAISEN
 10
4332.983337
 20
1332.510163
 30
0.0
 40
12.5
  0
CIRCLE
  8
SAISEN
 10
5322.93283
 20
1332.510163
 30
0.0
 40
12.5
  0
LINE
  8
SUNPOU
 10
5557.958083
 20
1232.510163
 30
0.0
 11
5697.464798
 21
1232.510163
 31
0.0
  0
LINE
  8
SUNPOU
 10
5352.93283
 20
1332.510163
 30
0.0
 11
5697.464798
 21
1332.510163
 31
0.0
  0
LINE
  8
SUNPOU
 10
5667.464798
 20
1232.510163
 30
0.0
 11
5667.464798
 21
1332.510163
 31
0.0
  0
INSERT
  8
SUNPOU
  2
ARROWANG
 10
5667.464798
 20
1232.510163
 30
0.0
 41
45.0
 42
45.0
 50
90.0
 43
45.0
  0
INSERT
  8
SUNPOU
  2
ARROWANG
 10
5667.464798
 20
1332.510163
 30
0.0
 41
45.0
 42
45.0
 50
270.0
 43
45.0
  0
LINE
  8
SUNPOU
 10
5667.464798
 20
1332.510163
 30
0.0
 11
5667.464798
 21
1530.510163
 31
0.0
  0
LINE
  8
SUNPOU
 10
5667.464798
 20
1232.510163
 30
0.0
 11
5667.464799
 21
1142.510163
 31
0.0
  0
TEXT
  8
SUNPOU
 10
5622.464798
 20
1341.510163
 30
0.0
 40
60.0
  1
100
 50
90.0
  7
K
 72
     1
 11
5622.464798
 21
1431.510163
 31
0.0
  0
CIRCLE
  8
SAISEN
 10
5322.93283
 20
2332.510163
 30
0.0
 40
12.5
  0
CIRCLE
  8
SAISEN
 10
4332.983337
 20
2332.510163
 30
0.0
 40
12.5
  0
LINE
  8
SUNPOU
 10
5352.93283
 20
2332.510163
 30
0.0
 11
5682.383839
 21
2332.510163
 31
0.0
  0
LINE
  8
SUNPOU
 10
5557.958083
 20
2432.510163
 30
0.0
 11
5682.383839
 21
2432.510163
 31
0.0
  0
LINE
  8
SUNPOU
 10
5652.383839
 20
2332.510163
 30
0.0
 11
5652.383839
 21
2432.510163
 31
0.0
  0
INSERT
  8
SUNPOU
  2
ARROWANG
 10
5652.383839
 20
2332.510163
 30
0.0
 41
45.0
 42
45.0
 50
90.0
 43
45.0
  0
INSERT
  8
SUNPOU
  2
ARROWANG
 10
5652.383839
 20
2432.510163
 30
0.0
 41
45.0
 42
45.0
 50
270.0
 43
45.0
  0
LINE
  8
SUNPOU
 10
5652.383839
 20
2332.510163
 30
0.0
 11
5652.383839
 21
2134.510163
 31
0.0
  0
LINE
  8
SUNPOU
 10
5652.383839
 20
2432.510163
 30
0.0
 11
5652.383839
 21
2522.510163
 31
0.0
  0
TEXT
  8
SUNPOU
 10
5607.383839
 20
2143.510163
 30
0.0
 40
60.0
  1
100
 50
90.0
  7
K
 72
     1
 11
5607.383839
 21
2233.510163
 31
0.0
  0
LINE
  8
SUNPOU
 10
4097.958083
 20
1232.510163
 30
0.0
 11
3807.15239
 21
1232.510163
 31
0.0
  0
LINE
  8
SUNPOU
 10
3938.202283
 20
2432.510163
 30
0.0
 11
3807.15239
 21
2432.510163
 31
0.0
  0
LINE
  8
SUNPOU
 10
3837.15239
 20
1232.510163
 30
0.0
 11
3837.15239
 21
2432.510163
 31
0.0
  0
INSERT
  8
SUNPOU
  2
ARROWANG
 10
3837.15239
 20
1232.510163
 30
0.0
 41
45.0
 42
45.0
 50
270.0
 43
45.0
  0
INSERT
  8
SUNPOU
  2
ARROWANG
 10
3837.15239
 20
2432.510163
 30
0.0
 41
45.0
 42
45.0
 50
90.0
 43
45.0
  0
TEXT
  8
SUNPOU
 10
3792.15239
 20
1713.938734
 30
0.0
 40
60.0
  1
1200
 50
90.0
  7
K
 72
     1
 11
3792.15239
 21
1832.510163
 31
0.0
  0
LINE
  8
SUNPOU
 10
3837.15239
 20
1232.510163
 30
0.0
 11
3837.15239
 21
1217.510163
 31
0.0
  0
LINE
  8
SUNPOU
 10
4169.958083
 20
1217.510163
 30
0.0
 11
3807.15239
 21
1217.510163
 31
0.0
  0
INSERT
  8
SUNPOU
  2
ARROWANG
 10
3837.15239
 20
1217.510163
 30
0.0
 41
45.0
 42
45.0
 50
90.0
 43
45.0
  0
INSERT
  8
SUNPOU
  2
ARROWANG
 10
3837.15239
 20
1232.510163
 30
0.0
 41
45.0
 42
45.0
 50
270.0
 43
45.0
  0
LINE
  8
SUNPOU
 10
3837.15239
 20
1217.510163
 30
0.0
 11
3837.15239
 21
1085.510163
 31
0.0
  0
TEXT
  8
SUNPOU
 10
3792.15239
 20
1051.795877
 30
0.0
 40
60.0
  1
15
 50
90.0
  7
K
 72
     2
 11
3792.15239
 21
1157.510163
 31
0.0
  0
LINE
  8
SUNPOU
 10
3837.15239
 20
1217.510163
 30
0.0
 11
3837.15239
 21
1127.510163
 31
0.0
  0
LINE
  8
SUNPOU
 10
3837.15239
 20
1232.510163
 30
0.0
 11
3837.15239
 21
1322.510163
 31
0.0
  0
ARC
  8
JISSEN
 10
4827.958083
 20
1787.510163
 30
0.0
 40
443.0
 50
90.0
 51
270.0
  0
ARC
  8
HASEN
 10
4827.958083
 20
1787.510163
 30
0.0
 40
443.0
 50
270.0
 51
90.0
  0
TEXT
  8
TEXT
 10
4470.265264
 20
2918.32082
 30
0.0
 40
90.0
  1
Ｍ２Ｂ１２０
  7
K
  0
ENDSEC
  0
EOF
