  0
SECTION
  2
HEADER
  9
$ACADVER
  1
AC1009
  9
$INSBASE
 10
0.0
 20
0.0
 30
0.0
  9
$EXTMIN
 10
0.0
 20
0.0
 30
0.0
  9
$EXTMAX
 10
11850.0
 20
8190.0
 30
0.0
  9
$LIMMIN
 10
0.0
 20
0.0
  9
$LIMMAX
 10
11850.0
 20
8190.0
  9
$ORTHOMODE
 70
     0
  9
$REGENMODE
 70
     1
  9
$FILLMODE
 70
     1
  9
$QTEXTMODE
 70
     0
  9
$MIRRTEXT
 70
     0
  9
$DRAGMODE
 70
     2
  9
$LTSCALE
 40
150.0
  9
$OSMODE
 70
    33
  9
$ATTMODE
 70
     1
  9
$TEXTSIZE
 40
350.0
  9
$TRACEWID
 40
0.05
  9
$TEXTSTYLE
  7
K
  9
$CLAYER
  8
TEXT
  9
$CELTYPE
  6
BYLAYER
  9
$CECOLOR
 62
   256
  9
$DIMSCALE
 40
30.0
  9
$DIMASZ
 40
1.5
  9
$DIMEXO
 40
1.0
  9
$DIMDLI
 40
6.0
  9
$DIMRND
 40
0.0
  9
$DIMDLE
 40
0.0
  9
$DIMEXE
 40
1.0
  9
$DIMTP
 40
495.0
  9
$DIMTM
 40
0.0
  9
$DIMTXT
 40
3.0
  9
$DIMCEN
 40
0.0
  9
$DIMTSZ
 40
0.0
  9
$DIMTOL
 70
     0
  9
$DIMLIM
 70
     0
  9
$DIMTIH
 70
     0
  9
$DIMTOH
 70
     0
  9
$DIMSE1
 70
     0
  9
$DIMSE2
 70
     0
  9
$DIMTAD
 70
     1
  9
$DIMZIN
 70
     8
  9
$DIMBLK
  1
ARROW
  9
$DIMASO
 70
     0
  9
$DIMSHO
 70
     0
  9
$DIMPOST
  1

  9
$DIMAPOST
  1

  9
$DIMALT
 70
     0
  9
$DIMALTD
 70
     2
  9
$DIMALTF
 40
25.4
  9
$DIMLFAC
 40
1.0
  9
$DIMTOFL
 70
     1
  9
$DIMTVP
 40
0.0
  9
$DIMTIX
 70
     1
  9
$DIMSOXD
 70
     0
  9
$DIMSAH
 70
     0
  9
$DIMBLK1
  1

  9
$DIMBLK2
  1

  9
$DIMSTYLE
  2
*UNNAMED
  9
$DIMCLRD
 70
     0
  9
$DIMCLRE
 70
     0
  9
$DIMCLRT
 70
     0
  9
$DIMTFAC
 40
1.0
  9
$DIMGAP
 40
0.09
  9
$LUNITS
 70
     2
  9
$LUPREC
 70
     2
  9
$AXISMODE
 70
     1
  9
$AXISUNIT
 10
100.0
 20
100.0
  9
$SKETCHINC
 40
0.1
  9
$FILLETRAD
 40
10.0
  9
$AUNITS
 70
     0
  9
$AUPREC
 70
     2
  9
$MENU
  1
d:stdgx5
  9
$ELEVATION
 40
0.0
  9
$PELEVATION
 40
0.0
  9
$THICKNESS
 40
0.0
  9
$LIMCHECK
 70
     0
  9
$BLIPMODE
 70
     1
  9
$CHAMFERA
 40
0.0
  9
$CHAMFERB
 40
0.0
  9
$SKPOLY
 70
     0
  9
$TDCREATE
 40
2450247.347800925
  9
$TDUPDATE
 40
2450247.352800925
  9
$TDINDWG
 40
0.0013888889
  9
$TDUSRTIMER
 40
0.0013888889
  9
$USRTIMER
 70
     1
  9
$ANGBASE
 50
0.0
  9
$ANGDIR
 70
     0
  9
$PDMODE
 70
     0
  9
$PDSIZE
 40
0.0
  9
$PLINEWID
 40
0.0
  9
$COORDS
 70
     2
  9
$SPLFRAME
 70
     0
  9
$SPLINETYPE
 70
     6
  9
$SPLINESEGS
 70
     8
  9
$ATTDIA
 70
     0
  9
$ATTREQ
 70
     1
  9
$HANDLING
 70
     0
  9
$HANDSEED
  5
0
  9
$SURFTAB1
 70
     6
  9
$SURFTAB2
 70
     6
  9
$SURFTYPE
 70
     6
  9
$SURFU
 70
     6
  9
$SURFV
 70
     6
  9
$UCSNAME
  2

  9
$UCSORG
 10
0.0
 20
0.0
 30
0.0
  9
$UCSXDIR
 10
1.0
 20
0.0
 30
0.0
  9
$UCSYDIR
 10
0.0
 20
1.0
 30
0.0
  9
$PUCSNAME
  2

  9
$PUCSORG
 10
0.0
 20
0.0
 30
0.0
  9
$PUCSXDIR
 10
1.0
 20
0.0
 30
0.0
  9
$PUCSYDIR
 10
0.0
 20
1.0
 30
0.0
  9
$USERI1
 70
     3
  9
$USERI2
 70
    33
  9
$USERI3
 70
     0
  9
$USERI4
 70
     1
  9
$USERI5
 70
     0
  9
$USERR1
 40
30.0
  9
$USERR2
 40
3.0
  9
$USERR3
 40
3.0
  9
$USERR4
 40
1.5
  9
$USERR5
 40
10.0
  9
$WORLDVIEW
 70
     1
  9
$SHADEDGE
 70
     3
  9
$SHADEDIF
 70
    70
  9
$TILEMODE
 70
     1
  9
$MAXACTVP
 70
    16
  9
$PINSBASE
 10
0.0
 20
0.0
 30
0.0
  9
$PLIMCHECK
 70
     0
  9
$PEXTMIN
 10
1.000000E+20
 20
1.000000E+20
 30
1.000000E+20
  9
$PEXTMAX
 10
-1.000000E+20
 20
-1.000000E+20
 30
-1.000000E+20
  9
$PLIMMIN
 10
0.0
 20
0.0
  9
$PLIMMAX
 10
12.0
 20
9.0
  9
$UNITMODE
 70
     0
  9
$VISRETAIN
 70
     0
  0
ENDSEC
  0
SECTION
  2
TABLES
  0
TABLE
  2
VPORT
 70
    10
  0
VPORT
  2
*ACTIVE
 70
     0
 10
0.0
 20
0.0
 11
1.0
 21
1.0
 12
6691.515737
 22
4095.0
 13
0.0
 23
0.0
 14
1.0
 24
1.0
 15
10.0
 25
10.0
 16
0.0
 26
0.0
 36
1.0
 17
0.0
 27
0.0
 37
0.0
 40
8190.0
 41
1.63407
 42
50.0
 43
0.0
 44
0.0
 50
0.0
 51
0.0
 71
     0
 72
   500
 73
     1
 74
     0
 75
     0
 76
     0
 77
     0
 78
     0
  0
VPORT
  2
2
 70
     0
 10
0.5
 20
0.0
 11
1.0
 21
1.0
 12
0.924031
 22
1.052651
 13
0.0
 23
0.0
 14
1.0
 24
1.0
 15
10.0
 25
10.0
 16
0.0
 26
0.0
 36
1.0
 17
0.0
 27
0.0
 37
0.0
 40
2.105302
 41
0.877814
 42
50.0
 43
0.0
 44
0.0
 50
0.0
 51
0.0
 71
     0
 72
   500
 73
     1
 74
     1
 75
     0
 76
     0
 77
     0
 78
     0
  0
VPORT
  2
2
 70
     0
 10
0.0
 20
0.0
 11
0.5
 21
1.0
 12
0.924031
 22
1.052651
 13
0.0
 23
0.0
 14
1.0
 24
1.0
 15
10.0
 25
10.0
 16
0.0
 26
0.0
 36
1.0
 17
0.0
 27
0.0
 37
0.0
 40
2.105302
 41
0.877814
 42
50.0
 43
0.0
 44
0.0
 50
0.0
 51
0.0
 71
     0
 72
   500
 73
     1
 74
     1
 75
     0
 76
     0
 77
     0
 78
     0
  0
VPORT
  2
3
 70
     0
 10
0.0
 20
0.5
 11
1.0
 21
1.0
 12
2.83217
 22
1.052651
 13
0.0
 23
0.0
 14
1.0
 24
1.0
 15
10.0
 25
10.0
 16
0.0
 26
0.0
 36
1.0
 17
0.0
 27
0.0
 37
0.0
 40
2.105302
 41
3.571429
 42
50.0
 43
0.0
 44
0.0
 50
0.0
 51
0.0
 71
     0
 72
   500
 73
     1
 74
     1
 75
     0
 76
     0
 77
     0
 78
     0
  0
VPORT
  2
3
 70
     0
 10
0.0
 20
0.0
 11
1.0
 21
0.5
 12
2.856742
 22
1.052651
 13
0.0
 23
0.0
 14
1.0
 24
1.0
 15
10.0
 25
10.0
 16
0.0
 26
0.0
 36
1.0
 17
0.0
 27
0.0
 37
0.0
 40
2.105302
 41
3.594771
 42
50.0
 43
0.0
 44
0.0
 50
0.0
 51
0.0
 71
     0
 72
   500
 73
     1
 74
     1
 75
     0
 76
     0
 77
     0
 78
     0
  0
VPORT
  2
4
 70
     0
 10
0.5
 20
0.0
 11
1.0
 21
0.5
 12
2.886858
 22
1.052651
 13
0.0
 23
0.0
 14
1.0
 24
1.0
 15
10.0
 25
10.0
 16
0.0
 26
0.0
 36
1.0
 17
0.0
 27
0.0
 37
0.0
 40
4.275207
 41
1.784314
 42
50.0
 43
0.0
 44
0.0
 50
0.0
 51
0.0
 71
     0
 72
   500
 73
     1
 74
     1
 75
     0
 76
     0
 77
     0
 78
     0
  0
VPORT
  2
4
 70
     0
 10
0.5
 20
0.5
 11
1.0
 21
1.0
 12
2.86209
 22
1.052651
 13
0.0
 23
0.0
 14
1.0
 24
1.0
 15
10.0
 25
10.0
 16
0.0
 26
0.0
 36
1.0
 17
0.0
 27
0.0
 37
0.0
 40
4.275207
 41
1.772727
 42
50.0
 43
0.0
 44
0.0
 50
0.0
 51
0.0
 71
     0
 72
   500
 73
     1
 74
     1
 75
     0
 76
     0
 77
     0
 78
     0
  0
VPORT
  2
4
 70
     0
 10
0.0
 20
0.5
 11
0.5
 21
1.0
 12
2.86209
 22
1.052651
 13
0.0
 23
0.0
 14
1.0
 24
1.0
 15
10.0
 25
10.0
 16
0.0
 26
0.0
 36
1.0
 17
0.0
 27
0.0
 37
0.0
 40
4.275207
 41
1.772727
 42
50.0
 43
0.0
 44
0.0
 50
0.0
 51
0.0
 71
     0
 72
   500
 73
     1
 74
     1
 75
     0
 76
     0
 77
     0
 78
     0
  0
VPORT
  2
4
 70
     0
 10
0.0
 20
0.0
 11
0.5
 21
0.5
 12
2.886858
 22
1.052651
 13
0.0
 23
0.0
 14
1.0
 24
1.0
 15
10.0
 25
10.0
 16
0.0
 26
0.0
 36
1.0
 17
0.0
 27
0.0
 37
0.0
 40
4.275207
 41
1.784314
 42
50.0
 43
0.0
 44
0.0
 50
0.0
 51
0.0
 71
     0
 72
   500
 73
     1
 74
     1
 75
     0
 76
     0
 77
     0
 78
     0
  0
ENDTAB
  0
TABLE
  2
LTYPE
 70
     5
  0
LTYPE
  2
CONTINUOUS
 70
    64
  3
実線
 72
    65
 73
     0
 40
0.0
  0
LTYPE
  2
DASHED
 70
    64
  3
__ __ __ __ __ __ __ __ __ __ __ __ __ __ __
 72
    65
 73
     2
 40
0.75
 49
0.5
 49
-0.25
  0
LTYPE
  2
CENTER
 70
    64
  3
____ _ ____ _ ____ _ ____ _ ____ _ ____ _ ____
 72
    65
 73
     4
 40
2.0
 49
1.25
 49
-0.25
 49
0.25
 49
-0.25
  0
LTYPE
  2
PHANTOM
 70
    64
  3
_____ _ _ _____ _ _ _____ _ _ _____ _ _ ____
 72
    65
 73
     6
 40
2.5
 49
1.25
 49
-0.25
 49
0.25
 49
-0.25
 49
0.25
 49
-0.25
  0
LTYPE
  2
HIDDEN
 70
    64
  3
_ _ _ _ _ _ _ _ _ _ _ _ _ _ _ _ _ _ _ _ _ _ _
 72
    65
 73
     2
 40
0.375
 49
0.25
 49
-0.125
  0
ENDTAB
  0
TABLE
  2
LAYER
 70
    14
  0
LAYER
  2
0
 70
     0
 62
     7
  6
CONTINUOUS
  0
LAYER
  2
HASEN
 70
    64
 62
     2
  6
DASHED
  0
LAYER
  2
ITTEN
 70
    64
 62
     1
  6
CENTER
  0
LAYER
  2
SUNPOU
 70
    64
 62
     3
  6
CONTINUOUS
  0
LAYER
  2
TEXT
 70
    64
 62
     3
  6
CONTINUOUS
  0
LAYER
  2
JISSEN
 70
    64
 62
     7
  6
CONTINUOUS
  0
LAYER
  2
WAKU
 70
    64
 62
    -5
  6
CONTINUOUS
  0
ENDTAB
  0
TABLE
  2
STYLE
 70
     2
  0
STYLE
  2
STANDARD
 70
     0
 40
0.0
 41
1.0
 50
0.0
 71
     0
 42
0.2
  3
ROMANS
  4
EXTFONT
  0
STYLE
  2
K
 70
    64
 40
0.0
 41
1.0
 50
0.0
 71
     0
 42
350.0
  3
ROMANS
  4
EXTFONT
  0
ENDTAB
  0
TABLE
  2
VIEW
 70
     0
  0
ENDTAB
  0
TABLE
  2
UCS
 70
     0
  0
ENDTAB
  0
TABLE
  2
APPID
 70
     1
  0
APPID
  2
ACAD
 70
    64
  0
ENDTAB
  0
TABLE
  2
DIMSTYLE
 70
     0
  0
ENDTAB
  0
ENDSEC
  0
SECTION
  2
BLOCKS
  0
BLOCK
  8
SUNPOU
  2
ARROWANG
 70
    64
 10
0.0
 20
0.0
 30
0.0
  3
ARROWANG
  0
LINE
  8
SUNPOU
 10
0.0
 20
0.0
 30
0.0
 11
-1.5
 21
0.401924
 31
0.0
  0
LINE
  8
SUNPOU
 10
0.0
 20
0.0
 30
0.0
 11
-1.5
 21
-0.401924
 31
0.0
  0
ENDBLK
  8
SUNPOU
  0
ENDSEC
  0
SECTION
  2
ENTITIES
  0
TEXT
  8
JISSEN
 10
2844.540901
 20
7666.831416
 30
0.0
 40
300.0
  1
組立マンホール構造図（内径１２００ｍｍ）
  7
K
  0
TEXT
  8
TEXT
 10
5676.140622
 20
4816.569127
 30
0.0
 40
90.0
  1
Ｍ２ＰＢ
  7
K
  0
TEXT
  8
TEXT
 10
3255.646712
 20
4814.845633
 30
0.0
 40
90.0
  1
Ｍ２Ｐ
  7
K
  0
TEXT
  8
SUNPOU
 10
5720.788544
 20
4550.921678
 30
0.0
 40
90.0
  1
30
 50
90.0
  7
K
 72
     1
 11
5720.788544
 21
4636.635964
 31
0.0
  0
LINE
  8
SUNPOU
 10
5765.788544
 20
4507.635964
 30
0.0
 11
5765.788546
 21
4417.635964
 31
0.0
  0
LINE
  8
SUNPOU
 10
5765.788544
 20
4537.635964
 30
0.0
 11
5765.788544
 21
4735.635964
 31
0.0
  0
INSERT
  8
SUNPOU
  2
ARROWANG
 10
5765.788544
 20
4537.635964
 30
0.0
 41
45.0
 42
45.0
 50
270.0
 43
45.0
  0
INSERT
  8
SUNPOU
  2
ARROWANG
 10
5765.788544
 20
4507.635964
 30
0.0
 41
45.0
 42
45.0
 50
90.0
 43
45.0
  0
LINE
  8
SUNPOU
 10
5765.788544
 20
4507.635964
 30
0.0
 11
5765.788544
 21
4537.635964
 31
0.0
  0
LINE
  8
SUNPOU
 10
5634.868499
 20
4537.635964
 30
0.0
 11
5795.788544
 21
4537.635964
 31
0.0
  0
LINE
  8
SUNPOU
 10
5874.868499
 20
4507.635964
 30
0.0
 11
5735.788544
 21
4507.635964
 31
0.0
  0
LINE
  8
HASEN
 10
5904.868499
 20
4537.635964
 30
0.0
 11
6204.868499
 21
4537.635964
 31
0.0
  0
LINE
  8
JISSEN
 10
5604.868499
 20
4537.635964
 30
0.0
 11
5904.868499
 21
4537.635964
 31
0.0
  0
LINE
  8
ITTEN
 10
5279.868499
 20
4592.635964
 30
0.0
 11
5129.868499
 21
4592.635964
 31
0.0
  0
LINE
  8
JISSEN
 10
5179.868499
 20
4602.635964
 30
0.0
 11
5229.868499
 21
4602.635964
 31
0.0
  0
LINE
  8
JISSEN
 10
5229.868499
 20
4602.635964
 30
0.0
 11
5229.868499
 21
4582.635964
 31
0.0
  0
LINE
  8
JISSEN
 10
5229.868499
 20
4582.635964
 30
0.0
 11
5179.868499
 21
4582.635964
 31
0.0
  0
LINE
  8
JISSEN
 10
5354.868499
 20
4652.635964
 30
0.0
 11
5354.868499
 21
4652.635964
 31
0.0
  0
LINE
  8
ITTEN
 10
5904.868499
 20
4702.635964
 30
0.0
 11
5904.868499
 21
4457.635964
 31
0.0
  0
LINE
  8
JISSEN
 10
5179.868499
 20
4507.635964
 30
0.0
 11
5179.868499
 21
4672.635964
 31
0.0
  0
LINE
  8
JISSEN
 10
5179.868499
 20
4672.635964
 30
0.0
 11
5264.868499
 21
4672.635964
 31
0.0
  0
LINE
  8
JISSEN
 10
5264.868499
 20
4672.635964
 30
0.0
 11
5271.868499
 21
4657.635964
 31
0.0
  0
LINE
  8
JISSEN
 10
5271.868499
 20
4657.635964
 30
0.0
 11
5904.868499
 21
4657.635964
 31
0.0
  0
LINE
  8
JISSEN
 10
5264.868499
 20
4672.635964
 30
0.0
 11
5904.868499
 21
4672.635964
 31
0.0
  0
LINE
  8
JISSEN
 10
5179.868499
 20
4507.635964
 30
0.0
 11
5904.868499
 21
4507.635964
 31
0.0
  0
LINE
  8
JISSEN
 10
5604.868499
 20
4657.635964
 30
0.0
 11
5604.868499
 21
4537.635964
 31
0.0
  0
LINE
  8
HASEN
 10
6204.868499
 20
4657.635964
 30
0.0
 11
6204.868499
 21
4537.635964
 31
0.0
  0
LINE
  8
JISSEN
 10
6629.868499
 20
4507.635964
 30
0.0
 11
5904.868499
 21
4507.635964
 31
0.0
  0
LINE
  8
JISSEN
 10
6544.868499
 20
4672.635964
 30
0.0
 11
5904.868499
 21
4672.635964
 31
0.0
  0
LINE
  8
HASEN
 10
6537.868499
 20
4657.635964
 30
0.0
 11
5904.868499
 21
4657.635964
 31
0.0
  0
LINE
  8
JISSEN
 10
6544.868499
 20
4672.635964
 30
0.0
 11
6537.868499
 21
4657.635964
 31
0.0
  0
LINE
  8
JISSEN
 10
6629.868499
 20
4672.635964
 30
0.0
 11
6544.868499
 21
4672.635964
 31
0.0
  0
LINE
  8
JISSEN
 10
6629.868499
 20
4507.635964
 30
0.0
 11
6629.868499
 21
4672.635964
 31
0.0
  0
LINE
  8
ITTEN
 10
5904.868499
 20
4702.635964
 30
0.0
 11
5904.868499
 21
4457.635964
 31
0.0
  0
LINE
  8
JISSEN
 10
6454.868499
 20
4652.635964
 30
0.0
 11
6454.868499
 21
4652.635964
 31
0.0
  0
LINE
  8
JISSEN
 10
6579.868499
 20
4582.635964
 30
0.0
 11
6629.868499
 21
4582.635964
 31
0.0
  0
LINE
  8
JISSEN
 10
6579.868499
 20
4602.635964
 30
0.0
 11
6579.868499
 21
4582.635964
 31
0.0
  0
LINE
  8
JISSEN
 10
6629.868499
 20
4602.635964
 30
0.0
 11
6579.868499
 21
4602.635964
 31
0.0
  0
LINE
  8
ITTEN
 10
6529.868499
 20
4592.635964
 30
0.0
 11
6679.868499
 21
4592.635964
 31
0.0
  0
LINE
  8
SUNPOU
 10
5179.868499
 20
4477.635964
 30
0.0
 11
5179.868499
 21
4103.858268
 31
0.0
  0
LINE
  8
SUNPOU
 10
6629.868499
 20
4477.635964
 30
0.0
 11
6629.868499
 21
4103.858268
 31
0.0
  0
LINE
  8
SUNPOU
 10
5179.868499
 20
4133.858268
 30
0.0
 11
6629.868499
 21
4133.858268
 31
0.0
  0
INSERT
  8
SUNPOU
  2
ARROWANG
 10
5179.868499
 20
4133.858268
 30
0.0
 41
45.0
 42
45.0
 50
180.0
 43
45.0
  0
INSERT
  8
SUNPOU
  2
ARROWANG
 10
6629.868499
 20
4133.858268
 30
0.0
 41
45.0
 42
45.0
 43
45.0
  0
TEXT
  8
SUNPOU
 10
5727.011371
 20
4178.858268
 30
0.0
 40
90.0
  1
1450
  7
K
 72
     1
 11
5904.868514
 21
4178.858268
 31
0.0
  0
LINE
  8
SUNPOU
 10
5179.868499
 20
4477.635964
 30
0.0
 11
5179.868499
 21
4276.647134
 31
0.0
  0
LINE
  8
SUNPOU
 10
5604.868499
 20
4477.635964
 30
0.0
 11
5604.868499
 21
4276.647134
 31
0.0
  0
LINE
  8
SUNPOU
 10
5179.868499
 20
4306.647134
 30
0.0
 11
5604.868499
 21
4306.647134
 31
0.0
  0
INSERT
  8
SUNPOU
  2
ARROWANG
 10
5179.868499
 20
4306.647134
 30
0.0
 41
45.0
 42
45.0
 50
180.0
 43
45.0
  0
INSERT
  8
SUNPOU
  2
ARROWANG
 10
5604.868499
 20
4306.647134
 30
0.0
 41
45.0
 42
45.0
 43
45.0
  0
TEXT
  8
SUNPOU
 10
5263.797085
 20
4351.647134
 30
0.0
 40
90.0
  1
425
  7
K
 72
     1
 11
5392.368514
 21
4351.647134
 31
0.0
  0
LINE
  8
SUNPOU
 10
5604.868499
 20
4306.647134
 30
0.0
 11
6204.868499
 21
4306.647134
 31
0.0
  0
LINE
  8
SUNPOU
 10
6204.868499
 20
4477.635964
 30
0.0
 11
6204.868499
 21
4276.647134
 31
0.0
  0
INSERT
  8
SUNPOU
  2
ARROWANG
 10
5604.868499
 20
4306.647134
 30
0.0
 41
45.0
 42
45.0
 50
180.0
 43
45.0
  0
INSERT
  8
SUNPOU
  2
ARROWANG
 10
6204.868499
 20
4306.647134
 30
0.0
 41
45.0
 42
45.0
 43
45.0
  0
TEXT
  8
SUNPOU
 10
5774.154213
 20
4351.647134
 30
0.0
 40
90.0
  1
600
  7
K
 72
     1
 11
5904.868499
 21
4351.647134
 31
0.0
  0
LINE
  8
SUNPOU
 10
6204.868499
 20
4306.647134
 30
0.0
 11
6629.868499
 21
4306.647134
 31
0.0
  0
LINE
  8
SUNPOU
 10
6629.868499
 20
4477.635964
 30
0.0
 11
6629.868499
 21
4276.647134
 31
0.0
  0
INSERT
  8
SUNPOU
  2
ARROWANG
 10
6204.868499
 20
4306.647134
 30
0.0
 41
45.0
 42
45.0
 50
180.0
 43
45.0
  0
INSERT
  8
SUNPOU
  2
ARROWANG
 10
6629.868499
 20
4306.647134
 30
0.0
 41
45.0
 42
45.0
 43
45.0
  0
TEXT
  8
SUNPOU
 10
6288.79707
 20
4351.647134
 30
0.0
 40
90.0
  1
425
  7
K
 72
     1
 11
6417.368499
 21
4351.647134
 31
0.0
  0
LINE
  8
SUNPOU
 10
6659.868499
 20
4592.635964
 30
0.0
 11
6795.32099
 21
4592.635964
 31
0.0
  0
LINE
  8
SUNPOU
 10
6659.868499
 20
4672.635964
 30
0.0
 11
6795.32099
 21
4672.635964
 31
0.0
  0
LINE
  8
SUNPOU
 10
6765.32099
 20
4592.635964
 30
0.0
 11
6765.32099
 21
4672.635964
 31
0.0
  0
INSERT
  8
SUNPOU
  2
ARROWANG
 10
6765.32099
 20
4592.635964
 30
0.0
 41
45.0
 42
45.0
 50
90.0
 43
45.0
  0
INSERT
  8
SUNPOU
  2
ARROWANG
 10
6765.32099
 20
4672.635964
 30
0.0
 41
45.0
 42
45.0
 50
270.0
 43
45.0
  0
LINE
  8
SUNPOU
 10
6765.32099
 20
4672.635964
 30
0.0
 11
6765.32099
 21
4870.635964
 31
0.0
  0
LINE
  8
SUNPOU
 10
6765.32099
 20
4592.635964
 30
0.0
 11
6765.320991
 21
4502.635964
 31
0.0
  0
TEXT
  8
SUNPOU
 10
6720.32099
 20
4685.921678
 30
0.0
 40
90.0
  1
80
 50
90.0
  7
K
 72
     1
 11
6720.32099
 21
4771.635964
 31
0.0
  0
LINE
  8
SUNPOU
 10
6659.868499
 20
4672.635964
 30
0.0
 11
6955.34672
 21
4672.635964
 31
0.0
  0
LINE
  8
SUNPOU
 10
6925.34672
 20
4657.635964
 30
0.0
 11
6925.34672
 21
4672.635964
 31
0.0
  0
INSERT
  8
SUNPOU
  2
ARROWANG
 10
6925.34672
 20
4657.635964
 30
0.0
 41
45.0
 42
45.0
 50
90.0
 43
45.0
  0
INSERT
  8
SUNPOU
  2
ARROWANG
 10
6925.34672
 20
4672.635964
 30
0.0
 41
45.0
 42
45.0
 50
270.0
 43
45.0
  0
LINE
  8
SUNPOU
 10
6925.34672
 20
4672.635964
 30
0.0
 11
6925.34672
 21
4870.635964
 31
0.0
  0
LINE
  8
SUNPOU
 10
6925.34672
 20
4657.635964
 30
0.0
 11
6925.346722
 21
4567.635964
 31
0.0
  0
TEXT
  8
SUNPOU
 10
6880.34672
 20
4679.493107
 30
0.0
 40
90.0
  1
15
 50
90.0
  7
K
 72
     1
 11
6880.34672
 21
4771.635964
 31
0.0
  0
LINE
  8
SUNPOU
 10
6659.868499
 20
4507.635964
 30
0.0
 11
6955.34672
 21
4507.635964
 31
0.0
  0
LINE
  8
SUNPOU
 10
6567.868499
 20
4657.635964
 30
0.0
 11
6955.34672
 21
4657.635964
 31
0.0
  0
LINE
  8
SUNPOU
 10
6925.34672
 20
4507.635964
 30
0.0
 11
6925.34672
 21
4657.635964
 31
0.0
  0
INSERT
  8
SUNPOU
  2
ARROWANG
 10
6925.34672
 20
4507.635964
 30
0.0
 41
45.0
 42
45.0
 50
270.0
 43
45.0
  0
INSERT
  8
SUNPOU
  2
ARROWANG
 10
6925.34672
 20
4657.635964
 30
0.0
 41
45.0
 42
45.0
 50
90.0
 43
45.0
  0
LINE
  8
SUNPOU
 10
6925.34672
 20
4507.635964
 30
0.0
 11
6925.34672
 21
4210.635964
 31
0.0
  0
TEXT
  8
SUNPOU
 10
6880.34672
 20
4224.135964
 30
0.0
 40
90.0
  1
150
 50
90.0
  7
K
 72
     1
 11
6880.34672
 21
4359.135964
 31
0.0
  0
LINE
  8
SUNPOU
 10
6955.34672
 20
4507.635964
 30
0.0
 11
7155.588342
 21
4507.635964
 31
0.0
  0
LINE
  8
SUNPOU
 10
6955.34672
 20
4672.635964
 30
0.0
 11
7155.588342
 21
4672.635964
 31
0.0
  0
LINE
  8
SUNPOU
 10
7125.588342
 20
4507.635964
 30
0.0
 11
7125.588342
 21
4672.635964
 31
0.0
  0
INSERT
  8
SUNPOU
  2
ARROWANG
 10
7125.588342
 20
4507.635964
 30
0.0
 41
45.0
 42
45.0
 50
270.0
 43
45.0
  0
INSERT
  8
SUNPOU
  2
ARROWANG
 10
7125.588342
 20
4672.635964
 30
0.0
 41
45.0
 42
45.0
 50
90.0
 43
45.0
  0
TEXT
  8
SUNPOU
 10
7080.588342
 20
4455.135964
 30
0.0
 40
90.0
  1
165
 50
90.0
  7
K
 72
     1
 11
7080.588342
 21
4590.135964
 31
0.0
  0
CIRCLE
  8
JISSEN
 10
5897.911691
 20
3283.757554
 30
0.0
 40
725.0
  0
CIRCLE
  8
JISSEN
 10
5897.911691
 20
3283.757554
 30
0.0
 40
300.0
  0
LINE
  8
ITTEN
 10
5897.911691
 20
4058.757554
 30
0.0
 11
5897.911691
 21
2508.757554
 31
0.0
  0
LINE
  8
ITTEN
 10
6672.911691
 20
3283.757554
 30
0.0
 11
5122.911691
 21
3283.757554
 31
0.0
  0
CIRCLE
  8
JISSEN
 10
5897.911691
 20
3283.757554
 30
0.0
 40
633.0
  0
CIRCLE
  8
JISSEN
 10
5897.911691
 20
3283.757554
 30
0.0
 40
640.0
  0
CIRCLE
  8
JISSEN
 10
3440.807375
 20
3283.757554
 30
0.0
 40
640.0
  0
CIRCLE
  8
JISSEN
 10
3440.807375
 20
3283.757554
 30
0.0
 40
633.0
  0
LINE
  8
ITTEN
 10
4215.807375
 20
3283.757554
 30
0.0
 11
2665.807375
 21
3283.757554
 31
0.0
  0
LINE
  8
ITTEN
 10
3440.807375
 20
4058.757554
 30
0.0
 11
3440.807375
 21
2508.757554
 31
0.0
  0
CIRCLE
  8
JISSEN
 10
3440.807375
 20
3283.757554
 30
0.0
 40
300.0
  0
CIRCLE
  8
JISSEN
 10
3440.807375
 20
3283.757554
 30
0.0
 40
725.0
  0
TEXT
  8
SUNPOU
 10
4616.527218
 20
4456.674144
 30
0.0
 40
90.0
  1
165
 50
90.0
  7
K
 72
     1
 11
4616.527218
 21
4591.674144
 31
0.0
  0
INSERT
  8
SUNPOU
  2
ARROWANG
 10
4661.527218
 20
4674.174144
 30
0.0
 41
45.0
 42
45.0
 50
90.0
 43
45.0
  0
INSERT
  8
SUNPOU
  2
ARROWANG
 10
4661.527218
 20
4509.174144
 30
0.0
 41
45.0
 42
45.0
 50
270.0
 43
45.0
  0
LINE
  8
SUNPOU
 10
4661.527218
 20
4509.174144
 30
0.0
 11
4661.527218
 21
4674.174144
 31
0.0
  0
LINE
  8
SUNPOU
 10
4491.285596
 20
4674.174144
 30
0.0
 11
4691.527218
 21
4674.174144
 31
0.0
  0
LINE
  8
SUNPOU
 10
4491.285596
 20
4509.174144
 30
0.0
 11
4691.527218
 21
4509.174144
 31
0.0
  0
TEXT
  8
SUNPOU
 10
4416.285596
 20
4225.674144
 30
0.0
 40
90.0
  1
150
 50
90.0
  7
K
 72
     1
 11
4416.285596
 21
4360.674144
 31
0.0
  0
LINE
  8
SUNPOU
 10
4461.285596
 20
4509.174144
 30
0.0
 11
4461.285596
 21
4212.174144
 31
0.0
  0
INSERT
  8
SUNPOU
  2
ARROWANG
 10
4461.285596
 20
4659.174144
 30
0.0
 41
45.0
 42
45.0
 50
90.0
 43
45.0
  0
INSERT
  8
SUNPOU
  2
ARROWANG
 10
4461.285596
 20
4509.174144
 30
0.0
 41
45.0
 42
45.0
 50
270.0
 43
45.0
  0
LINE
  8
SUNPOU
 10
4461.285596
 20
4509.174144
 30
0.0
 11
4461.285596
 21
4659.174144
 31
0.0
  0
LINE
  8
SUNPOU
 10
4103.807375
 20
4659.174144
 30
0.0
 11
4491.285596
 21
4659.174144
 31
0.0
  0
LINE
  8
SUNPOU
 10
4195.807375
 20
4509.174144
 30
0.0
 11
4491.285596
 21
4509.174144
 31
0.0
  0
TEXT
  8
SUNPOU
 10
4416.285596
 20
4681.031287
 30
0.0
 40
90.0
  1
15
 50
90.0
  7
K
 72
     1
 11
4416.285596
 21
4773.174144
 31
0.0
  0
LINE
  8
SUNPOU
 10
4461.285596
 20
4659.174144
 30
0.0
 11
4461.285598
 21
4569.174144
 31
0.0
  0
LINE
  8
SUNPOU
 10
4461.285596
 20
4674.174144
 30
0.0
 11
4461.285596
 21
4872.174144
 31
0.0
  0
INSERT
  8
SUNPOU
  2
ARROWANG
 10
4461.285596
 20
4674.174144
 30
0.0
 41
45.0
 42
45.0
 50
270.0
 43
45.0
  0
INSERT
  8
SUNPOU
  2
ARROWANG
 10
4461.285596
 20
4659.174144
 30
0.0
 41
45.0
 42
45.0
 50
90.0
 43
45.0
  0
LINE
  8
SUNPOU
 10
4461.285596
 20
4659.174144
 30
0.0
 11
4461.285596
 21
4674.174144
 31
0.0
  0
LINE
  8
SUNPOU
 10
4195.807375
 20
4674.174144
 30
0.0
 11
4491.285596
 21
4674.174144
 31
0.0
  0
TEXT
  8
SUNPOU
 10
4256.259865
 20
4687.459858
 30
0.0
 40
90.0
  1
80
 50
90.0
  7
K
 72
     1
 11
4256.259865
 21
4773.174144
 31
0.0
  0
LINE
  8
SUNPOU
 10
4301.259865
 20
4594.174144
 30
0.0
 11
4301.259867
 21
4504.174144
 31
0.0
  0
LINE
  8
SUNPOU
 10
4301.259865
 20
4674.174144
 30
0.0
 11
4301.259865
 21
4872.174144
 31
0.0
  0
INSERT
  8
SUNPOU
  2
ARROWANG
 10
4301.259865
 20
4674.174144
 30
0.0
 41
45.0
 42
45.0
 50
270.0
 43
45.0
  0
INSERT
  8
SUNPOU
  2
ARROWANG
 10
4301.259865
 20
4594.174144
 30
0.0
 41
45.0
 42
45.0
 50
90.0
 43
45.0
  0
LINE
  8
SUNPOU
 10
4301.259865
 20
4594.174144
 30
0.0
 11
4301.259865
 21
4674.174144
 31
0.0
  0
LINE
  8
SUNPOU
 10
4195.807375
 20
4674.174144
 30
0.0
 11
4331.259865
 21
4674.174144
 31
0.0
  0
LINE
  8
SUNPOU
 10
4195.807375
 20
4594.174144
 30
0.0
 11
4331.259865
 21
4594.174144
 31
0.0
  0
TEXT
  8
SUNPOU
 10
3824.735946
 20
4353.185314
 30
0.0
 40
90.0
  1
425
  7
K
 72
     1
 11
3953.307375
 21
4353.185314
 31
0.0
  0
INSERT
  8
SUNPOU
  2
ARROWANG
 10
4165.807375
 20
4308.185314
 30
0.0
 41
45.0
 42
45.0
 43
45.0
  0
INSERT
  8
SUNPOU
  2
ARROWANG
 10
3740.807375
 20
4308.185314
 30
0.0
 41
45.0
 42
45.0
 50
180.0
 43
45.0
  0
LINE
  8
SUNPOU
 10
4165.807375
 20
4479.174144
 30
0.0
 11
4165.807375
 21
4278.185314
 31
0.0
  0
LINE
  8
SUNPOU
 10
3740.807375
 20
4308.185314
 30
0.0
 11
4165.807375
 21
4308.185314
 31
0.0
  0
TEXT
  8
SUNPOU
 10
3310.093089
 20
4353.185314
 30
0.0
 40
90.0
  1
600
  7
K
 72
     1
 11
3440.807375
 21
4353.185314
 31
0.0
  0
INSERT
  8
SUNPOU
  2
ARROWANG
 10
3740.807375
 20
4308.185314
 30
0.0
 41
45.0
 42
45.0
 43
45.0
  0
INSERT
  8
SUNPOU
  2
ARROWANG
 10
3140.807375
 20
4308.185314
 30
0.0
 41
45.0
 42
45.0
 50
180.0
 43
45.0
  0
LINE
  8
SUNPOU
 10
3740.807375
 20
4479.174144
 30
0.0
 11
3740.807375
 21
4278.185314
 31
0.0
  0
LINE
  8
SUNPOU
 10
3140.807375
 20
4308.185314
 30
0.0
 11
3740.807375
 21
4308.185314
 31
0.0
  0
TEXT
  8
SUNPOU
 10
2799.735961
 20
4353.185314
 30
0.0
 40
90.0
  1
425
  7
K
 72
     1
 11
2928.307389
 21
4353.185314
 31
0.0
  0
INSERT
  8
SUNPOU
  2
ARROWANG
 10
3140.807375
 20
4308.185314
 30
0.0
 41
45.0
 42
45.0
 43
45.0
  0
INSERT
  8
SUNPOU
  2
ARROWANG
 10
2715.807375
 20
4308.185314
 30
0.0
 41
45.0
 42
45.0
 50
180.0
 43
45.0
  0
LINE
  8
SUNPOU
 10
2715.807375
 20
4308.185314
 30
0.0
 11
3140.807375
 21
4308.185314
 31
0.0
  0
LINE
  8
SUNPOU
 10
3140.807375
 20
4479.174144
 30
0.0
 11
3140.807375
 21
4278.185314
 31
0.0
  0
LINE
  8
SUNPOU
 10
2715.807375
 20
4479.174144
 30
0.0
 11
2715.807375
 21
4278.185314
 31
0.0
  0
TEXT
  8
SUNPOU
 10
3262.950247
 20
4180.396448
 30
0.0
 40
90.0
  1
1450
  7
K
 72
     1
 11
3440.807389
 21
4180.396448
 31
0.0
  0
INSERT
  8
SUNPOU
  2
ARROWANG
 10
4165.807375
 20
4135.396448
 30
0.0
 41
45.0
 42
45.0
 43
45.0
  0
INSERT
  8
SUNPOU
  2
ARROWANG
 10
2715.807375
 20
4135.396448
 30
0.0
 41
45.0
 42
45.0
 50
180.0
 43
45.0
  0
LINE
  8
SUNPOU
 10
2715.807375
 20
4135.396448
 30
0.0
 11
4165.807375
 21
4135.396448
 31
0.0
  0
LINE
  8
SUNPOU
 10
4165.807375
 20
4479.174144
 30
0.0
 11
4165.807375
 21
4105.396448
 31
0.0
  0
LINE
  8
SUNPOU
 10
2715.807375
 20
4479.174144
 30
0.0
 11
2715.807375
 21
4105.396448
 31
0.0
  0
LINE
  8
ITTEN
 10
4065.807375
 20
4594.174144
 30
0.0
 11
4215.807375
 21
4594.174144
 31
0.0
  0
LINE
  8
JISSEN
 10
4165.807375
 20
4604.174144
 30
0.0
 11
4115.807375
 21
4604.174144
 31
0.0
  0
LINE
  8
JISSEN
 10
4115.807375
 20
4604.174144
 30
0.0
 11
4115.807375
 21
4584.174144
 31
0.0
  0
LINE
  8
JISSEN
 10
4115.807375
 20
4584.174144
 30
0.0
 11
4165.807375
 21
4584.174144
 31
0.0
  0
LINE
  8
JISSEN
 10
3990.807375
 20
4654.174144
 30
0.0
 11
3990.807375
 21
4654.174144
 31
0.0
  0
LINE
  8
ITTEN
 10
3440.807375
 20
4704.174144
 30
0.0
 11
3440.807375
 21
4459.174144
 31
0.0
  0
LINE
  8
JISSEN
 10
4165.807375
 20
4509.174144
 30
0.0
 11
4165.807375
 21
4674.174144
 31
0.0
  0
LINE
  8
JISSEN
 10
4165.807375
 20
4674.174144
 30
0.0
 11
4080.807375
 21
4674.174144
 31
0.0
  0
LINE
  8
JISSEN
 10
4080.807375
 20
4674.174144
 30
0.0
 11
4073.807375
 21
4659.174144
 31
0.0
  0
LINE
  8
HASEN
 10
4073.807375
 20
4659.174144
 30
0.0
 11
3440.807375
 21
4659.174144
 31
0.0
  0
LINE
  8
JISSEN
 10
4080.807375
 20
4674.174144
 30
0.0
 11
3440.807375
 21
4674.174144
 31
0.0
  0
LINE
  8
JISSEN
 10
4165.807375
 20
4509.174144
 30
0.0
 11
3440.807375
 21
4509.174144
 31
0.0
  0
LINE
  8
HASEN
 10
3740.807375
 20
4659.174144
 30
0.0
 11
3740.807375
 21
4509.174144
 31
0.0
  0
LINE
  8
JISSEN
 10
3140.807375
 20
4659.174144
 30
0.0
 11
3140.807375
 21
4509.174144
 31
0.0
  0
LINE
  8
JISSEN
 10
2715.807375
 20
4509.174144
 30
0.0
 11
3440.807375
 21
4509.174144
 31
0.0
  0
LINE
  8
JISSEN
 10
2800.807375
 20
4674.174144
 30
0.0
 11
3440.807375
 21
4674.174144
 31
0.0
  0
LINE
  8
JISSEN
 10
2807.807375
 20
4659.174144
 30
0.0
 11
3440.807375
 21
4659.174144
 31
0.0
  0
LINE
  8
JISSEN
 10
2800.807375
 20
4674.174144
 30
0.0
 11
2807.807375
 21
4659.174144
 31
0.0
  0
LINE
  8
JISSEN
 10
2715.807375
 20
4674.174144
 30
0.0
 11
2800.807375
 21
4674.174144
 31
0.0
  0
LINE
  8
JISSEN
 10
2715.807375
 20
4509.174144
 30
0.0
 11
2715.807375
 21
4674.174144
 31
0.0
  0
LINE
  8
ITTEN
 10
3440.807375
 20
4704.174144
 30
0.0
 11
3440.807375
 21
4459.174144
 31
0.0
  0
LINE
  8
JISSEN
 10
2890.807375
 20
4654.174144
 30
0.0
 11
2890.807375
 21
4654.174144
 31
0.0
  0
LINE
  8
JISSEN
 10
2765.807375
 20
4584.174144
 30
0.0
 11
2715.807375
 21
4584.174144
 31
0.0
  0
LINE
  8
JISSEN
 10
2765.807375
 20
4604.174144
 30
0.0
 11
2765.807375
 21
4584.174144
 31
0.0
  0
LINE
  8
JISSEN
 10
2715.807375
 20
4604.174144
 30
0.0
 11
2765.807375
 21
4604.174144
 31
0.0
  0
LINE
  8
ITTEN
 10
2815.807375
 20
4594.174144
 30
0.0
 11
2665.807375
 21
4594.174144
 31
0.0
  0
TEXT
  8
TEXT
 10
5640.469691
 20
5058.986991
 30
0.0
 40
120.0
  1
底　　版
  7
K
  0
LINE
  8
ITTEN
 10
7730.016008
 20
4594.174144
 30
0.0
 11
7580.016008
 21
4594.174144
 31
0.0
  0
LINE
  8
JISSEN
 10
7630.016008
 20
4604.174144
 30
0.0
 11
7680.016008
 21
4604.174144
 31
0.0
  0
LINE
  8
JISSEN
 10
7680.016008
 20
4604.174144
 30
0.0
 11
7680.016008
 21
4584.174144
 31
0.0
  0
LINE
  8
JISSEN
 10
7680.016008
 20
4584.174144
 30
0.0
 11
7630.016008
 21
4584.174144
 31
0.0
  0
LINE
  8
JISSEN
 10
7805.016008
 20
4654.174144
 30
0.0
 11
7805.016008
 21
4654.174144
 31
0.0
  0
LINE
  8
ITTEN
 10
8355.016008
 20
4704.174144
 30
0.0
 11
8355.016008
 21
4459.174144
 31
0.0
  0
LINE
  8
JISSEN
 10
7630.016008
 20
4509.174144
 30
0.0
 11
7630.016008
 21
4674.174144
 31
0.0
  0
LINE
  8
JISSEN
 10
7630.016008
 20
4674.174144
 30
0.0
 11
7715.016008
 21
4674.174144
 31
0.0
  0
LINE
  8
JISSEN
 10
7715.016008
 20
4674.174144
 30
0.0
 11
7722.016008
 21
4659.174144
 31
0.0
  0
LINE
  8
JISSEN
 10
7722.016008
 20
4659.174144
 30
0.0
 11
8355.016008
 21
4659.174144
 31
0.0
  0
LINE
  8
JISSEN
 10
7715.016008
 20
4674.174144
 30
0.0
 11
8355.016008
 21
4674.174144
 31
0.0
  0
LINE
  8
JISSEN
 10
7630.016008
 20
4509.174144
 30
0.0
 11
8355.016008
 21
4509.174144
 31
0.0
  0
LINE
  8
JISSEN
 10
9080.016008
 20
4509.174144
 30
0.0
 11
8355.016008
 21
4509.174144
 31
0.0
  0
LINE
  8
JISSEN
 10
8995.016008
 20
4674.174144
 30
0.0
 11
8355.016008
 21
4674.174144
 31
0.0
  0
LINE
  8
HASEN
 10
8988.016008
 20
4659.174144
 30
0.0
 11
8355.016008
 21
4659.174144
 31
0.0
  0
LINE
  8
JISSEN
 10
8995.016008
 20
4674.174144
 30
0.0
 11
8988.016008
 21
4659.174144
 31
0.0
  0
LINE
  8
JISSEN
 10
9080.016008
 20
4674.174144
 30
0.0
 11
8995.016008
 21
4674.174144
 31
0.0
  0
LINE
  8
JISSEN
 10
9080.016008
 20
4509.174144
 30
0.0
 11
9080.016008
 21
4674.174144
 31
0.0
  0
LINE
  8
ITTEN
 10
8355.016008
 20
4704.174144
 30
0.0
 11
8355.016008
 21
4459.174144
 31
0.0
  0
LINE
  8
JISSEN
 10
8905.016008
 20
4654.174144
 30
0.0
 11
8905.016008
 21
4654.174144
 31
0.0
  0
LINE
  8
JISSEN
 10
9030.016008
 20
4584.174144
 30
0.0
 11
9080.016008
 21
4584.174144
 31
0.0
  0
LINE
  8
JISSEN
 10
9030.016008
 20
4604.174144
 30
0.0
 11
9030.016008
 21
4584.174144
 31
0.0
  0
LINE
  8
JISSEN
 10
9080.016008
 20
4604.174144
 30
0.0
 11
9030.016008
 21
4604.174144
 31
0.0
  0
LINE
  8
ITTEN
 10
8980.016008
 20
4594.174144
 30
0.0
 11
9130.016008
 21
4594.174144
 31
0.0
  0
LINE
  8
SUNPOU
 10
7630.016008
 20
4479.174144
 30
0.0
 11
7630.016008
 21
4105.396448
 31
0.0
  0
LINE
  8
SUNPOU
 10
9080.016008
 20
4479.174144
 30
0.0
 11
9080.016008
 21
4105.396448
 31
0.0
  0
LINE
  8
SUNPOU
 10
7630.016008
 20
4135.396448
 30
0.0
 11
9080.016008
 21
4135.396448
 31
0.0
  0
INSERT
  8
SUNPOU
  2
ARROWANG
 10
7630.016008
 20
4135.396448
 30
0.0
 41
45.0
 42
45.0
 50
180.0
 43
45.0
  0
INSERT
  8
SUNPOU
  2
ARROWANG
 10
9080.016008
 20
4135.396448
 30
0.0
 41
45.0
 42
45.0
 43
45.0
  0
TEXT
  8
SUNPOU
 10
8177.15888
 20
4180.396448
 30
0.0
 40
90.0
  1
1450
  7
K
 72
     1
 11
8355.016023
 21
4180.396448
 31
0.0
  0
LINE
  8
SUNPOU
 10
9110.016008
 20
4594.174144
 30
0.0
 11
9245.468498
 21
4594.174144
 31
0.0
  0
LINE
  8
SUNPOU
 10
9110.016008
 20
4674.174144
 30
0.0
 11
9245.468498
 21
4674.174144
 31
0.0
  0
LINE
  8
SUNPOU
 10
9215.468498
 20
4594.174144
 30
0.0
 11
9215.468498
 21
4674.174144
 31
0.0
  0
INSERT
  8
SUNPOU
  2
ARROWANG
 10
9215.468498
 20
4594.174144
 30
0.0
 41
45.0
 42
45.0
 50
90.0
 43
45.0
  0
INSERT
  8
SUNPOU
  2
ARROWANG
 10
9215.468498
 20
4674.174144
 30
0.0
 41
45.0
 42
45.0
 50
270.0
 43
45.0
  0
LINE
  8
SUNPOU
 10
9215.468498
 20
4674.174144
 30
0.0
 11
9215.468498
 21
4872.174144
 31
0.0
  0
LINE
  8
SUNPOU
 10
9215.468498
 20
4594.174144
 30
0.0
 11
9215.4685
 21
4504.174144
 31
0.0
  0
TEXT
  8
SUNPOU
 10
9170.468498
 20
4687.459858
 30
0.0
 40
90.0
  1
80
 50
90.0
  7
K
 72
     1
 11
9170.468498
 21
4773.174144
 31
0.0
  0
LINE
  8
SUNPOU
 10
9110.016008
 20
4674.174144
 30
0.0
 11
9405.494229
 21
4674.174144
 31
0.0
  0
LINE
  8
SUNPOU
 10
9375.494229
 20
4659.174144
 30
0.0
 11
9375.494229
 21
4674.174144
 31
0.0
  0
INSERT
  8
SUNPOU
  2
ARROWANG
 10
9375.494229
 20
4659.174144
 30
0.0
 41
45.0
 42
45.0
 50
90.0
 43
45.0
  0
INSERT
  8
SUNPOU
  2
ARROWANG
 10
9375.494229
 20
4674.174144
 30
0.0
 41
45.0
 42
45.0
 50
270.0
 43
45.0
  0
LINE
  8
SUNPOU
 10
9375.494229
 20
4674.174144
 30
0.0
 11
9375.494229
 21
4872.174144
 31
0.0
  0
LINE
  8
SUNPOU
 10
9375.494229
 20
4659.174144
 30
0.0
 11
9375.494231
 21
4569.174144
 31
0.0
  0
TEXT
  8
SUNPOU
 10
9330.494229
 20
4681.031287
 30
0.0
 40
90.0
  1
15
 50
90.0
  7
K
 72
     1
 11
9330.494229
 21
4773.174144
 31
0.0
  0
LINE
  8
SUNPOU
 10
9110.016008
 20
4509.174144
 30
0.0
 11
9405.494229
 21
4509.174144
 31
0.0
  0
LINE
  8
SUNPOU
 10
9018.016008
 20
4659.174144
 30
0.0
 11
9405.494229
 21
4659.174144
 31
0.0
  0
LINE
  8
SUNPOU
 10
9375.494229
 20
4509.174144
 30
0.0
 11
9375.494229
 21
4659.174144
 31
0.0
  0
INSERT
  8
SUNPOU
  2
ARROWANG
 10
9375.494229
 20
4509.174144
 30
0.0
 41
45.0
 42
45.0
 50
270.0
 43
45.0
  0
INSERT
  8
SUNPOU
  2
ARROWANG
 10
9375.494229
 20
4659.174144
 30
0.0
 41
45.0
 42
45.0
 50
90.0
 43
45.0
  0
LINE
  8
SUNPOU
 10
9375.494229
 20
4509.174144
 30
0.0
 11
9375.494229
 21
4212.174144
 31
0.0
  0
TEXT
  8
SUNPOU
 10
9330.494229
 20
4225.674144
 30
0.0
 40
90.0
  1
150
 50
90.0
  7
K
 72
     1
 11
9330.494229
 21
4360.674144
 31
0.0
  0
LINE
  8
SUNPOU
 10
9405.494229
 20
4509.174144
 30
0.0
 11
9605.735851
 21
4509.174144
 31
0.0
  0
LINE
  8
SUNPOU
 10
9405.494229
 20
4674.174144
 30
0.0
 11
9605.735851
 21
4674.174144
 31
0.0
  0
LINE
  8
SUNPOU
 10
9575.735851
 20
4509.174144
 30
0.0
 11
9575.735851
 21
4674.174144
 31
0.0
  0
INSERT
  8
SUNPOU
  2
ARROWANG
 10
9575.735851
 20
4509.174144
 30
0.0
 41
45.0
 42
45.0
 50
270.0
 43
45.0
  0
INSERT
  8
SUNPOU
  2
ARROWANG
 10
9575.735851
 20
4674.174144
 30
0.0
 41
45.0
 42
45.0
 50
90.0
 43
45.0
  0
TEXT
  8
SUNPOU
 10
9530.735851
 20
4456.674144
 30
0.0
 40
90.0
  1
165
 50
90.0
  7
K
 72
     1
 11
9530.735851
 21
4591.674144
 31
0.0
  0
CIRCLE
  8
JISSEN
 10
8355.016008
 20
3283.757554
 30
0.0
 40
725.0
  0
LINE
  8
ITTEN
 10
8355.016008
 20
4058.757554
 30
0.0
 11
8355.016008
 21
2508.757554
 31
0.0
  0
LINE
  8
ITTEN
 10
9130.016008
 20
3283.757554
 30
0.0
 11
7580.016008
 21
3283.757554
 31
0.0
  0
CIRCLE
  8
JISSEN
 10
8355.016008
 20
3283.757554
 30
0.0
 40
633.0
  0
CIRCLE
  8
JISSEN
 10
8355.016008
 20
3283.757554
 30
0.0
 40
640.0
  0
TEXT
  8
TEXT
 10
8169.855345
 20
4814.845633
 30
0.0
 40
90.0
  1
Ｍ２ＰＦ
  7
K
  0
POLYLINE
  8
WAKU
 66
     1
 10
0.0
 20
0.0
 30
0.0
 70
     1
  0
VERTEX
  8
WAKU
 10
0.0
 20
0.0
 30
0.0
  0
VERTEX
  8
WAKU
 10
11850.0
 20
0.0
 30
0.0
  0
VERTEX
  8
WAKU
 10
11850.0
 20
8190.0
 30
0.0
  0
VERTEX
  8
WAKU
 10
0.0
 20
8190.0
 30
0.0
  0
SEQEND
  8
WAKU
  0
TEXT
  8
TEXT
 10
11234.019271
 20
597.11523
 30
0.0
 40
120.0
  1
1/30
  7
K
  0
ENDSEC
  0
EOF
