  0
SECTION
  2
HEADER
  9
$ACADVER
  1
AC1009
  9
$INSBASE
 10
0.0
 20
0.0
 30
0.0
  9
$EXTMIN
 10
0.0
 20
0.0
 30
0.0
  9
$EXTMAX
 10
11850.0
 20
8190.0
 30
0.0
  9
$LIMMIN
 10
0.0
 20
0.0
  9
$LIMMAX
 10
11850.0
 20
8190.0
  9
$ORTHOMODE
 70
     0
  9
$REGENMODE
 70
     1
  9
$FILLMODE
 70
     1
  9
$QTEXTMODE
 70
     0
  9
$MIRRTEXT
 70
     0
  9
$DRAGMODE
 70
     2
  9
$LTSCALE
 40
150.0
  9
$OSMODE
 70
    32
  9
$ATTMODE
 70
     1
  9
$TEXTSIZE
 40
45.0
  9
$TRACEWID
 40
0.05
  9
$TEXTSTYLE
  7
K
  9
$CLAYER
  8
TENSEN
  9
$CELTYPE
  6
BYLAYER
  9
$CECOLOR
 62
   256
  9
$DIMSCALE
 40
30.0
  9
$DIMASZ
 40
1.5
  9
$DIMEXO
 40
1.0
  9
$DIMDLI
 40
6.0
  9
$DIMRND
 40
0.0
  9
$DIMDLE
 40
0.0
  9
$DIMEXE
 40
1.0
  9
$DIMTP
 40
495.0
  9
$DIMTM
 40
0.0
  9
$DIMTXT
 40
3.0
  9
$DIMCEN
 40
0.0
  9
$DIMTSZ
 40
0.0
  9
$DIMTOL
 70
     0
  9
$DIMLIM
 70
     0
  9
$DIMTIH
 70
     0
  9
$DIMTOH
 70
     0
  9
$DIMSE1
 70
     0
  9
$DIMSE2
 70
     0
  9
$DIMTAD
 70
     1
  9
$DIMZIN
 70
     8
  9
$DIMBLK
  1
ARROW
  9
$DIMASO
 70
     0
  9
$DIMSHO
 70
     0
  9
$DIMPOST
  1

  9
$DIMAPOST
  1

  9
$DIMALT
 70
     0
  9
$DIMALTD
 70
     2
  9
$DIMALTF
 40
25.4
  9
$DIMLFAC
 40
1.0
  9
$DIMTOFL
 70
     1
  9
$DIMTVP
 40
0.0
  9
$DIMTIX
 70
     1
  9
$DIMSOXD
 70
     0
  9
$DIMSAH
 70
     0
  9
$DIMBLK1
  1

  9
$DIMBLK2
  1

  9
$DIMSTYLE
  2
*UNNAMED
  9
$DIMCLRD
 70
     0
  9
$DIMCLRE
 70
     0
  9
$DIMCLRT
 70
     0
  9
$DIMTFAC
 40
1.0
  9
$DIMGAP
 40
0.09
  9
$LUNITS
 70
     2
  9
$LUPREC
 70
     2
  9
$AXISMODE
 70
     0
  9
$AXISUNIT
 10
100.0
 20
100.0
  9
$SKETCHINC
 40
0.1
  9
$FILLETRAD
 40
9.5
  9
$AUNITS
 70
     0
  9
$AUPREC
 70
     2
  9
$MENU
  1
d:stdgx5
  9
$ELEVATION
 40
0.0
  9
$PELEVATION
 40
0.0
  9
$THICKNESS
 40
0.0
  9
$LIMCHECK
 70
     0
  9
$BLIPMODE
 70
     1
  9
$CHAMFERA
 40
0.0
  9
$CHAMFERB
 40
0.0
  9
$SKPOLY
 70
     0
  9
$TDCREATE
 40
2450248.585613425
  9
$TDUPDATE
 40
2450248.589236110
  9
$TDINDWG
 40
0.0023958333
  9
$TDUSRTIMER
 40
0.0023958333
  9
$USRTIMER
 70
     1
  9
$ANGBASE
 50
0.0
  9
$ANGDIR
 70
     0
  9
$PDMODE
 70
     0
  9
$PDSIZE
 40
0.0
  9
$PLINEWID
 40
0.0
  9
$COORDS
 70
     2
  9
$SPLFRAME
 70
     0
  9
$SPLINETYPE
 70
     6
  9
$SPLINESEGS
 70
     8
  9
$ATTDIA
 70
     0
  9
$ATTREQ
 70
     1
  9
$HANDLING
 70
     0
  9
$HANDSEED
  5
0
  9
$SURFTAB1
 70
     6
  9
$SURFTAB2
 70
     6
  9
$SURFTYPE
 70
     6
  9
$SURFU
 70
     6
  9
$SURFV
 70
     6
  9
$UCSNAME
  2

  9
$UCSORG
 10
0.0
 20
0.0
 30
0.0
  9
$UCSXDIR
 10
1.0
 20
0.0
 30
0.0
  9
$UCSYDIR
 10
0.0
 20
1.0
 30
0.0
  9
$PUCSNAME
  2

  9
$PUCSORG
 10
0.0
 20
0.0
 30
0.0
  9
$PUCSXDIR
 10
1.0
 20
0.0
 30
0.0
  9
$PUCSYDIR
 10
0.0
 20
1.0
 30
0.0
  9
$USERI1
 70
     3
  9
$USERI2
 70
    32
  9
$USERI3
 70
     0
  9
$USERI4
 70
     1
  9
$USERI5
 70
     0
  9
$USERR1
 40
30.0
  9
$USERR2
 40
3.0
  9
$USERR3
 40
3.0
  9
$USERR4
 40
1.5
  9
$USERR5
 40
10.0
  9
$WORLDVIEW
 70
     1
  9
$SHADEDGE
 70
     3
  9
$SHADEDIF
 70
    70
  9
$TILEMODE
 70
     1
  9
$MAXACTVP
 70
    16
  9
$PINSBASE
 10
0.0
 20
0.0
 30
0.0
  9
$PLIMCHECK
 70
     0
  9
$PEXTMIN
 10
1.000000E+20
 20
1.000000E+20
 30
1.000000E+20
  9
$PEXTMAX
 10
-1.000000E+20
 20
-1.000000E+20
 30
-1.000000E+20
  9
$PLIMMIN
 10
0.0
 20
0.0
  9
$PLIMMAX
 10
12.0
 20
9.0
  9
$UNITMODE
 70
     0
  9
$VISRETAIN
 70
     0
  0
ENDSEC
  0
SECTION
  2
TABLES
  0
TABLE
  2
VPORT
 70
    10
  0
VPORT
  2
*ACTIVE
 70
     0
 10
0.0
 20
0.0
 11
1.0
 21
1.0
 12
6691.515737
 22
4095.0
 13
0.0
 23
0.0
 14
1.0
 24
1.0
 15
10.0
 25
10.0
 16
0.0
 26
0.0
 36
1.0
 17
0.0
 27
0.0
 37
0.0
 40
8190.0
 41
1.63407
 42
50.0
 43
0.0
 44
0.0
 50
0.0
 51
0.0
 71
     0
 72
   500
 73
     1
 74
     0
 75
     0
 76
     0
 77
     0
 78
     0
  0
VPORT
  2
2
 70
     0
 10
0.5
 20
0.0
 11
1.0
 21
1.0
 12
0.924031
 22
1.052651
 13
0.0
 23
0.0
 14
1.0
 24
1.0
 15
10.0
 25
10.0
 16
0.0
 26
0.0
 36
1.0
 17
0.0
 27
0.0
 37
0.0
 40
2.105302
 41
0.877814
 42
50.0
 43
0.0
 44
0.0
 50
0.0
 51
0.0
 71
     0
 72
   500
 73
     1
 74
     1
 75
     0
 76
     0
 77
     0
 78
     0
  0
VPORT
  2
2
 70
     0
 10
0.0
 20
0.0
 11
0.5
 21
1.0
 12
0.924031
 22
1.052651
 13
0.0
 23
0.0
 14
1.0
 24
1.0
 15
10.0
 25
10.0
 16
0.0
 26
0.0
 36
1.0
 17
0.0
 27
0.0
 37
0.0
 40
2.105302
 41
0.877814
 42
50.0
 43
0.0
 44
0.0
 50
0.0
 51
0.0
 71
     0
 72
   500
 73
     1
 74
     1
 75
     0
 76
     0
 77
     0
 78
     0
  0
VPORT
  2
3
 70
     0
 10
0.0
 20
0.5
 11
1.0
 21
1.0
 12
2.83217
 22
1.052651
 13
0.0
 23
0.0
 14
1.0
 24
1.0
 15
10.0
 25
10.0
 16
0.0
 26
0.0
 36
1.0
 17
0.0
 27
0.0
 37
0.0
 40
2.105302
 41
3.571429
 42
50.0
 43
0.0
 44
0.0
 50
0.0
 51
0.0
 71
     0
 72
   500
 73
     1
 74
     1
 75
     0
 76
     0
 77
     0
 78
     0
  0
VPORT
  2
3
 70
     0
 10
0.0
 20
0.0
 11
1.0
 21
0.5
 12
2.856742
 22
1.052651
 13
0.0
 23
0.0
 14
1.0
 24
1.0
 15
10.0
 25
10.0
 16
0.0
 26
0.0
 36
1.0
 17
0.0
 27
0.0
 37
0.0
 40
2.105302
 41
3.594771
 42
50.0
 43
0.0
 44
0.0
 50
0.0
 51
0.0
 71
     0
 72
   500
 73
     1
 74
     1
 75
     0
 76
     0
 77
     0
 78
     0
  0
VPORT
  2
4
 70
     0
 10
0.5
 20
0.0
 11
1.0
 21
0.5
 12
2.886858
 22
1.052651
 13
0.0
 23
0.0
 14
1.0
 24
1.0
 15
10.0
 25
10.0
 16
0.0
 26
0.0
 36
1.0
 17
0.0
 27
0.0
 37
0.0
 40
4.275207
 41
1.784314
 42
50.0
 43
0.0
 44
0.0
 50
0.0
 51
0.0
 71
     0
 72
   500
 73
     1
 74
     1
 75
     0
 76
     0
 77
     0
 78
     0
  0
VPORT
  2
4
 70
     0
 10
0.5
 20
0.5
 11
1.0
 21
1.0
 12
2.86209
 22
1.052651
 13
0.0
 23
0.0
 14
1.0
 24
1.0
 15
10.0
 25
10.0
 16
0.0
 26
0.0
 36
1.0
 17
0.0
 27
0.0
 37
0.0
 40
4.275207
 41
1.772727
 42
50.0
 43
0.0
 44
0.0
 50
0.0
 51
0.0
 71
     0
 72
   500
 73
     1
 74
     1
 75
     0
 76
     0
 77
     0
 78
     0
  0
VPORT
  2
4
 70
     0
 10
0.0
 20
0.5
 11
0.5
 21
1.0
 12
2.86209
 22
1.052651
 13
0.0
 23
0.0
 14
1.0
 24
1.0
 15
10.0
 25
10.0
 16
0.0
 26
0.0
 36
1.0
 17
0.0
 27
0.0
 37
0.0
 40
4.275207
 41
1.772727
 42
50.0
 43
0.0
 44
0.0
 50
0.0
 51
0.0
 71
     0
 72
   500
 73
     1
 74
     1
 75
     0
 76
     0
 77
     0
 78
     0
  0
VPORT
  2
4
 70
     0
 10
0.0
 20
0.0
 11
0.5
 21
0.5
 12
2.886858
 22
1.052651
 13
0.0
 23
0.0
 14
1.0
 24
1.0
 15
10.0
 25
10.0
 16
0.0
 26
0.0
 36
1.0
 17
0.0
 27
0.0
 37
0.0
 40
4.275207
 41
1.784314
 42
50.0
 43
0.0
 44
0.0
 50
0.0
 51
0.0
 71
     0
 72
   500
 73
     1
 74
     1
 75
     0
 76
     0
 77
     0
 78
     0
  0
ENDTAB
  0
TABLE
  2
LTYPE
 70
     5
  0
LTYPE
  2
CONTINUOUS
 70
    64
  3
実線
 72
    65
 73
     0
 40
0.0
  0
LTYPE
  2
DASHED
 70
    64
  3
__ __ __ __ __ __ __ __ __ __ __ __ __ __ __
 72
    65
 73
     2
 40
0.75
 49
0.5
 49
-0.25
  0
LTYPE
  2
CENTER
 70
    64
  3
____ _ ____ _ ____ _ ____ _ ____ _ ____ _ ____
 72
    65
 73
     4
 40
2.0
 49
1.25
 49
-0.25
 49
0.25
 49
-0.25
  0
LTYPE
  2
PHANTOM
 70
    64
  3
_____ _ _ _____ _ _ _____ _ _ _____ _ _ ____
 72
    65
 73
     6
 40
2.5
 49
1.25
 49
-0.25
 49
0.25
 49
-0.25
 49
0.25
 49
-0.25
  0
LTYPE
  2
HIDDEN
 70
    64
  3
_ _ _ _ _ _ _ _ _ _ _ _ _ _ _ _ _ _ _ _ _ _ _
 72
    65
 73
     2
 40
0.375
 49
0.25
 49
-0.125
  0
ENDTAB
  0
TABLE
  2
LAYER
 70
    14
  0
LAYER
  2
0
 70
    64
 62
     7
  6
CONTINUOUS
  0
LAYER
  2
ITTEN
 70
    64
 62
     1
  6
CENTER
  0
LAYER
  2
SUNPOU
 70
    64
 62
     3
  6
CONTINUOUS
  0
LAYER
  2
TEXT
 70
    64
 62
     3
  6
CONTINUOUS
  0
LAYER
  2
JISSEN
 70
    64
 62
     7
  6
CONTINUOUS
  0
LAYER
  2
HOJO
 70
    64
 62
    13
  6
CONTINUOUS
  0
LAYER
  2
TENSEN
 70
    64
 62
     2
  6
HIDDEN
  0
LAYER
  2
HOJOORG
 70
    64
 62
    -9
  6
CONTINUOUS
  0
LAYER
  2
WAKU
 70
    64
 62
    -5
  6
CONTINUOUS
  0
ENDTAB
  0
TABLE
  2
STYLE
 70
     2
  0
STYLE
  2
STANDARD
 70
     0
 40
0.0
 41
1.0
 50
0.0
 71
     0
 42
0.2
  3
ROMANS
  4
EXTFONT
  0
STYLE
  2
K
 70
    64
 40
0.0
 41
1.0
 50
0.0
 71
     0
 42
45.0
  3
ROMANS
  4
EXTFONT
  0
ENDTAB
  0
TABLE
  2
VIEW
 70
     0
  0
ENDTAB
  0
TABLE
  2
UCS
 70
     0
  0
ENDTAB
  0
TABLE
  2
APPID
 70
     1
  0
APPID
  2
ACAD
 70
    64
  0
ENDTAB
  0
TABLE
  2
DIMSTYLE
 70
     0
  0
ENDTAB
  0
ENDSEC
  0
SECTION
  2
BLOCKS
  0
BLOCK
  8
SUNPOU
  2
ARROWANG
 70
    64
 10
0.0
 20
0.0
 30
0.0
  3
ARROWANG
  0
LINE
  8
SUNPOU
 10
0.0
 20
0.0
 30
0.0
 11
-1.5
 21
0.401924
 31
0.0
  0
LINE
  8
SUNPOU
 10
0.0
 20
0.0
 30
0.0
 11
-1.5
 21
-0.401924
 31
0.0
  0
ENDBLK
  8
SUNPOU
  0
ENDSEC
  0
SECTION
  2
ENTITIES
  0
LINE
  8
JISSEN
 10
4842.995161
 20
5307.582749
 30
0.0
 11
4809.995161
 21
5307.582749
 31
0.0
  0
LINE
  8
JISSEN
 10
4809.995161
 20
5307.582749
 30
0.0
 11
4802.995161
 21
5330.582749
 31
0.0
  0
LINE
  8
JISSEN
 10
4802.995161
 20
5330.582749
 30
0.0
 11
4717.995161
 21
5330.582749
 31
0.0
  0
LINE
  8
JISSEN
 10
4717.995161
 20
4730.582749
 30
0.0
 11
4803.995161
 21
4730.582749
 31
0.0
  0
LINE
  8
JISSEN
 10
4803.995161
 20
4730.582749
 30
0.0
 11
4814.995161
 21
4715.582749
 31
0.0
  0
LINE
  8
JISSEN
 10
4814.995161
 20
4715.582749
 30
0.0
 11
4842.995161
 21
4715.582749
 31
0.0
  0
LINE
  8
JISSEN
 10
4717.995161
 20
5330.582749
 30
0.0
 11
4717.995161
 21
4730.582749
 31
0.0
  0
LINE
  8
JISSEN
 10
4842.995161
 20
5307.582749
 30
0.0
 11
4842.995161
 21
4715.582749
 31
0.0
  0
LINE
  8
JISSEN
 10
6342.995161
 20
5307.582749
 30
0.0
 11
6342.995161
 21
5065.582749
 31
0.0
  0
LINE
  8
JISSEN
 10
6467.995161
 20
5330.582749
 30
0.0
 11
6467.995161
 21
4730.582749
 31
0.0
  0
LINE
  8
JISSEN
 10
6370.995161
 20
4715.582749
 30
0.0
 11
6342.995161
 21
4715.582749
 31
0.0
  0
LINE
  8
JISSEN
 10
6381.995161
 20
4730.582749
 30
0.0
 11
6370.995161
 21
4715.582749
 31
0.0
  0
LINE
  8
JISSEN
 10
6467.995161
 20
4730.582749
 30
0.0
 11
6381.995161
 21
4730.582749
 31
0.0
  0
LINE
  8
JISSEN
 10
6382.995161
 20
5330.582749
 30
0.0
 11
6467.995161
 21
5330.582749
 31
0.0
  0
LINE
  8
JISSEN
 10
6375.995161
 20
5307.582749
 30
0.0
 11
6382.995161
 21
5330.582749
 31
0.0
  0
LINE
  8
JISSEN
 10
6342.995161
 20
5307.582749
 30
0.0
 11
6375.995161
 21
5307.582749
 31
0.0
  0
LINE
  8
JISSEN
 10
4803.995161
 20
5330.582749
 30
0.0
 11
6381.995161
 21
5330.582749
 31
0.0
  0
LINE
  8
JISSEN
 10
6342.995161
 20
5307.582749
 30
0.0
 11
4842.995161
 21
5307.582749
 31
0.0
  0
LINE
  8
JISSEN
 10
6342.995161
 20
4715.582749
 30
0.0
 11
4842.995161
 21
4715.582749
 31
0.0
  0
CIRCLE
  8
JISSEN
 10
5592.995161
 20
3648.306171
 30
0.0
 40
750.0
  0
CIRCLE
  8
JISSEN
 10
5592.995161
 20
3648.306171
 30
0.0
 40
875.0
  0
CIRCLE
  8
JISSEN
 10
5592.995161
 20
3648.306171
 30
0.0
 40
790.0
  0
CIRCLE
  8
JISSEN
 10
5592.995161
 20
3648.306171
 30
0.0
 40
783.0
  0
ARC
  8
JISSEN
 10
5192.995161
 20
3648.306171
 30
0.0
 40
300.0
 50
270.0
 51
90.0
  0
LINE
  8
JISSEN
 10
5192.995161
 20
3948.306171
 30
0.0
 11
4905.608807
 21
3948.306171
 31
0.0
  0
LINE
  8
JISSEN
 10
5192.995161
 20
3348.306171
 30
0.0
 11
4905.608807
 21
3348.306171
 31
0.0
  0
LINE
  8
JISSEN
 10
6342.995161
 20
5065.582749
 30
0.0
 11
4905.608807
 21
5065.582749
 31
0.0
  0
LINE
  8
JISSEN
 10
4905.608807
 20
5065.582749
 30
0.0
 11
4905.608807
 21
4965.582749
 31
0.0
  0
LINE
  8
JISSEN
 10
4905.608807
 20
4965.582749
 30
0.0
 11
6342.995161
 21
4965.582749
 31
0.0
  0
LINE
  8
JISSEN
 10
5492.995161
 20
5065.582749
 30
0.0
 11
5492.995161
 21
4965.582749
 31
0.0
  0
LINE
  8
JISSEN
 10
6342.995161
 20
4965.582749
 30
0.0
 11
6342.995161
 21
4715.582749
 31
0.0
  0
LINE
  8
ITTEN
 10
4786.879307
 20
5165.582749
 30
0.0
 11
5142.995161
 21
5165.582749
 31
0.0
  0
ARC
  8
JISSEN
 10
4962.995161
 20
5165.582749
 30
0.0
 40
10.0
 50
270.0
 51
90.0
  0
LINE
  8
JISSEN
 10
4962.995161
 20
5155.582749
 30
0.0
 11
4842.995161
 21
5155.582749
 31
0.0
  0
LINE
  8
JISSEN
 10
4842.995161
 20
5175.582749
 30
0.0
 11
4962.995161
 21
5175.582749
 31
0.0
  0
LINE
  8
ITTEN
 10
4786.879307
 20
5165.582749
 30
0.0
 11
5142.995161
 21
5165.582749
 31
0.0
  0
ARC
  8
JISSEN
 10
4962.995161
 20
5165.582749
 30
0.0
 40
10.0
 50
270.0
 51
90.0
  0
LINE
  8
ITTEN
 10
4786.879307
 20
5165.582749
 30
0.0
 11
5020.01459
 21
5165.582749
 31
0.0
  0
LINE
  8
ITTEN
 10
4786.879307
 20
4865.582749
 30
0.0
 11
5023.773229
 21
4865.582749
 31
0.0
  0
LINE
  8
JISSEN
 10
4962.995161
 20
4855.582749
 30
0.0
 11
4842.995161
 21
4855.582749
 31
0.0
  0
LINE
  8
JISSEN
 10
4842.995161
 20
4875.582749
 30
0.0
 11
4962.995161
 21
4875.582749
 31
0.0
  0
ARC
  8
JISSEN
 10
4962.995161
 20
4865.582749
 30
0.0
 40
10.0
 50
270.0
 51
90.0
  0
LINE
  8
SUNPOU
 10
4942.995161
 20
4865.582749
 30
0.0
 11
4942.995161
 21
4865.582749
 31
0.0
  0
LINE
  8
SUNPOU
 10
4942.995161
 20
5165.582749
 30
0.0
 11
4942.995161
 21
5165.582749
 31
0.0
  0
LINE
  8
SUNPOU
 10
4842.995161
 20
5174.501755
 30
0.0
 11
4842.995161
 21
5174.501755
 31
0.0
  0
LINE
  8
SUNPOU
 10
4842.995161
 20
5174.501755
 30
0.0
 11
4842.995161
 21
5174.501755
 31
0.0
  0
LINE
  8
SUNPOU
 10
5492.995161
 20
5095.582749
 30
0.0
 11
5492.995161
 21
5234.501755
 31
0.0
  0
LINE
  8
SUNPOU
 10
4717.995161
 20
5360.582749
 30
0.0
 11
4717.995161
 21
5660.582749
 31
0.0
  0
LINE
  8
SUNPOU
 10
4842.995161
 20
5337.582749
 30
0.0
 11
4842.995161
 21
5660.582749
 31
0.0
  0
LINE
  8
SUNPOU
 10
6342.995161
 20
5337.582749
 30
0.0
 11
6342.995161
 21
5660.582749
 31
0.0
  0
LINE
  8
SUNPOU
 10
6467.995161
 20
5360.582749
 30
0.0
 11
6467.995161
 21
5660.582749
 31
0.0
  0
LINE
  8
SUNPOU
 10
4687.995161
 20
4730.582749
 30
0.0
 11
4387.995161
 21
4730.582749
 31
0.0
  0
LINE
  8
SUNPOU
 10
4687.995161
 20
5330.582749
 30
0.0
 11
4387.995161
 21
5330.582749
 31
0.0
  0
LINE
  8
ITTEN
 10
5592.995161
 20
5448.605956
 30
0.0
 11
5592.995161
 21
5448.605956
 31
0.0
  0
LINE
  8
ITTEN
 10
5592.995161
 20
5445.244727
 30
0.0
 11
5592.995161
 21
5445.244727
 31
0.0
  0
LINE
  8
ITTEN
 10
5592.995161
 20
5442.443703
 30
0.0
 11
5592.995161
 21
4627.822946
 31
0.0
  0
LINE
  8
ITTEN
 10
5192.995161
 20
3973.306171
 30
0.0
 11
5192.995161
 21
3323.306171
 31
0.0
  0
POINT
  8
SUNPOU
 10
5593.995161
 20
3648.306171
 30
0.0
  0
LINE
  8
SUNPOU
 10
6342.995161
 20
3618.306171
 30
0.0
 11
6342.995161
 21
3618.306171
 31
0.0
  0
LINE
  8
SUNPOU
 10
6467.995161
 20
3618.306171
 30
0.0
 11
6467.995161
 21
3618.306171
 31
0.0
  0
LINE
  8
TENSEN
 10
6204.602119
 20
3022.557077
 30
0.0
 11
6169.287188
 21
3057.872009
 31
0.0
  0
LINE
  8
TENSEN
 10
6169.287188
 20
3057.872009
 30
0.0
 11
6183.429323
 21
3072.014144
 31
0.0
  0
LINE
  8
TENSEN
 10
6183.429323
 20
3072.014144
 30
0.0
 11
6218.744255
 21
3036.699213
 31
0.0
  0
POINT
  8
TENSEN
 10
5603.995161
 20
3657.801439
 30
0.0
  0
LINE
  8
ITTEN
 10
6234.769157
 20
3006.532175
 30
0.0
 11
6160.421713
 21
3080.879619
 31
0.0
  0
POINT
  8
ITTEN
 10
5593.995161
 20
3648.306171
 30
0.0
  0
POINT
  8
ITTEN
 10
5593.995161
 20
3648.306171
 30
0.0
  0
LINE
  8
ITTEN
 10
4951.221165
 20
4290.080167
 30
0.0
 11
5025.568609
 21
4215.732723
 31
0.0
  0
LINE
  8
TENSEN
 10
4981.388203
 20
4274.055265
 30
0.0
 11
5016.703134
 21
4238.740333
 31
0.0
  0
LINE
  8
TENSEN
 10
5002.560999
 20
4224.598198
 30
0.0
 11
4967.246067
 21
4259.913129
 31
0.0
  0
LINE
  8
TENSEN
 10
5016.703134
 20
4238.740333
 30
0.0
 11
5002.560999
 21
4224.598198
 31
0.0
  0
LINE
  8
TENSEN
 10
4967.246067
 20
3036.699213
 30
0.0
 11
5002.560999
 21
3072.014144
 31
0.0
  0
LINE
  8
ITTEN
 10
4951.221165
 20
3006.532175
 30
0.0
 11
5025.568609
 21
3080.879619
 31
0.0
  0
LINE
  8
TENSEN
 10
5016.703134
 20
3057.872009
 30
0.0
 11
4981.388203
 21
3022.557077
 31
0.0
  0
LINE
  8
TENSEN
 10
5002.560999
 20
3072.014144
 30
0.0
 11
5016.703134
 21
3057.872009
 31
0.0
  0
POINT
  8
ITTEN
 10
5592.995161
 20
3649.306171
 30
0.0
  0
POINT
  8
ITTEN
 10
5563.995161
 20
3648.306171
 30
0.0
  0
ARC
  8
JISSEN
 10
4942.456482
 20
3828.306171
 30
0.0
 40
30.0
 50
0.0
 51
90.0
  0
ARC
  8
JISSEN
 10
4942.456482
 20
3468.306171
 30
0.0
 40
30.0
 50
270.0
 51
0.0
  0
ARC
  8
JISSEN
 10
4932.456482
 20
3478.306171
 30
0.0
 40
20.0
 50
270.0
 51
0.0
  0
ARC
  8
JISSEN
 10
4932.456482
 20
3818.306171
 30
0.0
 40
20.0
 50
0.0
 51
90.0
  0
LINE
  8
JISSEN
 10
4932.456482
 20
3838.306171
 30
0.0
 11
4866.922204
 21
3838.306171
 31
0.0
  0
LINE
  8
JISSEN
 10
4952.456482
 20
3478.306171
 30
0.0
 11
4952.456482
 21
3818.306171
 31
0.0
  0
LINE
  8
JISSEN
 10
4866.922204
 20
3458.306171
 30
0.0
 11
4932.456482
 21
3458.306171
 31
0.0
  0
LINE
  8
JISSEN
 10
4942.456482
 20
3438.306171
 30
0.0
 11
4872.45649
 21
3438.306171
 31
0.0
  0
LINE
  8
JISSEN
 10
4972.456482
 20
3828.306171
 30
0.0
 11
4972.456482
 21
3468.306171
 31
0.0
  0
LINE
  8
JISSEN
 10
4872.45649
 20
3858.306171
 30
0.0
 11
4942.456482
 21
3858.306171
 31
0.0
  0
LINE
  8
ITTEN
 10
5592.995161
 20
4623.306171
 30
0.0
 11
5592.995161
 21
2673.306171
 31
0.0
  0
LINE
  8
ITTEN
 10
6567.995161
 20
3648.306171
 30
0.0
 11
4617.995161
 21
3648.306171
 31
0.0
  0
LINE
  8
JISSEN
 10
7973.854042
 20
3858.306171
 30
0.0
 11
8043.854034
 21
3858.306171
 31
0.0
  0
LINE
  8
JISSEN
 10
8073.854034
 20
3828.306171
 30
0.0
 11
8073.854034
 21
3468.306171
 31
0.0
  0
LINE
  8
JISSEN
 10
8043.854034
 20
3438.306171
 30
0.0
 11
7973.854042
 21
3438.306171
 31
0.0
  0
LINE
  8
JISSEN
 10
7968.319756
 20
3458.306171
 30
0.0
 11
8033.854034
 21
3458.306171
 31
0.0
  0
LINE
  8
JISSEN
 10
8053.854034
 20
3478.306171
 30
0.0
 11
8053.854034
 21
3818.306171
 31
0.0
  0
LINE
  8
JISSEN
 10
8033.854034
 20
3838.306171
 30
0.0
 11
7968.319756
 21
3838.306171
 31
0.0
  0
ARC
  8
JISSEN
 10
8033.854034
 20
3818.306171
 30
0.0
 40
20.0
 50
0.0
 51
90.0
  0
ARC
  8
JISSEN
 10
8033.854034
 20
3478.306171
 30
0.0
 40
20.0
 50
270.0
 51
0.0
  0
ARC
  8
JISSEN
 10
8043.854034
 20
3468.306171
 30
0.0
 40
30.0
 50
270.0
 51
0.0
  0
ARC
  8
JISSEN
 10
8043.854034
 20
3828.306171
 30
0.0
 40
30.0
 50
0.0
 51
90.0
  0
POINT
  8
ITTEN
 10
8665.392713
 20
3648.306171
 30
0.0
  0
POINT
  8
ITTEN
 10
8694.392713
 20
3649.306171
 30
0.0
  0
POINT
  8
ITTEN
 10
8695.392713
 20
3648.306171
 30
0.0
  0
POINT
  8
ITTEN
 10
8695.392713
 20
3648.306171
 30
0.0
  0
POINT
  8
TENSEN
 10
8705.392713
 20
3657.801439
 30
0.0
  0
LINE
  8
SUNPOU
 10
9569.392713
 20
3618.306171
 30
0.0
 11
9569.392713
 21
3618.306171
 31
0.0
  0
LINE
  8
SUNPOU
 10
9444.392713
 20
3618.306171
 30
0.0
 11
9444.392713
 21
3618.306171
 31
0.0
  0
INSERT
  8
SUNPOU
  2
ARROWANG
 10
8069.100799
 20
3234.168486
 30
0.0
 41
30.0
 42
30.0
 50
213.516945
 43
30.0
  0
POINT
  8
SUNPOU
 10
8695.392713
 20
3648.306171
 30
0.0
  0
LINE
  8
ITTEN
 10
8294.392713
 20
3973.306171
 30
0.0
 11
8294.392713
 21
3323.306171
 31
0.0
  0
LINE
  8
SUNPOU
 10
7944.392713
 20
5174.501755
 30
0.0
 11
7944.392713
 21
5174.501755
 31
0.0
  0
LINE
  8
SUNPOU
 10
7944.392713
 20
5174.501755
 30
0.0
 11
7944.392713
 21
5174.501755
 31
0.0
  0
LINE
  8
SUNPOU
 10
7944.392713
 20
5193.157882
 30
0.0
 11
7944.392713
 21
5193.157882
 31
0.0
  0
LINE
  8
SUNPOU
 10
8044.392713
 20
5165.582749
 30
0.0
 11
8044.392713
 21
5165.582749
 31
0.0
  0
LINE
  8
SUNPOU
 10
8044.392713
 20
4865.582749
 30
0.0
 11
8044.392713
 21
4865.582749
 31
0.0
  0
ARC
  8
JISSEN
 10
8064.392713
 20
4865.582749
 30
0.0
 40
10.0
 50
270.0
 51
90.0
  0
LINE
  8
JISSEN
 10
7944.392713
 20
4875.582749
 30
0.0
 11
8064.392713
 21
4875.582749
 31
0.0
  0
LINE
  8
JISSEN
 10
8064.392713
 20
4855.582749
 30
0.0
 11
7944.392713
 21
4855.582749
 31
0.0
  0
LINE
  8
ITTEN
 10
7888.276859
 20
4865.582749
 30
0.0
 11
8124.484963
 21
4865.582749
 31
0.0
  0
LINE
  8
ITTEN
 10
7888.276859
 20
5165.582749
 30
0.0
 11
8244.392713
 21
5165.582749
 31
0.0
  0
ARC
  8
JISSEN
 10
8064.392713
 20
5165.582749
 30
0.0
 40
10.0
 50
270.0
 51
90.0
  0
LINE
  8
ITTEN
 10
7888.276859
 20
5165.582749
 30
0.0
 11
8244.392713
 21
5165.582749
 31
0.0
  0
LINE
  8
JISSEN
 10
7944.392713
 20
5175.582749
 30
0.0
 11
8064.392713
 21
5175.582749
 31
0.0
  0
LINE
  8
JISSEN
 10
8064.392713
 20
5155.582749
 30
0.0
 11
7944.392713
 21
5155.582749
 31
0.0
  0
ARC
  8
JISSEN
 10
8064.392713
 20
5165.582749
 30
0.0
 40
10.0
 50
270.0
 51
90.0
  0
LINE
  8
ITTEN
 10
7888.276859
 20
5165.582749
 30
0.0
 11
8122.458067
 21
5165.582749
 31
0.0
  0
LINE
  8
JISSEN
 10
9444.392713
 20
4965.582749
 30
0.0
 11
9444.392713
 21
4715.582749
 31
0.0
  0
LINE
  8
JISSEN
 10
8594.392713
 20
5065.582749
 30
0.0
 11
8594.392713
 21
4965.582749
 31
0.0
  0
LINE
  8
JISSEN
 10
8007.006359
 20
4965.582749
 30
0.0
 11
9444.392713
 21
4965.582749
 31
0.0
  0
LINE
  8
JISSEN
 10
8007.006359
 20
5065.582749
 30
0.0
 11
8007.006359
 21
4965.582749
 31
0.0
  0
LINE
  8
JISSEN
 10
9444.392713
 20
5065.582749
 30
0.0
 11
8007.006359
 21
5065.582749
 31
0.0
  0
LINE
  8
JISSEN
 10
8294.392713
 20
3348.306171
 30
0.0
 11
8007.006359
 21
3348.306171
 31
0.0
  0
LINE
  8
JISSEN
 10
8294.392713
 20
3948.306171
 30
0.0
 11
8007.006359
 21
3948.306171
 31
0.0
  0
ARC
  8
JISSEN
 10
8294.392713
 20
3648.306171
 30
0.0
 40
300.0
 50
270.0
 51
90.0
  0
CIRCLE
  8
JISSEN
 10
8694.392713
 20
3648.306171
 30
0.0
 40
783.0
  0
CIRCLE
  8
JISSEN
 10
8694.392713
 20
3648.306171
 30
0.0
 40
790.0
  0
CIRCLE
  8
JISSEN
 10
8694.392713
 20
3648.306171
 30
0.0
 40
750.0
  0
LINE
  8
JISSEN
 10
9444.392713
 20
4715.582749
 30
0.0
 11
7944.392713
 21
4715.582749
 31
0.0
  0
LINE
  8
JISSEN
 10
9444.392713
 20
5307.582749
 30
0.0
 11
7944.392713
 21
5307.582749
 31
0.0
  0
LINE
  8
JISSEN
 10
7905.392713
 20
5330.582749
 30
0.0
 11
9483.392713
 21
5330.582749
 31
0.0
  0
LINE
  8
JISSEN
 10
9444.392713
 20
5307.582749
 30
0.0
 11
9477.392713
 21
5307.582749
 31
0.0
  0
LINE
  8
JISSEN
 10
9477.392713
 20
5307.582749
 30
0.0
 11
9484.392713
 21
5330.582749
 31
0.0
  0
LINE
  8
JISSEN
 10
9484.392713
 20
5330.582749
 30
0.0
 11
9594.392713
 21
5330.582749
 31
0.0
  0
LINE
  8
JISSEN
 10
9594.392713
 20
4730.582749
 30
0.0
 11
9483.392713
 21
4730.582749
 31
0.0
  0
LINE
  8
JISSEN
 10
9483.392713
 20
4730.582749
 30
0.0
 11
9472.392713
 21
4715.582749
 31
0.0
  0
LINE
  8
JISSEN
 10
9472.392713
 20
4715.582749
 30
0.0
 11
9444.392713
 21
4715.582749
 31
0.0
  0
LINE
  8
JISSEN
 10
9594.392713
 20
5330.582749
 30
0.0
 11
9594.392713
 21
4730.582749
 31
0.0
  0
LINE
  8
JISSEN
 10
9444.392713
 20
5307.582749
 30
0.0
 11
9444.392713
 21
5065.582749
 31
0.0
  0
LINE
  8
JISSEN
 10
7944.392713
 20
5307.582749
 30
0.0
 11
7944.392713
 21
4715.582749
 31
0.0
  0
LINE
  8
JISSEN
 10
7794.392713
 20
5330.582749
 30
0.0
 11
7794.392713
 21
4730.582749
 31
0.0
  0
LINE
  8
JISSEN
 10
7916.392713
 20
4715.582749
 30
0.0
 11
7944.392713
 21
4715.582749
 31
0.0
  0
LINE
  8
JISSEN
 10
7905.392713
 20
4730.582749
 30
0.0
 11
7916.392713
 21
4715.582749
 31
0.0
  0
LINE
  8
JISSEN
 10
7794.392713
 20
4730.582749
 30
0.0
 11
7905.392713
 21
4730.582749
 31
0.0
  0
LINE
  8
JISSEN
 10
7904.392713
 20
5330.582749
 30
0.0
 11
7794.392713
 21
5330.582749
 31
0.0
  0
LINE
  8
JISSEN
 10
7911.392713
 20
5307.582749
 30
0.0
 11
7904.392713
 21
5330.582749
 31
0.0
  0
LINE
  8
JISSEN
 10
7944.392713
 20
5307.582749
 30
0.0
 11
7911.392713
 21
5307.582749
 31
0.0
  0
CIRCLE
  8
JISSEN
 10
8694.392713
 20
3648.306171
 30
0.0
 40
900.0
  0
POINT
  8
SUNPOU
 10
8695.09982
 20
3647.599064
 30
0.0
  0
LINE
  8
TENSEN
 10
9323.678464
 20
4291.734057
 30
0.0
 11
9288.36241
 21
4256.418003
 31
0.0
  0
LINE
  8
TENSEN
 10
9288.36241
 20
4256.418003
 30
0.0
 11
9302.504545
 21
4242.275867
 31
0.0
  0
LINE
  8
TENSEN
 10
9337.820599
 20
4277.591921
 30
0.0
 11
9302.504545
 21
4242.275867
 31
0.0
  0
LINE
  8
ITTEN
 10
9348.649318
 20
4302.562775
 30
0.0
 11
9271.114406
 21
4225.027864
 31
0.0
  0
LINE
  8
ITTEN
 10
8040.136109
 20
4302.562775
 30
0.0
 11
8117.671021
 21
4225.027864
 31
0.0
  0
LINE
  8
TENSEN
 10
8065.106963
 20
4291.734057
 30
0.0
 11
8100.423017
 21
4256.418003
 31
0.0
  0
LINE
  8
TENSEN
 10
8086.280882
 20
4242.275867
 30
0.0
 11
8100.423017
 21
4256.418003
 31
0.0
  0
LINE
  8
TENSEN
 10
8050.964828
 20
4277.591921
 30
0.0
 11
8086.280882
 21
4242.275867
 31
0.0
  0
LINE
  8
ITTEN
 10
8040.136109
 20
2994.049567
 30
0.0
 11
8117.671021
 21
3071.584478
 31
0.0
  0
LINE
  8
TENSEN
 10
8050.964828
 20
3019.020421
 30
0.0
 11
8086.280882
 21
3054.336475
 31
0.0
  0
LINE
  8
TENSEN
 10
8100.423017
 20
3040.194339
 30
0.0
 11
8086.280882
 21
3054.336475
 31
0.0
  0
LINE
  8
TENSEN
 10
8065.106963
 20
3004.878285
 30
0.0
 11
8100.423017
 21
3040.194339
 31
0.0
  0
LINE
  8
ITTEN
 10
9348.649318
 20
2994.049567
 30
0.0
 11
9271.114406
 21
3071.584478
 31
0.0
  0
LINE
  8
TENSEN
 10
9323.678464
 20
3004.878285
 30
0.0
 11
9288.36241
 21
3040.194339
 31
0.0
  0
LINE
  8
TENSEN
 10
9302.504545
 20
3054.336475
 30
0.0
 11
9288.36241
 21
3040.194339
 31
0.0
  0
LINE
  8
TENSEN
 10
9337.820599
 20
3019.020421
 30
0.0
 11
9302.504545
 21
3054.336475
 31
0.0
  0
LINE
  8
ITTEN
 10
8693.995161
 20
5442.443703
 30
0.0
 11
8693.995161
 21
4627.822946
 31
0.0
  0
LINE
  8
ITTEN
 10
8694.392713
 20
4648.306171
 30
0.0
 11
8694.392713
 21
2648.306171
 31
0.0
  0
LINE
  8
ITTEN
 10
9694.392713
 20
3648.306171
 30
0.0
 11
7694.392713
 21
3648.306171
 31
0.0
  0
LINE
  8
SUNPOU
 10
7794.392713
 20
5360.582749
 30
0.0
 11
7794.392713
 21
5660.582749
 31
0.0
  0
LINE
  8
SUNPOU
 10
7944.392713
 20
5337.582749
 30
0.0
 11
7944.392713
 21
5660.582749
 31
0.0
  0
LINE
  8
SUNPOU
 10
7794.392713
 20
5630.582749
 30
0.0
 11
7944.392713
 21
5630.582749
 31
0.0
  0
INSERT
  8
SUNPOU
  2
ARROWANG
 10
7944.392713
 20
5630.582749
 30
0.0
 41
30.0
 42
30.0
 43
30.0
  0
INSERT
  8
SUNPOU
  2
ARROWANG
 10
7794.392713
 20
5630.582749
 30
0.0
 41
30.0
 42
30.0
 50
180.0
 43
30.0
  0
TEXT
  8
SUNPOU
 10
7801.892713
 20
5675.582749
 30
0.0
 40
45.0
  1
150
  7
K
 72
     1
 11
7869.392713
 21
5675.582749
 31
0.0
  0
LINE
  8
SUNPOU
 10
7944.392713
 20
5660.582749
 30
0.0
 11
7944.392713
 21
5660.582749
 31
0.0
  0
LINE
  8
SUNPOU
 10
9444.392713
 20
5337.582749
 30
0.0
 11
9444.392713
 21
5660.582749
 31
0.0
  0
LINE
  8
SUNPOU
 10
7944.392713
 20
5630.582749
 30
0.0
 11
9444.392713
 21
5630.582749
 31
0.0
  0
INSERT
  8
SUNPOU
  2
ARROWANG
 10
9444.392713
 20
5630.582749
 30
0.0
 41
30.0
 42
30.0
 43
30.0
  0
INSERT
  8
SUNPOU
  2
ARROWANG
 10
7944.392713
 20
5630.582749
 30
0.0
 41
30.0
 42
30.0
 50
180.0
 43
30.0
  0
TEXT
  8
SUNPOU
 10
8605.464142
 20
5675.582749
 30
0.0
 40
45.0
  1
1500
  7
K
 72
     1
 11
8694.392713
 21
5675.582749
 31
0.0
  0
LINE
  8
SUNPOU
 10
9444.392713
 20
5600.582749
 30
0.0
 11
9444.392713
 21
5600.582749
 31
0.0
  0
LINE
  8
SUNPOU
 10
9594.392713
 20
5360.582749
 30
0.0
 11
9594.392713
 21
5660.582749
 31
0.0
  0
LINE
  8
SUNPOU
 10
9444.392713
 20
5630.582749
 30
0.0
 11
9594.392713
 21
5630.582749
 31
0.0
  0
INSERT
  8
SUNPOU
  2
ARROWANG
 10
9444.392713
 20
5630.582749
 30
0.0
 41
30.0
 42
30.0
 50
180.0
 43
30.0
  0
INSERT
  8
SUNPOU
  2
ARROWANG
 10
9594.392713
 20
5630.582749
 30
0.0
 41
30.0
 42
30.0
 43
30.0
  0
TEXT
  8
SUNPOU
 10
9451.892728
 20
5675.582749
 30
0.0
 40
45.0
  1
150
  7
K
 72
     1
 11
9519.392728
 21
5675.582749
 31
0.0
  0
LINE
  8
SUNPOU
 10
7944.392713
 20
5168.757416
 30
0.0
 11
7944.392713
 21
5168.757416
 31
0.0
  0
LINE
  8
SUNPOU
 10
8594.392713
 20
5095.582749
 30
0.0
 11
8594.392713
 21
5228.757416
 31
0.0
  0
LINE
  8
SUNPOU
 10
7944.392713
 20
5198.757416
 30
0.0
 11
8594.392713
 21
5198.757416
 31
0.0
  0
INSERT
  8
SUNPOU
  2
ARROWANG
 10
7944.392713
 20
5198.757416
 30
0.0
 41
30.0
 42
30.0
 50
180.0
 43
30.0
  0
INSERT
  8
SUNPOU
  2
ARROWANG
 10
8594.392713
 20
5198.757416
 30
0.0
 41
30.0
 42
30.0
 43
30.0
  0
TEXT
  8
SUNPOU
 10
8204.035585
 20
5243.757416
 30
0.0
 40
45.0
  1
650
  7
K
 72
     1
 11
8269.392728
 21
5243.757416
 31
0.0
  0
LINE
  8
SUNPOU
 10
7764.392713
 20
4730.582749
 30
0.0
 11
7464.392713
 21
4730.582749
 31
0.0
  0
LINE
  8
SUNPOU
 10
7764.392713
 20
5330.582749
 30
0.0
 11
7464.392713
 21
5330.582749
 31
0.0
  0
LINE
  8
SUNPOU
 10
7494.392713
 20
4730.582749
 30
0.0
 11
7494.392713
 21
5330.582749
 31
0.0
  0
INSERT
  8
SUNPOU
  2
ARROWANG
 10
7494.392713
 20
4730.582749
 30
0.0
 41
30.0
 42
30.0
 50
270.0
 43
30.0
  0
INSERT
  8
SUNPOU
  2
ARROWANG
 10
7494.392713
 20
5330.582749
 30
0.0
 41
30.0
 42
30.0
 50
90.0
 43
30.0
  0
TEXT
  8
SUNPOU
 10
7449.392713
 20
4965.225606
 30
0.0
 40
45.0
  1
600
 50
90.0
  7
K
 72
     1
 11
7449.392713
 21
5030.582749
 31
0.0
  0
LINE
  8
SUNPOU
 10
9078.879226
 20
4965.582749
 30
0.0
 11
9078.879226
 21
4965.582749
 31
0.0
  0
LINE
  8
SUNPOU
 10
9078.879226
 20
5065.582749
 30
0.0
 11
9078.879226
 21
5065.582749
 31
0.0
  0
LINE
  8
SUNPOU
 10
9048.879226
 20
4965.582749
 30
0.0
 11
9048.879226
 21
5065.582749
 31
0.0
  0
INSERT
  8
SUNPOU
  2
ARROWANG
 10
9048.879226
 20
4965.582749
 30
0.0
 41
30.0
 42
30.0
 50
90.0
 43
30.0
  0
INSERT
  8
SUNPOU
  2
ARROWANG
 10
9048.879226
 20
5065.582749
 30
0.0
 41
30.0
 42
30.0
 50
270.0
 43
30.0
  0
LINE
  8
SUNPOU
 10
9048.879226
 20
5065.582749
 30
0.0
 11
9048.879226
 21
5214.082749
 31
0.0
  0
LINE
  8
SUNPOU
 10
9048.879226
 20
4965.582749
 30
0.0
 11
9048.879227
 21
4905.582749
 31
0.0
  0
TEXT
  8
SUNPOU
 10
9003.879226
 20
5072.332749
 30
0.0
 40
45.0
  1
100
 50
90.0
  7
K
 72
     1
 11
9003.879226
 21
5139.832749
 31
0.0
  0
LINE
  8
SUNPOU
 10
7914.392713
 20
4865.582749
 30
0.0
 11
7664.392713
 21
4865.582749
 31
0.0
  0
LINE
  8
SUNPOU
 10
7914.392713
 20
5165.582749
 30
0.0
 11
7664.392713
 21
5165.582749
 31
0.0
  0
LINE
  8
SUNPOU
 10
7694.392713
 20
4865.582749
 30
0.0
 11
7694.392713
 21
5165.582749
 31
0.0
  0
INSERT
  8
SUNPOU
  2
ARROWANG
 10
7694.392713
 20
4865.582749
 30
0.0
 41
30.0
 42
30.0
 50
270.0
 43
30.0
  0
INSERT
  8
SUNPOU
  2
ARROWANG
 10
7694.392713
 20
5165.582749
 30
0.0
 41
30.0
 42
30.0
 50
90.0
 43
30.0
  0
TEXT
  8
SUNPOU
 10
7649.392713
 20
4951.297034
 30
0.0
 40
45.0
  1
300
 50
90.0
  7
K
 72
     1
 11
7649.392713
 21
5015.582749
 31
0.0
  0
LINE
  8
SUNPOU
 10
7724.392713
 20
4730.582749
 30
0.0
 11
7724.392713
 21
4730.582749
 31
0.0
  0
LINE
  8
SUNPOU
 10
7664.392713
 20
4865.582749
 30
0.0
 11
7664.392713
 21
4865.582749
 31
0.0
  0
LINE
  8
SUNPOU
 10
7886.392713
 20
4715.582749
 30
0.0
 11
7664.392713
 21
4715.582749
 31
0.0
  0
LINE
  8
SUNPOU
 10
7664.392713
 20
4865.582749
 30
0.0
 11
7664.392713
 21
4865.582749
 31
0.0
  0
LINE
  8
SUNPOU
 10
7694.392713
 20
4715.582749
 30
0.0
 11
7694.392713
 21
4865.582749
 31
0.0
  0
INSERT
  8
SUNPOU
  2
ARROWANG
 10
7694.392713
 20
4715.582749
 30
0.0
 41
30.0
 42
30.0
 50
270.0
 43
30.0
  0
INSERT
  8
SUNPOU
  2
ARROWANG
 10
7694.392713
 20
4865.582749
 30
0.0
 41
30.0
 42
30.0
 50
90.0
 43
30.0
  0
TEXT
  8
SUNPOU
 10
7649.392713
 20
4723.082749
 30
0.0
 40
45.0
  1
150
 50
90.0
  7
K
 72
     1
 11
7649.392713
 21
4790.582749
 31
0.0
  0
LINE
  8
SUNPOU
 10
8516.380682
 20
3850.101468
 30
0.0
 11
8294.392713
 21
3648.306171
 31
0.0
  0
INSERT
  8
SUNPOU
  2
ARROWANG
 10
8516.380682
 20
3850.101468
 30
0.0
 41
30.0
 42
30.0
 50
42.272001
 43
30.0
  0
TEXT
  8
SUNPOU
 10
8310.106641
 20
3723.404821
 30
0.0
 40
45.0
  1
R300
 50
42.272001
  7
K
 72
     1
 11
8375.117403
 21
3782.502015
 31
0.0
  0
LINE
  8
SUNPOU
 10
9318.773554
 20
4063.816178
 30
0.0
 11
8070.011873
 21
3232.796164
 31
0.0
  0
INSERT
  8
SUNPOU
  2
ARROWANG
 10
9318.773554
 20
4063.816178
 30
0.0
 41
30.0
 42
30.0
 50
33.642783
 43
30.0
  0
INSERT
  8
SUNPOU
  2
ARROWANG
 10
8070.011873
 20
3232.796164
 30
0.0
 41
30.0
 42
30.0
 50
213.642783
 43
30.0
  0
TEXT
  8
SUNPOU
 10
8807.14694
 20
3764.665231
 30
0.0
 40
45.0
  1
%%C1500
 50
33.642783
  7
K
 72
     1
 11
8892.776313
 21
3821.64946
 31
0.0
  0
LINE
  8
SUNPOU
 10
8694.392713
 20
3648.306171
 30
0.0
 11
8694.392713
 21
3648.306171
 31
0.0
  0
LINE
  8
SUNPOU
 10
9444.392713
 20
3678.306171
 30
0.0
 11
9444.392713
 21
3678.306171
 31
0.0
  0
LINE
  8
SUNPOU
 10
9594.392713
 20
3678.306171
 30
0.0
 11
9594.392713
 21
3678.306171
 31
0.0
  0
INSERT
  8
SUNPOU
  2
ARROWANG
 10
9443.673941
 20
4146.881784
 30
0.0
 41
30.0
 42
30.0
 50
213.64
 43
30.0
  0
LINE
  8
SUNPOU
 10
9443.673941
 20
4146.881784
 30
0.0
 11
9567.305344
 21
4229.14676
 31
0.0
  0
TEXT
  8
SUNPOU
 10
9424.36477
 20
4188.085162
 30
0.0
 40
45.0
  1
150
 50
33.64
  7
K
 72
     1
 11
9480.560862
 21
4225.478333
 31
0.0
  0
LINE
  8
SUNPOU
 10
4717.995161
 20
5600.582749
 30
0.0
 11
4717.995161
 21
5600.582749
 31
0.0
  0
LINE
  8
SUNPOU
 10
4842.995161
 20
5600.582749
 30
0.0
 11
4842.995161
 21
5600.582749
 31
0.0
  0
LINE
  8
SUNPOU
 10
4717.995161
 20
5630.582749
 30
0.0
 11
4842.995161
 21
5630.582749
 31
0.0
  0
INSERT
  8
SUNPOU
  2
ARROWANG
 10
4717.995161
 20
5630.582749
 30
0.0
 41
30.0
 42
30.0
 50
180.0
 43
30.0
  0
INSERT
  8
SUNPOU
  2
ARROWANG
 10
4842.995161
 20
5630.582749
 30
0.0
 41
30.0
 42
30.0
 43
30.0
  0
TEXT
  8
SUNPOU
 10
4712.995176
 20
5675.582749
 30
0.0
 40
45.0
  1
125
  7
K
 72
     1
 11
4780.495176
 21
5675.582749
 31
0.0
  0
LINE
  8
SUNPOU
 10
4842.995161
 20
5600.582749
 30
0.0
 11
4842.995161
 21
5600.582749
 31
0.0
  0
LINE
  8
SUNPOU
 10
6342.995161
 20
5600.582749
 30
0.0
 11
6342.995161
 21
5600.582749
 31
0.0
  0
LINE
  8
SUNPOU
 10
4842.995161
 20
5630.582749
 30
0.0
 11
6342.995161
 21
5630.582749
 31
0.0
  0
INSERT
  8
SUNPOU
  2
ARROWANG
 10
4842.995161
 20
5630.582749
 30
0.0
 41
30.0
 42
30.0
 50
180.0
 43
30.0
  0
INSERT
  8
SUNPOU
  2
ARROWANG
 10
6342.995161
 20
5630.582749
 30
0.0
 41
30.0
 42
30.0
 43
30.0
  0
TEXT
  8
SUNPOU
 10
5504.066604
 20
5675.582749
 30
0.0
 40
45.0
  1
1500
  7
K
 72
     1
 11
5592.995176
 21
5675.582749
 31
0.0
  0
LINE
  8
SUNPOU
 10
6342.995161
 20
5600.582749
 30
0.0
 11
6342.995161
 21
5600.582749
 31
0.0
  0
LINE
  8
SUNPOU
 10
6467.995161
 20
5600.582749
 30
0.0
 11
6467.995161
 21
5600.582749
 31
0.0
  0
LINE
  8
SUNPOU
 10
6342.995161
 20
5630.582749
 30
0.0
 11
6467.995161
 21
5630.582749
 31
0.0
  0
INSERT
  8
SUNPOU
  2
ARROWANG
 10
6342.995161
 20
5630.582749
 30
0.0
 41
30.0
 42
30.0
 50
180.0
 43
30.0
  0
INSERT
  8
SUNPOU
  2
ARROWANG
 10
6467.995161
 20
5630.582749
 30
0.0
 41
30.0
 42
30.0
 43
30.0
  0
TEXT
  8
SUNPOU
 10
6337.995176
 20
5675.582749
 30
0.0
 40
45.0
  1
125
  7
K
 72
     1
 11
6405.495176
 21
5675.582749
 31
0.0
  0
LINE
  8
SUNPOU
 10
4387.995161
 20
4730.582749
 30
0.0
 11
4387.995161
 21
4730.582749
 31
0.0
  0
LINE
  8
SUNPOU
 10
4387.995161
 20
5330.582749
 30
0.0
 11
4387.995161
 21
5330.582749
 31
0.0
  0
LINE
  8
SUNPOU
 10
4417.995161
 20
4730.582749
 30
0.0
 11
4417.995161
 21
5330.582749
 31
0.0
  0
INSERT
  8
SUNPOU
  2
ARROWANG
 10
4417.995161
 20
4730.582749
 30
0.0
 41
30.0
 42
30.0
 50
270.0
 43
30.0
  0
INSERT
  8
SUNPOU
  2
ARROWANG
 10
4417.995161
 20
5330.582749
 30
0.0
 41
30.0
 42
30.0
 50
90.0
 43
30.0
  0
TEXT
  8
SUNPOU
 10
4372.995161
 20
4965.225606
 30
0.0
 40
45.0
  1
600
 50
90.0
  7
K
 72
     1
 11
4372.995161
 21
5030.582749
 31
0.0
  0
LINE
  8
SUNPOU
 10
4842.995161
 20
5228.757416
 30
0.0
 11
4842.995161
 21
5228.757416
 31
0.0
  0
LINE
  8
SUNPOU
 10
5492.995161
 20
5228.757416
 30
0.0
 11
5492.995161
 21
5228.757416
 31
0.0
  0
LINE
  8
SUNPOU
 10
4842.995161
 20
5198.757416
 30
0.0
 11
5492.995161
 21
5198.757416
 31
0.0
  0
INSERT
  8
SUNPOU
  2
ARROWANG
 10
5492.995161
 20
5198.757416
 30
0.0
 41
30.0
 42
30.0
 43
30.0
  0
INSERT
  8
SUNPOU
  2
ARROWANG
 10
4842.995161
 20
5198.757416
 30
0.0
 41
30.0
 42
30.0
 50
180.0
 43
30.0
  0
TEXT
  8
SUNPOU
 10
5102.638018
 20
5243.757416
 30
0.0
 40
45.0
  1
650
  7
K
 72
     1
 11
5167.995161
 21
5243.757416
 31
0.0
  0
LINE
  8
SUNPOU
 10
5939.719619
 20
4965.582749
 30
0.0
 11
5939.719619
 21
4965.582749
 31
0.0
  0
LINE
  8
SUNPOU
 10
5939.719619
 20
5065.582749
 30
0.0
 11
5939.719619
 21
5065.582749
 31
0.0
  0
LINE
  8
SUNPOU
 10
5909.719619
 20
4965.582749
 30
0.0
 11
5909.719619
 21
5065.582749
 31
0.0
  0
INSERT
  8
SUNPOU
  2
ARROWANG
 10
5909.719619
 20
4965.582749
 30
0.0
 41
30.0
 42
30.0
 50
90.0
 43
30.0
  0
INSERT
  8
SUNPOU
  2
ARROWANG
 10
5909.719619
 20
5065.582749
 30
0.0
 41
30.0
 42
30.0
 50
270.0
 43
30.0
  0
LINE
  8
SUNPOU
 10
5909.719619
 20
5065.582749
 30
0.0
 11
5909.719619
 21
5214.082749
 31
0.0
  0
LINE
  8
SUNPOU
 10
5909.719619
 20
4965.582749
 30
0.0
 11
5909.71962
 21
4905.582749
 31
0.0
  0
TEXT
  8
SUNPOU
 10
5864.719619
 20
5072.332749
 30
0.0
 40
45.0
  1
100
 50
90.0
  7
K
 72
     1
 11
5864.719619
 21
5139.832749
 31
0.0
  0
LINE
  8
SUNPOU
 10
4812.995161
 20
4865.582749
 30
0.0
 11
4587.995161
 21
4865.582749
 31
0.0
  0
LINE
  8
SUNPOU
 10
4812.995161
 20
5165.582749
 30
0.0
 11
4587.995161
 21
5165.582749
 31
0.0
  0
LINE
  8
SUNPOU
 10
4617.995161
 20
4865.582749
 30
0.0
 11
4617.995161
 21
5165.582749
 31
0.0
  0
INSERT
  8
SUNPOU
  2
ARROWANG
 10
4617.995161
 20
4865.582749
 30
0.0
 41
30.0
 42
30.0
 50
270.0
 43
30.0
  0
INSERT
  8
SUNPOU
  2
ARROWANG
 10
4617.995161
 20
5165.582749
 30
0.0
 41
30.0
 42
30.0
 50
90.0
 43
30.0
  0
TEXT
  8
SUNPOU
 10
4572.995161
 20
4951.297034
 30
0.0
 40
45.0
  1
300
 50
90.0
  7
K
 72
     1
 11
4572.995161
 21
5015.582749
 31
0.0
  0
LINE
  8
SUNPOU
 10
4784.995161
 20
4715.582749
 30
0.0
 11
4587.995161
 21
4715.582749
 31
0.0
  0
LINE
  8
SUNPOU
 10
4587.995161
 20
4865.582749
 30
0.0
 11
4587.995161
 21
4865.582749
 31
0.0
  0
LINE
  8
SUNPOU
 10
4617.995161
 20
4715.582749
 30
0.0
 11
4617.995161
 21
4865.582749
 31
0.0
  0
INSERT
  8
SUNPOU
  2
ARROWANG
 10
4617.995161
 20
4715.582749
 30
0.0
 41
30.0
 42
30.0
 50
270.0
 43
30.0
  0
INSERT
  8
SUNPOU
  2
ARROWANG
 10
4617.995161
 20
4865.582749
 30
0.0
 41
30.0
 42
30.0
 50
90.0
 43
30.0
  0
TEXT
  8
SUNPOU
 10
4572.995161
 20
4723.082749
 30
0.0
 40
45.0
  1
150
 50
90.0
  7
K
 72
     1
 11
4572.995161
 21
4790.582749
 31
0.0
  0
LINE
  8
SUNPOU
 10
5414.638842
 20
3850.479558
 30
0.0
 11
5192.995161
 21
3648.306171
 31
0.0
  0
INSERT
  8
SUNPOU
  2
ARROWANG
 10
5414.638842
 20
3850.479558
 30
0.0
 41
30.0
 42
30.0
 50
42.369663
 43
30.0
  0
TEXT
  8
SUNPOU
 10
5208.581058
 20
3723.431496
 30
0.0
 40
45.0
  1
R300
 50
42.369663
  7
K
 72
     1
 11
5273.490994
 21
3782.639417
 31
0.0
  0
LINE
  8
SUNPOU
 10
6342.995161
 20
3678.306171
 30
0.0
 11
6342.995161
 21
3678.306171
 31
0.0
  0
LINE
  8
SUNPOU
 10
6467.995161
 20
3678.306171
 30
0.0
 11
6467.995161
 21
3678.306171
 31
0.0
  0
INSERT
  8
SUNPOU
  2
ARROWANG
 10
6362.105828
 20
4065.551641
 30
0.0
 41
30.0
 42
30.0
 50
208.48
 43
30.0
  0
LINE
  8
SUNPOU
 10
6362.105828
 20
4065.551641
 30
0.0
 11
6492.634895
 21
4136.364158
 31
0.0
  0
TEXT
  8
SUNPOU
 10
6346.580628
 20
4108.324655
 30
0.0
 40
45.0
  1
125
 50
28.48
  7
K
 72
     1
 11
6405.912023
 21
4140.512163
 31
0.0
  0
LINE
  8
SUNPOU
 10
6252.203901
 20
4005.998549
 30
0.0
 11
4933.786421
 21
3290.613793
 31
0.0
  0
INSERT
  8
SUNPOU
  2
ARROWANG
 10
6252.203901
 20
4005.998549
 30
0.0
 41
30.0
 42
30.0
 50
28.484641
 43
30.0
  0
INSERT
  8
SUNPOU
  2
ARROWANG
 10
4933.786421
 20
3290.613793
 30
0.0
 41
30.0
 42
30.0
 50
208.484641
 43
30.0
  0
TEXT
  8
SUNPOU
 10
5804.698383
 20
3804.636346
 30
0.0
 40
45.0
  1
%%C1500
 50
28.484641
  7
K
 72
     1
 11
5895.104153
 21
3853.6913
 31
0.0
  0
LINE
  8
ITTEN
 10
6234.769157
 20
4290.080167
 30
0.0
 11
6160.421713
 21
4215.732723
 31
0.0
  0
LINE
  8
TENSEN
 10
6169.287188
 20
4238.740333
 30
0.0
 11
6204.602119
 21
4274.055265
 31
0.0
  0
LINE
  8
TENSEN
 10
6183.429323
 20
4224.598198
 30
0.0
 11
6169.287188
 21
4238.740333
 31
0.0
  0
LINE
  8
TENSEN
 10
6218.744255
 20
4259.913129
 30
0.0
 11
6183.429323
 21
4224.598198
 31
0.0
  0
LINE
  8
JISSEN
 10
1741.597608
 20
5310.306171
 30
0.0
 11
1708.597608
 21
5310.306171
 31
0.0
  0
LINE
  8
JISSEN
 10
1708.597608
 20
5310.306171
 30
0.0
 11
1701.597608
 21
5333.306171
 31
0.0
  0
LINE
  8
JISSEN
 10
1701.597608
 20
5333.306171
 30
0.0
 11
1521.597608
 21
5333.306171
 31
0.0
  0
LINE
  8
JISSEN
 10
1521.597608
 20
5333.306171
 30
0.0
 11
1521.597608
 21
5018.306171
 31
0.0
  0
LINE
  8
JISSEN
 10
1521.597608
 20
5018.306171
 30
0.0
 11
1701.597608
 21
5018.306171
 31
0.0
  0
LINE
  8
JISSEN
 10
1701.597608
 20
5018.306171
 30
0.0
 11
1708.597608
 21
5041.306171
 31
0.0
  0
LINE
  8
JISSEN
 10
1708.597608
 20
5041.306171
 30
0.0
 11
1741.597608
 21
5041.306171
 31
0.0
  0
LINE
  8
JISSEN
 10
1741.597608
 20
5041.306171
 30
0.0
 11
1741.597608
 21
5310.306171
 31
0.0
  0
LINE
  8
JISSEN
 10
1741.597608
 20
5310.306171
 30
0.0
 11
2491.597608
 21
5310.306171
 31
0.0
  0
LINE
  8
JISSEN
 10
2491.597608
 20
5333.306171
 30
0.0
 11
1701.597608
 21
5333.306171
 31
0.0
  0
LINE
  8
JISSEN
 10
1741.597608
 20
5041.306171
 30
0.0
 11
2491.597608
 21
5041.306171
 31
0.0
  0
LINE
  8
JISSEN
 10
2491.597608
 20
5018.306171
 30
0.0
 11
1701.597608
 21
5018.306171
 31
0.0
  0
LINE
  8
JISSEN
 10
2491.597608
 20
5018.306171
 30
0.0
 11
3281.597608
 21
5018.306171
 31
0.0
  0
LINE
  8
TENSEN
 10
3241.597608
 20
5041.306171
 30
0.0
 11
2491.597608
 21
5041.306171
 31
0.0
  0
LINE
  8
JISSEN
 10
2491.597608
 20
5333.306171
 30
0.0
 11
3281.597608
 21
5333.306171
 31
0.0
  0
LINE
  8
TENSEN
 10
3241.597608
 20
5310.306171
 30
0.0
 11
2491.597608
 21
5310.306171
 31
0.0
  0
LINE
  8
TENSEN
 10
3241.597608
 20
5041.306171
 30
0.0
 11
3241.597608
 21
5310.306171
 31
0.0
  0
LINE
  8
TENSEN
 10
3274.597608
 20
5041.306171
 30
0.0
 11
3241.597608
 21
5041.306171
 31
0.0
  0
LINE
  8
TENSEN
 10
3281.597608
 20
5018.306171
 30
0.0
 11
3274.597608
 21
5041.306171
 31
0.0
  0
LINE
  8
JISSEN
 10
3461.597608
 20
5018.306171
 30
0.0
 11
3281.597608
 21
5018.306171
 31
0.0
  0
LINE
  8
JISSEN
 10
3461.597608
 20
5333.306171
 30
0.0
 11
3461.597608
 21
5018.306171
 31
0.0
  0
LINE
  8
JISSEN
 10
3281.597608
 20
5333.306171
 30
0.0
 11
3461.597608
 21
5333.306171
 31
0.0
  0
LINE
  8
TENSEN
 10
3274.597608
 20
5310.306171
 30
0.0
 11
3281.597608
 21
5333.306171
 31
0.0
  0
LINE
  8
TENSEN
 10
3241.597608
 20
5310.306171
 30
0.0
 11
3274.597608
 21
5310.306171
 31
0.0
  0
LINE
  8
ITTEN
 10
2491.597608
 20
5428.541111
 30
0.0
 11
2491.597608
 21
4892.047654
 31
0.0
  0
LINE
  8
JISSEN
 10
2291.597608
 20
5168.306171
 30
0.0
 11
2291.597608
 21
5167.806171
 31
0.0
  0
LINE
  8
JISSEN
 10
2301.097608
 20
5158.306171
 30
0.0
 11
2491.597608
 21
5158.306171
 31
0.0
  0
LINE
  8
TENSEN
 10
2491.597608
 20
5158.306171
 30
0.0
 11
2682.097608
 21
5158.306171
 31
0.0
  0
LINE
  8
TENSEN
 10
2682.097608
 20
5178.306171
 30
0.0
 11
2491.597608
 21
5178.306171
 31
0.0
  0
LINE
  8
TENSEN
 10
2691.597608
 20
5168.806171
 30
0.0
 11
2691.597608
 21
5167.806171
 31
0.0
  0
ARC
  8
JISSEN
 10
2301.097608
 20
5167.806171
 30
0.0
 40
9.5
 50
180.0
 51
270.0
  0
ARC
  8
TENSEN
 10
2682.097608
 20
5168.806171
 30
0.0
 40
9.5
 50
0.0
 51
90.0
  0
ARC
  8
TENSEN
 10
2682.097608
 20
5167.806171
 30
0.0
 40
9.5
 50
270.0
 51
0.0
  0
LINE
  8
JISSEN
 10
2491.597608
 20
5178.306171
 30
0.0
 11
2301.097608
 21
5178.306171
 31
0.0
  0
LINE
  8
JISSEN
 10
2291.597608
 20
5168.806171
 30
0.0
 11
2291.597608
 21
5167.806171
 31
0.0
  0
ARC
  8
JISSEN
 10
2301.097608
 20
5168.806171
 30
0.0
 40
9.5
 50
90.0
 51
180.0
  0
CIRCLE
  8
JISSEN
 10
2491.597608
 20
3648.306171
 30
0.0
 40
970.0
  0
CIRCLE
  8
JISSEN
 10
2491.597608
 20
3648.306171
 30
0.0
 40
750.0
  0
CIRCLE
  8
JISSEN
 10
2492.483239
 20
3648.306171
 30
0.0
 40
782.114369
  0
CIRCLE
  8
JISSEN
 10
2491.597608
 20
3648.306171
 30
0.0
 40
790.0
  0
LINE
  8
JISSEN
 10
2701.597608
 20
4368.844842
 30
0.0
 11
2701.597608
 21
4298.84485
 31
0.0
  0
LINE
  8
JISSEN
 10
2671.597608
 20
4268.84485
 30
0.0
 11
2311.597608
 21
4268.84485
 31
0.0
  0
LINE
  8
JISSEN
 10
2281.597608
 20
4298.84485
 30
0.0
 11
2281.597608
 21
4368.844842
 31
0.0
  0
LINE
  8
JISSEN
 10
2301.597608
 20
4374.379128
 30
0.0
 11
2301.597608
 21
4308.84485
 31
0.0
  0
LINE
  8
JISSEN
 10
2321.597608
 20
4288.84485
 30
0.0
 11
2661.597608
 21
4288.84485
 31
0.0
  0
LINE
  8
JISSEN
 10
2681.597608
 20
4308.84485
 30
0.0
 11
2681.597608
 21
4374.379128
 31
0.0
  0
ARC
  8
JISSEN
 10
2661.597608
 20
4308.84485
 30
0.0
 40
20.0
 50
270.0
 51
0.0
  0
ARC
  8
JISSEN
 10
2321.597608
 20
4308.84485
 30
0.0
 40
20.0
 50
180.0
 51
270.0
  0
ARC
  8
JISSEN
 10
2311.597608
 20
4298.84485
 30
0.0
 40
30.0
 50
180.0
 51
270.0
  0
ARC
  8
JISSEN
 10
2671.597608
 20
4298.84485
 30
0.0
 40
30.0
 50
270.0
 51
0.0
  0
LINE
  8
TENSEN
 10
3170.383669
 20
4341.234367
 30
0.0
 11
3120.922644
 21
4291.773342
 31
0.0
  0
LINE
  8
TENSEN
 10
3120.922644
 20
4291.773342
 30
0.0
 11
3135.064779
 21
4277.631206
 31
0.0
  0
LINE
  8
TENSEN
 10
3135.064779
 20
4277.631206
 30
0.0
 11
3184.525804
 21
4327.092231
 31
0.0
  0
LINE
  8
ITTEN
 10
3210.713598
 20
4367.306954
 30
0.0
 11
3210.655995
 21
4367.364558
 31
0.0
  0
LINE
  8
ITTEN
 10
3210.655995
 20
4367.364558
 30
0.0
 11
3091.173206
 21
4247.881769
 31
0.0
  0
LINE
  8
ITTEN
 10
1772.539222
 20
4367.364558
 30
0.0
 11
1892.022011
 21
4247.881769
 31
0.0
  0
LINE
  8
ITTEN
 10
1772.596825
 20
4367.422161
 30
0.0
 11
1772.539222
 21
4367.364558
 31
0.0
  0
LINE
  8
TENSEN
 10
1862.272573
 20
4291.773342
 30
0.0
 11
1812.811548
 21
4341.234367
 31
0.0
  0
LINE
  8
TENSEN
 10
1848.130438
 20
4277.631206
 30
0.0
 11
1862.272573
 21
4291.773342
 31
0.0
  0
LINE
  8
TENSEN
 10
1798.669413
 20
4327.092231
 30
0.0
 11
1848.130438
 21
4277.631206
 31
0.0
  0
LINE
  8
ITTEN
 10
1772.539222
 20
2929.247784
 30
0.0
 11
1892.022011
 21
3048.730573
 31
0.0
  0
LINE
  8
ITTEN
 10
1772.481618
 20
2929.305388
 30
0.0
 11
1772.539222
 21
2929.247784
 31
0.0
  0
LINE
  8
TENSEN
 10
1848.130438
 20
3018.981136
 30
0.0
 11
1798.669413
 21
2969.520111
 31
0.0
  0
LINE
  8
TENSEN
 10
1862.272573
 20
3004.839
 30
0.0
 11
1848.130438
 21
3018.981136
 31
0.0
  0
LINE
  8
TENSEN
 10
1812.811548
 20
2955.377975
 30
0.0
 11
1862.272573
 21
3004.839
 31
0.0
  0
LINE
  8
ITTEN
 10
3210.655995
 20
2929.247784
 30
0.0
 11
3091.173206
 21
3048.730573
 31
0.0
  0
LINE
  8
ITTEN
 10
3210.598392
 20
2929.190181
 30
0.0
 11
3210.655995
 21
2929.247784
 31
0.0
  0
LINE
  8
TENSEN
 10
3120.922644
 20
3004.839
 30
0.0
 11
3170.383669
 21
2955.377975
 31
0.0
  0
LINE
  8
TENSEN
 10
3135.064779
 20
3018.981136
 30
0.0
 11
3120.922644
 21
3004.839
 31
0.0
  0
LINE
  8
TENSEN
 10
3184.525804
 20
2969.520111
 30
0.0
 11
3135.064779
 21
3018.981136
 31
0.0
  0
LINE
  8
ITTEN
 10
2491.597608
 20
4718.306171
 30
0.0
 11
2491.597608
 21
2578.306171
 31
0.0
  0
LINE
  8
ITTEN
 10
3561.597608
 20
3648.306171
 30
0.0
 11
1421.597608
 21
3648.306171
 31
0.0
  0
CIRCLE
  8
TENSEN
 10
1805.704031
 20
5233.306171
 30
0.0
 40
10.0
  0
CIRCLE
  8
TENSEN
 10
1805.704031
 20
5118.306171
 30
0.0
 40
10.0
  0
LINE
  8
ITTEN
 10
1805.704031
 20
5258.306171
 30
0.0
 11
1805.704031
 21
5208.306171
 31
0.0
  0
LINE
  8
ITTEN
 10
1780.704031
 20
5233.306171
 30
0.0
 11
1830.704031
 21
5233.306171
 31
0.0
  0
LINE
  8
ITTEN
 10
1830.704031
 20
5118.306171
 30
0.0
 11
1780.704031
 21
5118.306171
 31
0.0
  0
LINE
  8
ITTEN
 10
1805.704031
 20
5143.306171
 30
0.0
 11
1805.704031
 21
5093.306171
 31
0.0
  0
LINE
  8
ITTEN
 10
3177.491186
 20
5143.306171
 30
0.0
 11
3177.491186
 21
5093.306171
 31
0.0
  0
LINE
  8
ITTEN
 10
3152.491186
 20
5118.306171
 30
0.0
 11
3202.491186
 21
5118.306171
 31
0.0
  0
LINE
  8
ITTEN
 10
3202.491186
 20
5233.306171
 30
0.0
 11
3152.491186
 21
5233.306171
 31
0.0
  0
LINE
  8
ITTEN
 10
3177.491186
 20
5258.306171
 30
0.0
 11
3177.491186
 21
5208.306171
 31
0.0
  0
CIRCLE
  8
JISSEN
 10
3177.491186
 20
5118.306171
 30
0.0
 40
10.0
  0
CIRCLE
  8
JISSEN
 10
3177.491186
 20
5233.306171
 30
0.0
 40
10.0
  0
LINE
  8
ITTEN
 10
2191.597608
 20
5168.306171
 30
0.0
 11
2791.597608
 21
5168.306171
 31
0.0
  0
LINE
  8
SUNPOU
 10
1521.597608
 20
5363.306171
 30
0.0
 11
1521.597608
 21
5663.306171
 31
0.0
  0
LINE
  8
SUNPOU
 10
1741.597608
 20
5340.306171
 30
0.0
 11
1741.597608
 21
5663.306171
 31
0.0
  0
LINE
  8
SUNPOU
 10
1521.597608
 20
5633.306171
 30
0.0
 11
1741.597608
 21
5633.306171
 31
0.0
  0
INSERT
  8
SUNPOU
  2
ARROWANG
 10
1521.597608
 20
5633.306171
 30
0.0
 41
30.0
 42
30.0
 50
180.0
 43
30.0
  0
INSERT
  8
SUNPOU
  2
ARROWANG
 10
1741.597608
 20
5633.306171
 30
0.0
 41
30.0
 42
30.0
 43
30.0
  0
TEXT
  8
SUNPOU
 10
1567.311909
 20
5678.306171
 30
0.0
 40
45.0
  1
220
  7
K
 72
     1
 11
1631.597623
 21
5678.306171
 31
0.0
  0
LINE
  8
SUNPOU
 10
1701.597608
 20
5363.306171
 30
0.0
 11
1701.597608
 21
5563.306171
 31
0.0
  0
LINE
  8
SUNPOU
 10
3281.597608
 20
5363.306171
 30
0.0
 11
3281.597608
 21
5563.306171
 31
0.0
  0
LINE
  8
SUNPOU
 10
1701.597608
 20
5533.306171
 30
0.0
 11
3281.597608
 21
5533.306171
 31
0.0
  0
INSERT
  8
SUNPOU
  2
ARROWANG
 10
1701.597608
 20
5533.306171
 30
0.0
 41
30.0
 42
30.0
 50
180.0
 43
30.0
  0
INSERT
  8
SUNPOU
  2
ARROWANG
 10
3281.597608
 20
5533.306171
 30
0.0
 41
30.0
 42
30.0
 43
30.0
  0
TEXT
  8
SUNPOU
 10
2402.669052
 20
5578.306171
 30
0.0
 40
45.0
  1
1580
  7
K
 72
     1
 11
2491.597623
 21
5578.306171
 31
0.0
  0
LINE
  8
SUNPOU
 10
1741.597608
 20
5603.306171
 30
0.0
 11
1741.597608
 21
5603.306171
 31
0.0
  0
LINE
  8
SUNPOU
 10
3241.597608
 20
5340.306171
 30
0.0
 11
3241.597608
 21
5663.306171
 31
0.0
  0
LINE
  8
SUNPOU
 10
1741.597608
 20
5633.306171
 30
0.0
 11
3241.597608
 21
5633.306171
 31
0.0
  0
INSERT
  8
SUNPOU
  2
ARROWANG
 10
1741.597608
 20
5633.306171
 30
0.0
 41
30.0
 42
30.0
 50
180.0
 43
30.0
  0
INSERT
  8
SUNPOU
  2
ARROWANG
 10
3241.597608
 20
5633.306171
 30
0.0
 41
30.0
 42
30.0
 43
30.0
  0
TEXT
  8
SUNPOU
 10
2402.669052
 20
5678.306171
 30
0.0
 40
45.0
  1
1500
  7
K
 72
     1
 11
2491.597623
 21
5678.306171
 31
0.0
  0
LINE
  8
SUNPOU
 10
3241.597608
 20
5603.306171
 30
0.0
 11
3241.597608
 21
5603.306171
 31
0.0
  0
LINE
  8
SUNPOU
 10
3461.597608
 20
5363.306171
 30
0.0
 11
3461.597608
 21
5663.306171
 31
0.0
  0
LINE
  8
SUNPOU
 10
3241.597608
 20
5633.306171
 30
0.0
 11
3461.597608
 21
5633.306171
 31
0.0
  0
INSERT
  8
SUNPOU
  2
ARROWANG
 10
3241.597608
 20
5633.306171
 30
0.0
 41
30.0
 42
30.0
 50
180.0
 43
30.0
  0
INSERT
  8
SUNPOU
  2
ARROWANG
 10
3461.597608
 20
5633.306171
 30
0.0
 41
30.0
 42
30.0
 43
30.0
  0
TEXT
  8
SUNPOU
 10
3287.311909
 20
5678.306171
 30
0.0
 40
45.0
  1
220
  7
K
 72
     1
 11
3351.597623
 21
5678.306171
 31
0.0
  0
LINE
  8
SUNPOU
 10
1708.597608
 20
5340.306171
 30
0.0
 11
1708.597608
 21
5463.306171
 31
0.0
  0
LINE
  8
SUNPOU
 10
3274.597608
 20
5340.306171
 30
0.0
 11
3274.597608
 21
5463.306171
 31
0.0
  0
LINE
  8
SUNPOU
 10
1708.597608
 20
5433.306171
 30
0.0
 11
3274.597608
 21
5433.306171
 31
0.0
  0
INSERT
  8
SUNPOU
  2
ARROWANG
 10
1708.597608
 20
5433.306171
 30
0.0
 41
30.0
 42
30.0
 50
180.0
 43
30.0
  0
INSERT
  8
SUNPOU
  2
ARROWANG
 10
3274.597608
 20
5433.306171
 30
0.0
 41
30.0
 42
30.0
 43
30.0
  0
TEXT
  8
SUNPOU
 10
2402.669052
 20
5478.306171
 30
0.0
 40
45.0
  1
1566
  7
K
 72
     1
 11
2491.597623
 21
5478.306171
 31
0.0
  0
LINE
  8
SUNPOU
 10
3232.491186
 20
5233.306171
 30
0.0
 11
3591.597608
 21
5233.306171
 31
0.0
  0
LINE
  8
SUNPOU
 10
3491.597608
 20
5333.306171
 30
0.0
 11
3591.597608
 21
5333.306171
 31
0.0
  0
LINE
  8
SUNPOU
 10
3561.597608
 20
5233.306171
 30
0.0
 11
3561.597608
 21
5333.306171
 31
0.0
  0
INSERT
  8
SUNPOU
  2
ARROWANG
 10
3561.597608
 20
5233.306171
 30
0.0
 41
30.0
 42
30.0
 50
90.0
 43
30.0
  0
INSERT
  8
SUNPOU
  2
ARROWANG
 10
3561.597608
 20
5333.306171
 30
0.0
 41
30.0
 42
30.0
 50
270.0
 43
30.0
  0
LINE
  8
SUNPOU
 10
3561.597608
 20
5333.306171
 30
0.0
 11
3561.597608
 21
5481.806171
 31
0.0
  0
LINE
  8
SUNPOU
 10
3561.597608
 20
5233.306171
 30
0.0
 11
3561.59761
 21
5173.306171
 31
0.0
  0
TEXT
  8
SUNPOU
 10
3516.597608
 20
5340.056171
 30
0.0
 40
45.0
  1
100
 50
90.0
  7
K
 72
     1
 11
3516.597608
 21
5407.556171
 31
0.0
  0
LINE
  8
SUNPOU
 10
3491.597608
 20
5018.306171
 30
0.0
 11
3591.597608
 21
5018.306171
 31
0.0
  0
LINE
  8
SUNPOU
 10
3232.491186
 20
5118.306171
 30
0.0
 11
3591.597608
 21
5118.306171
 31
0.0
  0
LINE
  8
SUNPOU
 10
3561.597608
 20
5018.306171
 30
0.0
 11
3561.597608
 21
5118.306171
 31
0.0
  0
INSERT
  8
SUNPOU
  2
ARROWANG
 10
3561.597608
 20
5018.306171
 30
0.0
 41
30.0
 42
30.0
 50
90.0
 43
30.0
  0
INSERT
  8
SUNPOU
  2
ARROWANG
 10
3561.597608
 20
5118.306171
 30
0.0
 41
30.0
 42
30.0
 50
270.0
 43
30.0
  0
LINE
  8
SUNPOU
 10
3561.597608
 20
5018.306171
 30
0.0
 11
3561.597608
 21
4869.806171
 31
0.0
  0
LINE
  8
SUNPOU
 10
3561.597608
 20
5118.306171
 30
0.0
 11
3561.597608
 21
5178.306171
 31
0.0
  0
TEXT
  8
SUNPOU
 10
3516.597608
 20
4876.556171
 30
0.0
 40
45.0
  1
100
 50
90.0
  7
K
 72
     1
 11
3516.597608
 21
4944.056171
 31
0.0
  0
LINE
  8
SUNPOU
 10
1708.597608
 20
5011.306171
 30
0.0
 11
1708.597608
 21
4888.306171
 31
0.0
  0
LINE
  8
SUNPOU
 10
3274.597608
 20
5011.306171
 30
0.0
 11
3274.597608
 21
4888.306171
 31
0.0
  0
LINE
  8
SUNPOU
 10
1708.597608
 20
4918.306171
 30
0.0
 11
3274.597608
 21
4918.306171
 31
0.0
  0
INSERT
  8
SUNPOU
  2
ARROWANG
 10
1708.597608
 20
4918.306171
 30
0.0
 41
30.0
 42
30.0
 50
180.0
 43
30.0
  0
INSERT
  8
SUNPOU
  2
ARROWANG
 10
3274.597608
 20
4918.306171
 30
0.0
 41
30.0
 42
30.0
 43
30.0
  0
TEXT
  8
SUNPOU
 10
2402.669052
 20
4963.306171
 30
0.0
 40
45.0
  1
1566
  7
K
 72
     1
 11
2491.597623
 21
4963.306171
 31
0.0
  0
LINE
  8
SUNPOU
 10
1701.597608
 20
4988.306171
 30
0.0
 11
1701.597608
 21
4788.306171
 31
0.0
  0
LINE
  8
SUNPOU
 10
3281.597608
 20
4988.306171
 30
0.0
 11
3281.597608
 21
4788.306171
 31
0.0
  0
LINE
  8
SUNPOU
 10
1701.597608
 20
4818.306171
 30
0.0
 11
3281.597608
 21
4818.306171
 31
0.0
  0
INSERT
  8
SUNPOU
  2
ARROWANG
 10
1701.597608
 20
4818.306171
 30
0.0
 41
30.0
 42
30.0
 50
180.0
 43
30.0
  0
INSERT
  8
SUNPOU
  2
ARROWANG
 10
3281.597608
 20
4818.306171
 30
0.0
 41
30.0
 42
30.0
 43
30.0
  0
TEXT
  8
SUNPOU
 10
2402.669052
 20
4863.306171
 30
0.0
 40
45.0
  1
1580
  7
K
 72
     1
 11
2491.597623
 21
4863.306171
 31
0.0
  0
LINE
  8
SUNPOU
 10
2221.597608
 20
5018.306171
 30
0.0
 11
2221.597608
 21
5018.306171
 31
0.0
  0
LINE
  8
SUNPOU
 10
2221.597608
 20
5168.306171
 30
0.0
 11
2221.597608
 21
5168.306171
 31
0.0
  0
LINE
  8
SUNPOU
 10
2191.597608
 20
5018.306171
 30
0.0
 11
2191.597608
 21
5168.306171
 31
0.0
  0
INSERT
  8
SUNPOU
  2
ARROWANG
 10
2191.597608
 20
5018.306171
 30
0.0
 41
30.0
 42
30.0
 50
270.0
 43
30.0
  0
INSERT
  8
SUNPOU
  2
ARROWANG
 10
2191.597608
 20
5168.306171
 30
0.0
 41
30.0
 42
30.0
 50
90.0
 43
30.0
  0
TEXT
  8
SUNPOU
 10
2146.597608
 20
5025.806171
 30
0.0
 40
45.0
  1
150
 50
90.0
  7
K
 72
     1
 11
2146.597608
 21
5093.306171
 31
0.0
  0
LINE
  8
SUNPOU
 10
1491.597608
 20
5018.306171
 30
0.0
 11
1291.597608
 21
5018.306171
 31
0.0
  0
LINE
  8
SUNPOU
 10
1491.597608
 20
5333.306171
 30
0.0
 11
1291.597608
 21
5333.306171
 31
0.0
  0
LINE
  8
SUNPOU
 10
1321.597608
 20
5018.306171
 30
0.0
 11
1321.597608
 21
5333.306171
 31
0.0
  0
INSERT
  8
SUNPOU
  2
ARROWANG
 10
1321.597608
 20
5018.306171
 30
0.0
 41
30.0
 42
30.0
 50
270.0
 43
30.0
  0
INSERT
  8
SUNPOU
  2
ARROWANG
 10
1321.597608
 20
5333.306171
 30
0.0
 41
30.0
 42
30.0
 50
90.0
 43
30.0
  0
TEXT
  8
SUNPOU
 10
1276.597608
 20
5111.520457
 30
0.0
 40
45.0
  1
315
 50
90.0
  7
K
 72
     1
 11
1276.597608
 21
5175.806171
 31
0.0
  0
LINE
  8
SUNPOU
 10
1491.597608
 20
5310.306171
 30
0.0
 11
1391.597608
 21
5310.306171
 31
0.0
  0
LINE
  8
SUNPOU
 10
1451.597608
 20
5333.306171
 30
0.0
 11
1451.597608
 21
5333.306171
 31
0.0
  0
LINE
  8
SUNPOU
 10
1421.597608
 20
5310.306171
 30
0.0
 11
1421.597608
 21
5333.306171
 31
0.0
  0
INSERT
  8
SUNPOU
  2
ARROWANG
 10
1421.597608
 20
5310.306171
 30
0.0
 41
30.0
 42
30.0
 50
90.0
 43
30.0
  0
INSERT
  8
SUNPOU
  2
ARROWANG
 10
1421.597608
 20
5333.306171
 30
0.0
 41
30.0
 42
30.0
 50
270.0
 43
30.0
  0
LINE
  8
SUNPOU
 10
1421.597608
 20
5333.306171
 30
0.0
 11
1421.597608
 21
5432.306171
 31
0.0
  0
LINE
  8
SUNPOU
 10
1421.597608
 20
5310.306171
 30
0.0
 11
1421.59761
 21
5250.306171
 31
0.0
  0
TEXT
  8
SUNPOU
 10
1376.597608
 20
5339.949028
 30
0.0
 40
45.0
  1
23
 50
90.0
  7
K
 72
     1
 11
1376.597608
 21
5382.806171
 31
0.0
  0
LINE
  8
SUNPOU
 10
1451.597608
 20
5018.306171
 30
0.0
 11
1451.597608
 21
5018.306171
 31
0.0
  0
LINE
  8
SUNPOU
 10
1491.597608
 20
5041.306171
 30
0.0
 11
1391.597608
 21
5041.306171
 31
0.0
  0
LINE
  8
SUNPOU
 10
1421.597608
 20
5018.306171
 30
0.0
 11
1421.597608
 21
5041.306171
 31
0.0
  0
INSERT
  8
SUNPOU
  2
ARROWANG
 10
1421.597608
 20
5018.306171
 30
0.0
 41
30.0
 42
30.0
 50
90.0
 43
30.0
  0
INSERT
  8
SUNPOU
  2
ARROWANG
 10
1421.597608
 20
5041.306171
 30
0.0
 41
30.0
 42
30.0
 50
270.0
 43
30.0
  0
LINE
  8
SUNPOU
 10
1421.597608
 20
5018.306171
 30
0.0
 11
1421.597608
 21
4919.306171
 31
0.0
  0
LINE
  8
SUNPOU
 10
1421.597608
 20
5041.306171
 30
0.0
 11
1421.597608
 21
5101.306171
 31
0.0
  0
TEXT
  8
SUNPOU
 10
1376.597608
 20
4925.949028
 30
0.0
 40
45.0
  1
23
 50
90.0
  7
K
 72
     1
 11
1376.597608
 21
4968.806171
 31
0.0
  0
TEXT
  8
TEXT
 10
2795.433343
 20
7625.333406
 30
0.0
 40
300.0
  1
組立マンホール構造図 (内径1500mm)
  7
K
  0
TEXT
  8
TEXT
 10
2138.936005
 20
6120.337604
 30
0.0
 40
150.0
  1
連結直壁
  7
K
  0
TEXT
  8
TEXT
 10
5093.308051
 20
6035.115084
 30
0.0
 40
150.0
  1
おどりば直壁
  7
K
  0
TEXT
  8
TEXT
 10
7981.82212
 20
6035.115084
 30
0.0
 40
150.0
  1
深形おどりば直壁
  7
K
  0
TEXT
  8
TEXT
 10
2193.436271
 20
5782.21255
 30
0.0
 40
90.0
  1
M3SC30
  7
K
  0
TEXT
  8
TEXT
 10
5307.550474
 20
5752.959617
 30
0.0
 40
90.0
  1
M3SF60
  7
K
  0
TEXT
  8
TEXT
 10
8372.720575
 20
5752.959617
 30
0.0
 40
90.0
  1
M3SSF60
  7
K
  0
LINE
  8
ITTEN
 10
5132.77376
 20
5165.582749
 30
0.0
 11
5142.995161
 21
5165.582749
 31
0.0
  0
LINE
  8
ITTEN
 10
5142.170358
 20
4865.582749
 30
0.0
 11
5142.995161
 21
4865.582749
 31
0.0
  0
LINE
  8
ITTEN
 10
8235.119727
 20
5165.582749
 30
0.0
 11
8244.392713
 21
5165.582749
 31
0.0
  0
LINE
  8
ITTEN
 10
8234.106278
 20
4865.582749
 30
0.0
 11
8244.392713
 21
4865.582749
 31
0.0
  0
POLYLINE
  8
WAKU
 66
     1
 10
0.0
 20
0.0
 30
0.0
 70
     1
  0
VERTEX
  8
WAKU
 10
0.0
 20
0.0
 30
0.0
  0
VERTEX
  8
WAKU
 10
11850.0
 20
0.0
 30
0.0
  0
VERTEX
  8
WAKU
 10
11850.0
 20
8190.0
 30
0.0
  0
VERTEX
  8
WAKU
 10
0.0
 20
8190.0
 30
0.0
  0
SEQEND
  8
WAKU
  0
TEXT
  8
TEXT
 10
11061.83671
 20
692.101017
 30
0.0
 40
150.0
  1
1/30
  7
K
  0
ENDSEC
  0
EOF
