  0
SECTION
  2
HEADER
  9
$ACADVER
  1
AC1009
  9
$INSBASE
 10
0.0
 20
0.0
 30
0.0
  9
$EXTMIN
 10
-10.0
 20
0.0
 30
0.0
  9
$EXTMAX
 10
11850.0
 20
8510.0
 30
0.0
  9
$LIMMIN
 10
0.0
 20
0.0
  9
$LIMMAX
 10
11850.0
 20
8190.0
  9
$ORTHOMODE
 70
     0
  9
$REGENMODE
 70
     1
  9
$FILLMODE
 70
     1
  9
$QTEXTMODE
 70
     0
  9
$MIRRTEXT
 70
     0
  9
$DRAGMODE
 70
     2
  9
$LTSCALE
 40
150.0
  9
$OSMODE
 70
    32
  9
$ATTMODE
 70
     1
  9
$TEXTSIZE
 40
45.0
  9
$TRACEWID
 40
0.05
  9
$TEXTSTYLE
  7
K
  9
$CLAYER
  8
TENSEN
  9
$CELTYPE
  6
BYLAYER
  9
$CECOLOR
 62
   256
  9
$DIMSCALE
 40
30.0
  9
$DIMASZ
 40
1.5
  9
$DIMEXO
 40
1.0
  9
$DIMDLI
 40
6.0
  9
$DIMRND
 40
0.0
  9
$DIMDLE
 40
0.0
  9
$DIMEXE
 40
1.0
  9
$DIMTP
 40
495.0
  9
$DIMTM
 40
0.0
  9
$DIMTXT
 40
3.0
  9
$DIMCEN
 40
0.0
  9
$DIMTSZ
 40
0.0
  9
$DIMTOL
 70
     0
  9
$DIMLIM
 70
     0
  9
$DIMTIH
 70
     0
  9
$DIMTOH
 70
     0
  9
$DIMSE1
 70
     0
  9
$DIMSE2
 70
     0
  9
$DIMTAD
 70
     1
  9
$DIMZIN
 70
     8
  9
$DIMBLK
  1
ARROW
  9
$DIMASO
 70
     0
  9
$DIMSHO
 70
     0
  9
$DIMPOST
  1

  9
$DIMAPOST
  1

  9
$DIMALT
 70
     0
  9
$DIMALTD
 70
     2
  9
$DIMALTF
 40
25.4
  9
$DIMLFAC
 40
1.0
  9
$DIMTOFL
 70
     1
  9
$DIMTVP
 40
0.0
  9
$DIMTIX
 70
     1
  9
$DIMSOXD
 70
     0
  9
$DIMSAH
 70
     0
  9
$DIMBLK1
  1

  9
$DIMBLK2
  1

  9
$DIMSTYLE
  2
*UNNAMED
  9
$DIMCLRD
 70
     0
  9
$DIMCLRE
 70
     0
  9
$DIMCLRT
 70
     0
  9
$DIMTFAC
 40
1.0
  9
$DIMGAP
 40
0.09
  9
$LUNITS
 70
     2
  9
$LUPREC
 70
     2
  9
$AXISMODE
 70
     0
  9
$AXISUNIT
 10
100.0
 20
100.0
  9
$SKETCHINC
 40
0.1
  9
$FILLETRAD
 40
9.5
  9
$AUNITS
 70
     0
  9
$AUPREC
 70
     2
  9
$MENU
  1
d:stdgx5
  9
$ELEVATION
 40
0.0
  9
$PELEVATION
 40
0.0
  9
$THICKNESS
 40
0.0
  9
$LIMCHECK
 70
     0
  9
$BLIPMODE
 70
     1
  9
$CHAMFERA
 40
0.0
  9
$CHAMFERB
 40
0.0
  9
$SKPOLY
 70
     0
  9
$TDCREATE
 40
2450248.555277777
  9
$TDUPDATE
 40
2450248.575057870
  9
$TDINDWG
 40
0.0060185185
  9
$TDUSRTIMER
 40
0.0060185185
  9
$USRTIMER
 70
     1
  9
$ANGBASE
 50
0.0
  9
$ANGDIR
 70
     0
  9
$PDMODE
 70
     0
  9
$PDSIZE
 40
0.0
  9
$PLINEWID
 40
0.0
  9
$COORDS
 70
     2
  9
$SPLFRAME
 70
     0
  9
$SPLINETYPE
 70
     6
  9
$SPLINESEGS
 70
     8
  9
$ATTDIA
 70
     0
  9
$ATTREQ
 70
     1
  9
$HANDLING
 70
     0
  9
$HANDSEED
  5
0
  9
$SURFTAB1
 70
     6
  9
$SURFTAB2
 70
     6
  9
$SURFTYPE
 70
     6
  9
$SURFU
 70
     6
  9
$SURFV
 70
     6
  9
$UCSNAME
  2

  9
$UCSORG
 10
0.0
 20
0.0
 30
0.0
  9
$UCSXDIR
 10
1.0
 20
0.0
 30
0.0
  9
$UCSYDIR
 10
0.0
 20
1.0
 30
0.0
  9
$PUCSNAME
  2

  9
$PUCSORG
 10
0.0
 20
0.0
 30
0.0
  9
$PUCSXDIR
 10
1.0
 20
0.0
 30
0.0
  9
$PUCSYDIR
 10
0.0
 20
1.0
 30
0.0
  9
$USERI1
 70
     3
  9
$USERI2
 70
    32
  9
$USERI3
 70
     0
  9
$USERI4
 70
     1
  9
$USERI5
 70
     0
  9
$USERR1
 40
30.0
  9
$USERR2
 40
3.0
  9
$USERR3
 40
3.0
  9
$USERR4
 40
1.5
  9
$USERR5
 40
10.0
  9
$WORLDVIEW
 70
     1
  9
$SHADEDGE
 70
     3
  9
$SHADEDIF
 70
    70
  9
$TILEMODE
 70
     1
  9
$MAXACTVP
 70
    16
  9
$PINSBASE
 10
0.0
 20
0.0
 30
0.0
  9
$PLIMCHECK
 70
     0
  9
$PEXTMIN
 10
1.000000E+20
 20
1.000000E+20
 30
1.000000E+20
  9
$PEXTMAX
 10
-1.000000E+20
 20
-1.000000E+20
 30
-1.000000E+20
  9
$PLIMMIN
 10
0.0
 20
0.0
  9
$PLIMMAX
 10
12.0
 20
9.0
  9
$UNITMODE
 70
     0
  9
$VISRETAIN
 70
     0
  0
ENDSEC
  0
SECTION
  2
TABLES
  0
TABLE
  2
VPORT
 70
    10
  0
VPORT
  2
*ACTIVE
 70
     0
 10
0.0
 20
0.0
 11
1.0
 21
1.0
 12
6942.966901
 22
4255.0
 13
0.0
 23
0.0
 14
1.0
 24
1.0
 15
10.0
 25
10.0
 16
0.0
 26
0.0
 36
1.0
 17
0.0
 27
0.0
 37
0.0
 40
8510.0
 41
1.63407
 42
50.0
 43
0.0
 44
0.0
 50
0.0
 51
0.0
 71
     0
 72
   500
 73
     1
 74
     0
 75
     0
 76
     0
 77
     0
 78
     0
  0
VPORT
  2
2
 70
     0
 10
0.5
 20
0.0
 11
1.0
 21
1.0
 12
0.924031
 22
1.052651
 13
0.0
 23
0.0
 14
1.0
 24
1.0
 15
10.0
 25
10.0
 16
0.0
 26
0.0
 36
1.0
 17
0.0
 27
0.0
 37
0.0
 40
2.105302
 41
0.877814
 42
50.0
 43
0.0
 44
0.0
 50
0.0
 51
0.0
 71
     0
 72
   500
 73
     1
 74
     1
 75
     0
 76
     0
 77
     0
 78
     0
  0
VPORT
  2
2
 70
     0
 10
0.0
 20
0.0
 11
0.5
 21
1.0
 12
0.924031
 22
1.052651
 13
0.0
 23
0.0
 14
1.0
 24
1.0
 15
10.0
 25
10.0
 16
0.0
 26
0.0
 36
1.0
 17
0.0
 27
0.0
 37
0.0
 40
2.105302
 41
0.877814
 42
50.0
 43
0.0
 44
0.0
 50
0.0
 51
0.0
 71
     0
 72
   500
 73
     1
 74
     1
 75
     0
 76
     0
 77
     0
 78
     0
  0
VPORT
  2
3
 70
     0
 10
0.0
 20
0.5
 11
1.0
 21
1.0
 12
2.83217
 22
1.052651
 13
0.0
 23
0.0
 14
1.0
 24
1.0
 15
10.0
 25
10.0
 16
0.0
 26
0.0
 36
1.0
 17
0.0
 27
0.0
 37
0.0
 40
2.105302
 41
3.571429
 42
50.0
 43
0.0
 44
0.0
 50
0.0
 51
0.0
 71
     0
 72
   500
 73
     1
 74
     1
 75
     0
 76
     0
 77
     0
 78
     0
  0
VPORT
  2
3
 70
     0
 10
0.0
 20
0.0
 11
1.0
 21
0.5
 12
2.856742
 22
1.052651
 13
0.0
 23
0.0
 14
1.0
 24
1.0
 15
10.0
 25
10.0
 16
0.0
 26
0.0
 36
1.0
 17
0.0
 27
0.0
 37
0.0
 40
2.105302
 41
3.594771
 42
50.0
 43
0.0
 44
0.0
 50
0.0
 51
0.0
 71
     0
 72
   500
 73
     1
 74
     1
 75
     0
 76
     0
 77
     0
 78
     0
  0
VPORT
  2
4
 70
     0
 10
0.5
 20
0.0
 11
1.0
 21
0.5
 12
2.886858
 22
1.052651
 13
0.0
 23
0.0
 14
1.0
 24
1.0
 15
10.0
 25
10.0
 16
0.0
 26
0.0
 36
1.0
 17
0.0
 27
0.0
 37
0.0
 40
4.275207
 41
1.784314
 42
50.0
 43
0.0
 44
0.0
 50
0.0
 51
0.0
 71
     0
 72
   500
 73
     1
 74
     1
 75
     0
 76
     0
 77
     0
 78
     0
  0
VPORT
  2
4
 70
     0
 10
0.5
 20
0.5
 11
1.0
 21
1.0
 12
2.86209
 22
1.052651
 13
0.0
 23
0.0
 14
1.0
 24
1.0
 15
10.0
 25
10.0
 16
0.0
 26
0.0
 36
1.0
 17
0.0
 27
0.0
 37
0.0
 40
4.275207
 41
1.772727
 42
50.0
 43
0.0
 44
0.0
 50
0.0
 51
0.0
 71
     0
 72
   500
 73
     1
 74
     1
 75
     0
 76
     0
 77
     0
 78
     0
  0
VPORT
  2
4
 70
     0
 10
0.0
 20
0.5
 11
0.5
 21
1.0
 12
2.86209
 22
1.052651
 13
0.0
 23
0.0
 14
1.0
 24
1.0
 15
10.0
 25
10.0
 16
0.0
 26
0.0
 36
1.0
 17
0.0
 27
0.0
 37
0.0
 40
4.275207
 41
1.772727
 42
50.0
 43
0.0
 44
0.0
 50
0.0
 51
0.0
 71
     0
 72
   500
 73
     1
 74
     1
 75
     0
 76
     0
 77
     0
 78
     0
  0
VPORT
  2
4
 70
     0
 10
0.0
 20
0.0
 11
0.5
 21
0.5
 12
2.886858
 22
1.052651
 13
0.0
 23
0.0
 14
1.0
 24
1.0
 15
10.0
 25
10.0
 16
0.0
 26
0.0
 36
1.0
 17
0.0
 27
0.0
 37
0.0
 40
4.275207
 41
1.784314
 42
50.0
 43
0.0
 44
0.0
 50
0.0
 51
0.0
 71
     0
 72
   500
 73
     1
 74
     1
 75
     0
 76
     0
 77
     0
 78
     0
  0
ENDTAB
  0
TABLE
  2
LTYPE
 70
     5
  0
LTYPE
  2
CONTINUOUS
 70
    64
  3
実線
 72
    65
 73
     0
 40
0.0
  0
LTYPE
  2
DASHED
 70
    64
  3
__ __ __ __ __ __ __ __ __ __ __ __ __ __ __
 72
    65
 73
     2
 40
0.75
 49
0.5
 49
-0.25
  0
LTYPE
  2
CENTER
 70
    64
  3
____ _ ____ _ ____ _ ____ _ ____ _ ____ _ ____
 72
    65
 73
     4
 40
2.0
 49
1.25
 49
-0.25
 49
0.25
 49
-0.25
  0
LTYPE
  2
PHANTOM
 70
    64
  3
_____ _ _ _____ _ _ _____ _ _ _____ _ _ ____
 72
    65
 73
     6
 40
2.5
 49
1.25
 49
-0.25
 49
0.25
 49
-0.25
 49
0.25
 49
-0.25
  0
LTYPE
  2
HIDDEN
 70
    64
  3
_ _ _ _ _ _ _ _ _ _ _ _ _ _ _ _ _ _ _ _ _ _ _
 72
    65
 73
     2
 40
0.375
 49
0.25
 49
-0.125
  0
ENDTAB
  0
TABLE
  2
LAYER
 70
    14
  0
LAYER
  2
0
 70
    64
 62
     7
  6
CONTINUOUS
  0
LAYER
  2
ITTEN
 70
    64
 62
     1
  6
CENTER
  0
LAYER
  2
SUNPOU
 70
    64
 62
     3
  6
CONTINUOUS
  0
LAYER
  2
TEXT
 70
    64
 62
     3
  6
CONTINUOUS
  0
LAYER
  2
SAISEN
 70
    64
 62
     4
  6
CONTINUOUS
  0
LAYER
  2
JISSEN
 70
    64
 62
     7
  6
CONTINUOUS
  0
LAYER
  2
HOJO
 70
    64
 62
    13
  6
CONTINUOUS
  0
LAYER
  2
TENSEN
 70
    64
 62
     2
  6
HIDDEN
  0
LAYER
  2
HOJOORG
 70
    64
 62
    -9
  6
CONTINUOUS
  0
LAYER
  2
WAKU
 70
    64
 62
    -5
  6
CONTINUOUS
  0
ENDTAB
  0
TABLE
  2
STYLE
 70
     2
  0
STYLE
  2
STANDARD
 70
     0
 40
0.0
 41
1.0
 50
0.0
 71
     0
 42
0.2
  3
ROMANS
  4
EXTFONT
  0
STYLE
  2
K
 70
    64
 40
0.0
 41
1.0
 50
0.0
 71
     0
 42
45.0
  3
ROMANS
  4
EXTFONT
  0
ENDTAB
  0
TABLE
  2
VIEW
 70
     0
  0
ENDTAB
  0
TABLE
  2
UCS
 70
     0
  0
ENDTAB
  0
TABLE
  2
APPID
 70
     1
  0
APPID
  2
ACAD
 70
    64
  0
ENDTAB
  0
TABLE
  2
DIMSTYLE
 70
     0
  0
ENDTAB
  0
ENDSEC
  0
SECTION
  2
BLOCKS
  0
BLOCK
  8
SUNPOU
  2
ARROWANG
 70
    64
 10
0.0
 20
0.0
 30
0.0
  3
ARROWANG
  0
LINE
  8
SUNPOU
 10
0.0
 20
0.0
 30
0.0
 11
-1.5
 21
0.401924
 31
0.0
  0
LINE
  8
SUNPOU
 10
0.0
 20
0.0
 30
0.0
 11
-1.5
 21
-0.401924
 31
0.0
  0
ENDBLK
  8
SUNPOU
  0
ENDSEC
  0
SECTION
  2
ENTITIES
  0
LINE
  8
JISSEN
 10
1387.49926
 20
5979.557407
 30
0.0
 11
1472.49926
 21
5979.557407
 31
0.0
  0
LINE
  8
JISSEN
 10
1472.49926
 20
5979.557407
 30
0.0
 11
1479.49926
 21
5956.557407
 31
0.0
  0
LINE
  8
JISSEN
 10
1479.49926
 20
5956.557407
 30
0.0
 11
1512.49926
 21
5956.557407
 31
0.0
  0
LINE
  8
JISSEN
 10
1387.49926
 20
5979.557407
 30
0.0
 11
1387.49926
 21
5979.557407
 31
0.0
  0
LINE
  8
JISSEN
 10
1387.49926
 20
3579.557407
 30
0.0
 11
1473.49926
 21
3579.557407
 31
0.0
  0
LINE
  8
JISSEN
 10
1473.49926
 20
3579.557407
 30
0.0
 11
1484.49926
 21
3564.557407
 31
0.0
  0
LINE
  8
JISSEN
 10
1484.49926
 20
3564.557407
 30
0.0
 11
1512.49926
 21
3564.557407
 31
0.0
  0
LINE
  8
JISSEN
 10
1387.49926
 20
5979.557407
 30
0.0
 11
1387.49926
 21
3579.557407
 31
0.0
  0
LINE
  8
JISSEN
 10
1512.49926
 20
3564.557407
 30
0.0
 11
1512.49926
 21
5956.557407
 31
0.0
  0
LINE
  8
JISSEN
 10
3137.49926
 20
5979.557407
 30
0.0
 11
3052.49926
 21
5979.557407
 31
0.0
  0
LINE
  8
JISSEN
 10
3137.49926
 20
5979.557407
 30
0.0
 11
3137.49926
 21
3579.557407
 31
0.0
  0
LINE
  8
JISSEN
 10
3045.49926
 20
5956.557407
 30
0.0
 11
3012.49926
 21
5956.557407
 31
0.0
  0
LINE
  8
TENSEN
 10
3012.49926
 20
3564.557407
 30
0.0
 11
3012.49926
 21
5956.557407
 31
0.0
  0
LINE
  8
JISSEN
 10
3137.49926
 20
3579.557407
 30
0.0
 11
3051.49926
 21
3579.557407
 31
0.0
  0
LINE
  8
JISSEN
 10
3040.49926
 20
3564.557407
 30
0.0
 11
3012.49926
 21
3564.557407
 31
0.0
  0
LINE
  8
JISSEN
 10
3052.49926
 20
5979.557407
 30
0.0
 11
3045.49926
 21
5956.557407
 31
0.0
  0
LINE
  8
JISSEN
 10
3051.49926
 20
3579.557407
 30
0.0
 11
3040.49926
 21
3564.557407
 31
0.0
  0
LINE
  8
JISSEN
 10
1512.49926
 20
5956.557407
 30
0.0
 11
2262.49926
 21
5956.557407
 31
0.0
  0
LINE
  8
JISSEN
 10
1512.49926
 20
3564.557407
 30
0.0
 11
3012.49926
 21
3564.557407
 31
0.0
  0
LINE
  8
JISSEN
 10
3051.49926
 20
3579.557407
 30
0.0
 11
2262.49926
 21
3579.557407
 31
0.0
  0
LINE
  8
JISSEN
 10
1472.49926
 20
5979.557407
 30
0.0
 11
3052.49926
 21
5979.557407
 31
0.0
  0
ARC
  8
JISSEN
 10
1632.49926
 20
3714.557407
 30
0.0
 40
10.0
 50
270.0
 51
90.0
  0
LINE
  8
JISSEN
 10
1512.49926
 20
3724.557407
 30
0.0
 11
1632.49926
 21
3724.557407
 31
0.0
  0
LINE
  8
JISSEN
 10
1632.49926
 20
3704.557407
 30
0.0
 11
1512.49926
 21
3704.557407
 31
0.0
  0
LINE
  8
ITTEN
 10
1456.383406
 20
3714.557407
 30
0.0
 11
1812.49926
 21
3714.557407
 31
0.0
  0
LINE
  8
ITTEN
 10
1456.383406
 20
4014.557407
 30
0.0
 11
1812.49926
 21
4014.557407
 31
0.0
  0
LINE
  8
JISSEN
 10
1512.49926
 20
4024.557407
 30
0.0
 11
1632.49926
 21
4024.557407
 31
0.0
  0
LINE
  8
JISSEN
 10
1632.49926
 20
4004.557407
 30
0.0
 11
1512.49926
 21
4004.557407
 31
0.0
  0
ARC
  8
JISSEN
 10
1632.49926
 20
4014.557407
 30
0.0
 40
10.0
 50
270.0
 51
90.0
  0
LINE
  8
ITTEN
 10
1456.383406
 20
4314.557407
 30
0.0
 11
1812.49926
 21
4314.557407
 31
0.0
  0
LINE
  8
JISSEN
 10
1512.49926
 20
4324.557407
 30
0.0
 11
1632.49926
 21
4324.557407
 31
0.0
  0
LINE
  8
JISSEN
 10
1632.49926
 20
4304.557407
 30
0.0
 11
1512.49926
 21
4304.557407
 31
0.0
  0
ARC
  8
JISSEN
 10
1632.49926
 20
4314.557407
 30
0.0
 40
10.0
 50
270.0
 51
90.0
  0
LINE
  8
ITTEN
 10
1456.383406
 20
4614.557407
 30
0.0
 11
1812.49926
 21
4614.557407
 31
0.0
  0
LINE
  8
JISSEN
 10
1512.49926
 20
4624.557407
 30
0.0
 11
1632.49926
 21
4624.557407
 31
0.0
  0
LINE
  8
JISSEN
 10
1632.49926
 20
4604.557407
 30
0.0
 11
1512.49926
 21
4604.557407
 31
0.0
  0
ARC
  8
JISSEN
 10
1632.49926
 20
4614.557407
 30
0.0
 40
10.0
 50
270.0
 51
90.0
  0
LINE
  8
ITTEN
 10
1456.383406
 20
4914.557407
 30
0.0
 11
1812.49926
 21
4914.557407
 31
0.0
  0
LINE
  8
JISSEN
 10
1512.49926
 20
4924.557407
 30
0.0
 11
1632.49926
 21
4924.557407
 31
0.0
  0
LINE
  8
JISSEN
 10
1632.49926
 20
4904.557407
 30
0.0
 11
1512.49926
 21
4904.557407
 31
0.0
  0
ARC
  8
JISSEN
 10
1632.49926
 20
4914.557407
 30
0.0
 40
10.0
 50
270.0
 51
90.0
  0
LINE
  8
ITTEN
 10
1456.383406
 20
5214.557407
 30
0.0
 11
1812.49926
 21
5214.557407
 31
0.0
  0
LINE
  8
JISSEN
 10
1512.49926
 20
5224.557407
 30
0.0
 11
1632.49926
 21
5224.557407
 31
0.0
  0
LINE
  8
JISSEN
 10
1632.49926
 20
5204.557407
 30
0.0
 11
1512.49926
 21
5204.557407
 31
0.0
  0
ARC
  8
JISSEN
 10
1632.49926
 20
5214.557407
 30
0.0
 40
10.0
 50
270.0
 51
90.0
  0
LINE
  8
ITTEN
 10
1456.383406
 20
5514.557407
 30
0.0
 11
1812.49926
 21
5514.557407
 31
0.0
  0
LINE
  8
JISSEN
 10
1512.49926
 20
5524.557407
 30
0.0
 11
1632.49926
 21
5524.557407
 31
0.0
  0
LINE
  8
JISSEN
 10
1632.49926
 20
5504.557407
 30
0.0
 11
1512.49926
 21
5504.557407
 31
0.0
  0
ARC
  8
JISSEN
 10
1632.49926
 20
5514.557407
 30
0.0
 40
10.0
 50
270.0
 51
90.0
  0
LINE
  8
ITTEN
 10
1456.383406
 20
5814.557407
 30
0.0
 11
1812.49926
 21
5814.557407
 31
0.0
  0
LINE
  8
JISSEN
 10
1512.49926
 20
5824.557407
 30
0.0
 11
1632.49926
 21
5824.557407
 31
0.0
  0
LINE
  8
JISSEN
 10
1632.49926
 20
5804.557407
 30
0.0
 11
1512.49926
 21
5804.557407
 31
0.0
  0
ARC
  8
JISSEN
 10
1632.49926
 20
5814.557407
 30
0.0
 40
10.0
 50
270.0
 51
90.0
  0
LINE
  8
TENSEN
 10
2262.49926
 20
5956.557407
 30
0.0
 11
3012.49926
 21
5956.557407
 31
0.0
  0
CIRCLE
  8
JISSEN
 10
2262.49926
 20
2058.469185
 30
0.0
 40
875.0
  0
CIRCLE
  8
JISSEN
 10
2262.49926
 20
2058.469185
 30
0.0
 40
750.0
  0
CIRCLE
  8
JISSEN
 10
2262.49926
 20
2058.469185
 30
0.0
 40
790.0
  0
CIRCLE
  8
SUNPOU
 10
2262.49926
 20
2058.469185
 30
0.0
 40
783.0
  0
LINE
  8
ITTEN
 10
3237.49926
 20
2058.469185
 30
0.0
 11
1287.49926
 21
2058.469185
 31
0.0
  0
POINT
  8
SUNPOU
 10
2263.49926
 20
2058.469185
 30
0.0
  0
POINT
  8
SUNPOU
 10
2263.49926
 20
2058.469185
 30
0.0
  0
POINT
  8
SUNPOU
 10
2263.49926
 20
2058.469185
 30
0.0
  0
POINT
  8
SUNPOU
 10
2263.49926
 20
2058.469185
 30
0.0
  0
POINT
  8
SUNPOU
 10
2263.49926
 20
2058.469185
 30
0.0
  0
LINE
  8
SAISEN
 10
1573.070149
 20
1369.040073
 30
0.0
 11
1762.263658
 21
1558.233583
 31
0.0
  0
LINE
  8
SAISEN
 10
1573.070149
 20
2747.898296
 30
0.0
 11
1762.293055
 21
2558.67539
 31
0.0
  0
LINE
  8
SAISEN
 10
2762.734862
 20
1558.233583
 30
0.0
 11
2951.928372
 21
1369.040073
 31
0.0
  0
LINE
  8
SAISEN
 10
2762.734862
 20
2558.704787
 30
0.0
 11
2951.928372
 21
2747.898296
 31
0.0
  0
CIRCLE
  8
JISSEN
 10
2881.217694
 20
3679.557407
 30
0.0
 40
15.0
  0
CIRCLE
  8
SUNPOU
 10
0.0
 20
8500.0
 30
0.0
 40
10.0
  0
CIRCLE
  8
TENSEN
 10
1643.780827
 20
3679.557407
 30
0.0
 40
15.0
  0
CIRCLE
  8
TENSEN
 10
1643.780827
 20
5879.557407
 30
0.0
 40
15.0
  0
CIRCLE
  8
JISSEN
 10
2881.217694
 20
5879.557407
 30
0.0
 40
15.0
  0
LINE
  8
TENSEN
 10
1636.750166
 20
1446.862226
 30
0.0
 11
1672.065098
 21
1482.177158
 31
0.0
  0
LINE
  8
TENSEN
 10
1672.065098
 20
1482.177158
 30
0.0
 11
1686.207234
 21
1468.035022
 31
0.0
  0
LINE
  8
TENSEN
 10
1686.207234
 20
1468.035022
 30
0.0
 11
1650.892302
 21
1432.720091
 31
0.0
  0
LINE
  8
TENSEN
 10
2874.106219
 20
1432.720091
 30
0.0
 11
2838.791287
 21
1468.035022
 31
0.0
  0
LINE
  8
TENSEN
 10
2838.791287
 20
1468.035022
 30
0.0
 11
2852.933423
 21
1482.177158
 31
0.0
  0
LINE
  8
TENSEN
 10
2852.933423
 20
1482.177158
 30
0.0
 11
2888.248354
 21
1446.862226
 31
0.0
  0
LINE
  8
TENSEN
 10
1636.750166
 20
2670.076143
 30
0.0
 11
1672.065098
 21
2634.761211
 31
0.0
  0
LINE
  8
TENSEN
 10
1672.065098
 20
2634.761211
 30
0.0
 11
1686.207234
 21
2648.903347
 31
0.0
  0
LINE
  8
TENSEN
 10
1686.207234
 20
2648.903347
 30
0.0
 11
1650.892302
 21
2684.218279
 31
0.0
  0
LINE
  8
TENSEN
 10
2852.933423
 20
2634.761211
 30
0.0
 11
2888.248354
 21
2670.076143
 31
0.0
  0
LINE
  8
TENSEN
 10
2838.791287
 20
2648.903347
 30
0.0
 11
2852.933423
 21
2634.761211
 31
0.0
  0
LINE
  8
TENSEN
 10
2874.106219
 20
2684.218279
 30
0.0
 11
2838.791287
 21
2648.903347
 31
0.0
  0
LINE
  8
ITTEN
 10
1643.780827
 20
3744.557407
 30
0.0
 11
1643.780827
 21
3614.557407
 31
0.0
  0
LINE
  8
ITTEN
 10
1708.780827
 20
3679.557407
 30
0.0
 11
1578.780827
 21
3679.557407
 31
0.0
  0
LINE
  8
ITTEN
 10
2881.217694
 20
3744.557407
 30
0.0
 11
2881.217694
 21
3614.557407
 31
0.0
  0
LINE
  8
ITTEN
 10
2946.217694
 20
3679.557407
 30
0.0
 11
2816.217694
 21
3679.557407
 31
0.0
  0
LINE
  8
ITTEN
 10
1643.780827
 20
5944.557407
 30
0.0
 11
1643.780827
 21
5814.557407
 31
0.0
  0
LINE
  8
ITTEN
 10
1708.780827
 20
5879.557407
 30
0.0
 11
1578.780827
 21
5879.557407
 31
0.0
  0
LINE
  8
ITTEN
 10
2881.217694
 20
5944.557407
 30
0.0
 11
2881.217694
 21
5814.557407
 31
0.0
  0
LINE
  8
ITTEN
 10
2946.217694
 20
5879.557407
 30
0.0
 11
2816.217694
 21
5879.557407
 31
0.0
  0
LINE
  8
JISSEN
 10
1542.49926
 20
2268.469185
 30
0.0
 11
1612.499253
 21
2268.469185
 31
0.0
  0
LINE
  8
JISSEN
 10
1642.499253
 20
2238.469185
 30
0.0
 11
1642.499253
 21
1878.469185
 31
0.0
  0
LINE
  8
JISSEN
 10
1612.499253
 20
1848.469185
 30
0.0
 11
1542.49926
 21
1848.469185
 31
0.0
  0
LINE
  8
JISSEN
 10
1536.964974
 20
1868.469185
 30
0.0
 11
1602.499253
 21
1868.469185
 31
0.0
  0
LINE
  8
JISSEN
 10
1622.499253
 20
1888.469185
 30
0.0
 11
1622.499253
 21
2228.469185
 31
0.0
  0
LINE
  8
JISSEN
 10
1602.499253
 20
2248.469185
 30
0.0
 11
1536.964974
 21
2248.469185
 31
0.0
  0
ARC
  8
JISSEN
 10
1602.499253
 20
2228.469185
 30
0.0
 40
20.0
 50
0.0
 51
90.0
  0
ARC
  8
JISSEN
 10
1602.499253
 20
1888.469185
 30
0.0
 40
20.0
 50
270.0
 51
0.0
  0
ARC
  8
JISSEN
 10
1612.499253
 20
1878.469185
 30
0.0
 40
30.0
 50
270.0
 51
0.0
  0
ARC
  8
JISSEN
 10
1612.499253
 20
2238.469185
 30
0.0
 40
30.0
 50
0.0
 51
90.0
  0
LINE
  8
SUNPOU
 10
1387.49926
 20
6009.557407
 30
0.0
 11
1387.49926
 21
6309.557407
 31
0.0
  0
LINE
  8
SUNPOU
 10
1512.49926
 20
5986.557407
 30
0.0
 11
1512.49926
 21
6309.557407
 31
0.0
  0
LINE
  8
SUNPOU
 10
1387.49926
 20
6306.984259
 30
0.0
 11
1387.49926
 21
6309.557407
 31
0.0
  0
LINE
  8
SUNPOU
 10
1512.49926
 20
6306.984259
 30
0.0
 11
1512.49926
 21
6309.557407
 31
0.0
  0
LINE
  8
SUNPOU
 10
1387.49926
 20
6279.557407
 30
0.0
 11
1512.49926
 21
6279.557407
 31
0.0
  0
INSERT
  8
SUNPOU
  2
ARROWANG
 10
1512.49926
 20
6279.557407
 30
0.0
 41
30.0
 42
30.0
 43
30.0
  0
INSERT
  8
SUNPOU
  2
ARROWANG
 10
1387.49926
 20
6279.557407
 30
0.0
 41
30.0
 42
30.0
 50
180.0
 43
30.0
  0
TEXT
  8
SUNPOU
 10
1386.397141
 20
6324.557407
 30
0.0
 40
45.0
  1
125
  7
K
 72
     1
 11
1453.897141
 21
6324.557407
 31
0.0
  0
LINE
  8
SUNPOU
 10
1512.49926
 20
6249.557407
 30
0.0
 11
1512.49926
 21
6249.557407
 31
0.0
  0
LINE
  8
SUNPOU
 10
1512.49926
 20
6279.557407
 30
0.0
 11
3012.49926
 21
6279.557407
 31
0.0
  0
INSERT
  8
SUNPOU
  2
ARROWANG
 10
1512.49926
 20
6279.557407
 30
0.0
 41
30.0
 42
30.0
 50
180.0
 43
30.0
  0
INSERT
  8
SUNPOU
  2
ARROWANG
 10
3012.49926
 20
6279.557407
 30
0.0
 41
30.0
 42
30.0
 43
30.0
  0
TEXT
  8
SUNPOU
 10
2173.570703
 20
6324.557407
 30
0.0
 40
45.0
  1
1500
  7
K
 72
     1
 11
2262.499275
 21
6324.557407
 31
0.0
  0
LINE
  8
SUNPOU
 10
3012.49926
 20
5986.557407
 30
0.0
 11
3012.49926
 21
6309.557407
 31
0.0
  0
LINE
  8
SUNPOU
 10
3137.49926
 20
6009.557407
 30
0.0
 11
3137.49926
 21
6309.557407
 31
0.0
  0
LINE
  8
SUNPOU
 10
3012.49926
 20
6279.557407
 30
0.0
 11
3137.49926
 21
6279.557407
 31
0.0
  0
INSERT
  8
SUNPOU
  2
ARROWANG
 10
3012.49926
 20
6279.557407
 30
0.0
 41
30.0
 42
30.0
 50
180.0
 43
30.0
  0
INSERT
  8
SUNPOU
  2
ARROWANG
 10
3137.49926
 20
6279.557407
 30
0.0
 41
30.0
 42
30.0
 43
30.0
  0
TEXT
  8
SUNPOU
 10
3007.499275
 20
6324.557407
 30
0.0
 40
45.0
  1
125
  7
K
 72
     1
 11
3074.999275
 21
6324.557407
 31
0.0
  0
LINE
  8
SUNPOU
 10
1472.49926
 20
6009.557407
 30
0.0
 11
1472.49926
 21
6209.557407
 31
0.0
  0
LINE
  8
SUNPOU
 10
3052.49926
 20
6009.557407
 30
0.0
 11
3052.49926
 21
6209.557407
 31
0.0
  0
LINE
  8
SUNPOU
 10
1472.49926
 20
6179.557407
 30
0.0
 11
3052.49926
 21
6179.557407
 31
0.0
  0
INSERT
  8
SUNPOU
  2
ARROWANG
 10
1472.49926
 20
6179.557407
 30
0.0
 41
30.0
 42
30.0
 50
180.0
 43
30.0
  0
INSERT
  8
SUNPOU
  2
ARROWANG
 10
3052.49926
 20
6179.557407
 30
0.0
 41
30.0
 42
30.0
 43
30.0
  0
TEXT
  8
SUNPOU
 10
2173.570703
 20
6224.557407
 30
0.0
 40
45.0
  1
1580
  7
K
 72
     1
 11
2262.499275
 21
6224.557407
 31
0.0
  0
LINE
  8
SUNPOU
 10
1479.49926
 20
5986.557407
 30
0.0
 11
1479.49926
 21
6109.557407
 31
0.0
  0
LINE
  8
SUNPOU
 10
3045.49926
 20
5986.557407
 30
0.0
 11
3045.49926
 21
6109.557407
 31
0.0
  0
LINE
  8
SUNPOU
 10
1479.49926
 20
6079.557407
 30
0.0
 11
3045.49926
 21
6079.557407
 31
0.0
  0
INSERT
  8
SUNPOU
  2
ARROWANG
 10
1479.49926
 20
6079.557407
 30
0.0
 41
30.0
 42
30.0
 50
180.0
 43
30.0
  0
INSERT
  8
SUNPOU
  2
ARROWANG
 10
3045.49926
 20
6079.557407
 30
0.0
 41
30.0
 42
30.0
 43
30.0
  0
TEXT
  8
SUNPOU
 10
2173.570703
 20
6124.557407
 30
0.0
 40
45.0
  1
1566
  7
K
 72
     1
 11
2262.499275
 21
6124.557407
 31
0.0
  0
LINE
  8
ITTEN
 10
2262.49926
 20
6058.723642
 30
0.0
 11
2262.49926
 21
3515.301638
 31
0.0
  0
LINE
  8
SUNPOU
 10
1357.49926
 20
3579.557407
 30
0.0
 11
1057.49926
 21
3579.557407
 31
0.0
  0
LINE
  8
SUNPOU
 10
1357.49926
 20
5979.557407
 30
0.0
 11
1057.49926
 21
5979.557407
 31
0.0
  0
LINE
  8
SUNPOU
 10
1087.49926
 20
3579.557407
 30
0.0
 11
1087.49926
 21
5979.557407
 31
0.0
  0
INSERT
  8
SUNPOU
  2
ARROWANG
 10
1087.49926
 20
3579.557407
 30
0.0
 41
30.0
 42
30.0
 50
270.0
 43
30.0
  0
INSERT
  8
SUNPOU
  2
ARROWANG
 10
1087.49926
 20
5979.557407
 30
0.0
 41
30.0
 42
30.0
 50
90.0
 43
30.0
  0
TEXT
  8
SUNPOU
 10
1042.49926
 20
4693.843121
 30
0.0
 40
45.0
  1
2400
 50
90.0
  7
K
 72
     1
 11
1042.49926
 21
4779.557407
 31
0.0
  0
LINE
  8
SUNPOU
 10
1267.49926
 20
5979.557407
 30
0.0
 11
1267.49926
 21
5979.557407
 31
0.0
  0
LINE
  8
SUNPOU
 10
1449.49926
 20
5956.557407
 30
0.0
 11
1207.49926
 21
5956.557407
 31
0.0
  0
LINE
  8
SUNPOU
 10
1267.49926
 20
5979.557407
 30
0.0
 11
1267.49926
 21
5979.557407
 31
0.0
  0
LINE
  8
SUNPOU
 10
1237.49926
 20
5956.557407
 30
0.0
 11
1237.49926
 21
5979.557407
 31
0.0
  0
INSERT
  8
SUNPOU
  2
ARROWANG
 10
1237.49926
 20
5956.557407
 30
0.0
 41
30.0
 42
30.0
 50
90.0
 43
30.0
  0
INSERT
  8
SUNPOU
  2
ARROWANG
 10
1237.49926
 20
5979.557407
 30
0.0
 41
30.0
 42
30.0
 50
270.0
 43
30.0
  0
LINE
  8
SUNPOU
 10
1237.49926
 20
5979.557407
 30
0.0
 11
1237.49926
 21
6078.557407
 31
0.0
  0
LINE
  8
SUNPOU
 10
1237.49926
 20
5956.557407
 30
0.0
 11
1237.499261
 21
5896.557407
 31
0.0
  0
TEXT
  8
SUNPOU
 10
1192.49926
 20
5986.200264
 30
0.0
 40
45.0
  1
23
 50
90.0
  7
K
 72
     1
 11
1192.49926
 21
6029.057407
 31
0.0
  0
LINE
  8
SUNPOU
 10
1454.49926
 20
3564.557407
 30
0.0
 11
1057.49926
 21
3564.557407
 31
0.0
  0
LINE
  8
SUNPOU
 10
1117.49926
 20
3579.557407
 30
0.0
 11
1117.49926
 21
3579.557407
 31
0.0
  0
LINE
  8
SUNPOU
 10
1087.49926
 20
3564.557407
 30
0.0
 11
1087.49926
 21
3579.557407
 31
0.0
  0
INSERT
  8
SUNPOU
  2
ARROWANG
 10
1087.49926
 20
3564.557407
 30
0.0
 41
30.0
 42
30.0
 50
90.0
 43
30.0
  0
INSERT
  8
SUNPOU
  2
ARROWANG
 10
1087.49926
 20
3579.557407
 30
0.0
 41
30.0
 42
30.0
 50
270.0
 43
30.0
  0
TEXT
  8
SUNPOU
 10
1042.49926
 20
3525.985978
 30
0.0
 40
45.0
  1
15
 50
90.0
  7
K
 72
     1
 11
1042.49926
 21
3572.057407
 31
0.0
  0
LINE
  8
SUNPOU
 10
1087.49926
 20
3579.557407
 30
0.0
 11
1087.49926
 21
3639.557407
 31
0.0
  0
LINE
  8
SUNPOU
 10
1087.49926
 20
3564.557407
 30
0.0
 11
1087.49926
 21
3504.557407
 31
0.0
  0
LINE
  8
SUNPOU
 10
2976.217694
 20
5879.557407
 30
0.0
 11
3317.49926
 21
5879.557407
 31
0.0
  0
LINE
  8
SUNPOU
 10
3167.49926
 20
5979.557407
 30
0.0
 11
3317.49926
 21
5979.557407
 31
0.0
  0
LINE
  8
SUNPOU
 10
3287.49926
 20
5879.557407
 30
0.0
 11
3287.49926
 21
5979.557407
 31
0.0
  0
INSERT
  8
SUNPOU
  2
ARROWANG
 10
3287.49926
 20
5879.557407
 30
0.0
 41
30.0
 42
30.0
 50
90.0
 43
30.0
  0
INSERT
  8
SUNPOU
  2
ARROWANG
 10
3287.49926
 20
5979.557407
 30
0.0
 41
30.0
 42
30.0
 50
270.0
 43
30.0
  0
LINE
  8
SUNPOU
 10
3287.49926
 20
5879.557407
 30
0.0
 11
3287.49926
 21
5737.807407
 31
0.0
  0
LINE
  8
SUNPOU
 10
3287.49926
 20
5979.557407
 30
0.0
 11
3287.49926
 21
6039.557407
 31
0.0
  0
TEXT
  8
SUNPOU
 10
3242.49926
 20
5737.807407
 30
0.0
 40
45.0
  1
100
 50
90.0
  7
K
 72
     1
 11
3242.49926
 21
5805.307407
 31
0.0
  0
LINE
  8
SUNPOU
 10
3167.49926
 20
3579.557407
 30
0.0
 11
3317.49926
 21
3579.557407
 31
0.0
  0
LINE
  8
SUNPOU
 10
2976.217694
 20
3679.557407
 30
0.0
 11
3317.49926
 21
3679.557407
 31
0.0
  0
LINE
  8
SUNPOU
 10
3287.49926
 20
3579.557407
 30
0.0
 11
3287.49926
 21
3679.557407
 31
0.0
  0
INSERT
  8
SUNPOU
  2
ARROWANG
 10
3287.49926
 20
3579.557407
 30
0.0
 41
30.0
 42
30.0
 50
90.0
 43
30.0
  0
INSERT
  8
SUNPOU
  2
ARROWANG
 10
3287.49926
 20
3679.557407
 30
0.0
 41
30.0
 42
30.0
 50
270.0
 43
30.0
  0
LINE
  8
SUNPOU
 10
3287.49926
 20
3679.557407
 30
0.0
 11
3287.49926
 21
3821.307407
 31
0.0
  0
LINE
  8
SUNPOU
 10
3287.49926
 20
3579.557407
 30
0.0
 11
3287.499261
 21
3519.557407
 31
0.0
  0
TEXT
  8
SUNPOU
 10
3242.49926
 20
3686.307407
 30
0.0
 40
45.0
  1
100
 50
90.0
  7
K
 72
     1
 11
3242.49926
 21
3753.807407
 31
0.0
  0
LINE
  8
SUNPOU
 10
1473.49926
 20
3549.557407
 30
0.0
 11
1473.49926
 21
3234.557407
 31
0.0
  0
LINE
  8
SUNPOU
 10
3051.49926
 20
3549.557407
 30
0.0
 11
3051.49926
 21
3234.557407
 31
0.0
  0
LINE
  8
SUNPOU
 10
1473.49926
 20
3264.557407
 30
0.0
 11
3051.49926
 21
3264.557407
 31
0.0
  0
INSERT
  8
SUNPOU
  2
ARROWANG
 10
1473.49926
 20
3264.557407
 30
0.0
 41
30.0
 42
30.0
 50
180.0
 43
30.0
  0
INSERT
  8
SUNPOU
  2
ARROWANG
 10
3051.49926
 20
3264.557407
 30
0.0
 41
30.0
 42
30.0
 43
30.0
  0
TEXT
  8
SUNPOU
 10
2173.570703
 20
3309.557407
 30
0.0
 40
45.0
  1
1578
  7
K
 72
     1
 11
2262.499275
 21
3309.557407
 31
0.0
  0
LINE
  8
SUNPOU
 10
1484.49926
 20
3534.557407
 30
0.0
 11
1484.49926
 21
3384.557407
 31
0.0
  0
LINE
  8
SUNPOU
 10
3040.49926
 20
3534.557407
 30
0.0
 11
3040.49926
 21
3384.557407
 31
0.0
  0
LINE
  8
SUNPOU
 10
1484.49926
 20
3414.557407
 30
0.0
 11
3040.49926
 21
3414.557407
 31
0.0
  0
INSERT
  8
SUNPOU
  2
ARROWANG
 10
1484.49926
 20
3414.557407
 30
0.0
 41
30.0
 42
30.0
 50
180.0
 43
30.0
  0
INSERT
  8
SUNPOU
  2
ARROWANG
 10
3040.49926
 20
3414.557407
 30
0.0
 41
30.0
 42
30.0
 43
30.0
  0
TEXT
  8
SUNPOU
 10
2173.570703
 20
3459.557407
 30
0.0
 40
45.0
  1
1556
  7
K
 72
     1
 11
2262.499275
 21
3459.557407
 31
0.0
  0
LINE
  8
SUNPOU
 10
1762.49926
 20
3564.557407
 30
0.0
 11
1762.49926
 21
3564.557407
 31
0.0
  0
LINE
  8
SUNPOU
 10
1762.49926
 20
3714.557407
 30
0.0
 11
1762.49926
 21
3714.557407
 31
0.0
  0
LINE
  8
SUNPOU
 10
1792.49926
 20
3564.557407
 30
0.0
 11
1792.49926
 21
3714.557407
 31
0.0
  0
INSERT
  8
SUNPOU
  2
ARROWANG
 10
1792.49926
 20
3564.557407
 30
0.0
 41
30.0
 42
30.0
 50
270.0
 43
30.0
  0
INSERT
  8
SUNPOU
  2
ARROWANG
 10
1792.49926
 20
3714.557407
 30
0.0
 41
30.0
 42
30.0
 50
90.0
 43
30.0
  0
TEXT
  8
SUNPOU
 10
1747.49926
 20
3572.057407
 30
0.0
 40
45.0
  1
150
 50
90.0
  7
K
 72
     1
 11
1747.49926
 21
3639.557407
 31
0.0
  0
LINE
  8
SUNPOU
 10
1822.49926
 20
3714.557407
 30
0.0
 11
1822.49926
 21
3714.557407
 31
0.0
  0
LINE
  8
SUNPOU
 10
1822.49926
 20
4014.557407
 30
0.0
 11
1822.49926
 21
4014.557407
 31
0.0
  0
LINE
  8
SUNPOU
 10
1792.49926
 20
3714.557407
 30
0.0
 11
1792.49926
 21
4014.557407
 31
0.0
  0
INSERT
  8
SUNPOU
  2
ARROWANG
 10
1792.49926
 20
3714.557407
 30
0.0
 41
30.0
 42
30.0
 50
270.0
 43
30.0
  0
INSERT
  8
SUNPOU
  2
ARROWANG
 10
1792.49926
 20
4014.557407
 30
0.0
 41
30.0
 42
30.0
 50
90.0
 43
30.0
  0
TEXT
  8
SUNPOU
 10
1747.49926
 20
3800.271693
 30
0.0
 40
45.0
  1
300
 50
90.0
  7
K
 72
     1
 11
1747.49926
 21
3864.557407
 31
0.0
  0
LINE
  8
SUNPOU
 10
1762.49926
 20
4014.557407
 30
0.0
 11
1762.49926
 21
4014.557407
 31
0.0
  0
LINE
  8
SUNPOU
 10
1762.49926
 20
4314.557407
 30
0.0
 11
1762.49926
 21
4314.557407
 31
0.0
  0
LINE
  8
SUNPOU
 10
1792.49926
 20
4014.557407
 30
0.0
 11
1792.49926
 21
4314.557407
 31
0.0
  0
INSERT
  8
SUNPOU
  2
ARROWANG
 10
1792.49926
 20
4014.557407
 30
0.0
 41
30.0
 42
30.0
 50
270.0
 43
30.0
  0
INSERT
  8
SUNPOU
  2
ARROWANG
 10
1792.49926
 20
4314.557407
 30
0.0
 41
30.0
 42
30.0
 50
90.0
 43
30.0
  0
TEXT
  8
SUNPOU
 10
1747.49926
 20
4100.271693
 30
0.0
 40
45.0
  1
300
 50
90.0
  7
K
 72
     1
 11
1747.49926
 21
4164.557407
 31
0.0
  0
LINE
  8
SUNPOU
 10
1822.49926
 20
4314.557407
 30
0.0
 11
1822.49926
 21
4314.557407
 31
0.0
  0
LINE
  8
SUNPOU
 10
1822.49926
 20
4614.557407
 30
0.0
 11
1822.49926
 21
4614.557407
 31
0.0
  0
LINE
  8
SUNPOU
 10
1792.49926
 20
4314.557407
 30
0.0
 11
1792.49926
 21
4614.557407
 31
0.0
  0
INSERT
  8
SUNPOU
  2
ARROWANG
 10
1792.49926
 20
4314.557407
 30
0.0
 41
30.0
 42
30.0
 50
270.0
 43
30.0
  0
INSERT
  8
SUNPOU
  2
ARROWANG
 10
1792.49926
 20
4614.557407
 30
0.0
 41
30.0
 42
30.0
 50
90.0
 43
30.0
  0
TEXT
  8
SUNPOU
 10
1747.49926
 20
4400.271693
 30
0.0
 40
45.0
  1
300
 50
90.0
  7
K
 72
     1
 11
1747.49926
 21
4464.557407
 31
0.0
  0
LINE
  8
SUNPOU
 10
1762.49926
 20
4614.557407
 30
0.0
 11
1762.49926
 21
4614.557407
 31
0.0
  0
LINE
  8
SUNPOU
 10
1762.49926
 20
4914.557407
 30
0.0
 11
1762.49926
 21
4914.557407
 31
0.0
  0
LINE
  8
SUNPOU
 10
1792.49926
 20
4614.557407
 30
0.0
 11
1792.49926
 21
4914.557407
 31
0.0
  0
INSERT
  8
SUNPOU
  2
ARROWANG
 10
1792.49926
 20
4614.557407
 30
0.0
 41
30.0
 42
30.0
 50
270.0
 43
30.0
  0
INSERT
  8
SUNPOU
  2
ARROWANG
 10
1792.49926
 20
4914.557407
 30
0.0
 41
30.0
 42
30.0
 50
90.0
 43
30.0
  0
TEXT
  8
SUNPOU
 10
1747.49926
 20
4700.271693
 30
0.0
 40
45.0
  1
300
 50
90.0
  7
K
 72
     1
 11
1747.49926
 21
4764.557407
 31
0.0
  0
LINE
  8
SUNPOU
 10
1762.49926
 20
4914.557407
 30
0.0
 11
1762.49926
 21
4914.557407
 31
0.0
  0
LINE
  8
SUNPOU
 10
1762.49926
 20
5214.557407
 30
0.0
 11
1762.49926
 21
5214.557407
 31
0.0
  0
LINE
  8
SUNPOU
 10
1792.49926
 20
4914.557407
 30
0.0
 11
1792.49926
 21
5214.557407
 31
0.0
  0
INSERT
  8
SUNPOU
  2
ARROWANG
 10
1792.49926
 20
4914.557407
 30
0.0
 41
30.0
 42
30.0
 50
270.0
 43
30.0
  0
INSERT
  8
SUNPOU
  2
ARROWANG
 10
1792.49926
 20
5214.557407
 30
0.0
 41
30.0
 42
30.0
 50
90.0
 43
30.0
  0
TEXT
  8
SUNPOU
 10
1747.49926
 20
5000.271693
 30
0.0
 40
45.0
  1
300
 50
90.0
  7
K
 72
     1
 11
1747.49926
 21
5064.557407
 31
0.0
  0
LINE
  8
SUNPOU
 10
1762.49926
 20
5214.557407
 30
0.0
 11
1762.49926
 21
5214.557407
 31
0.0
  0
LINE
  8
SUNPOU
 10
1762.49926
 20
5514.557407
 30
0.0
 11
1762.49926
 21
5514.557407
 31
0.0
  0
LINE
  8
SUNPOU
 10
1792.49926
 20
5214.557407
 30
0.0
 11
1792.49926
 21
5514.557407
 31
0.0
  0
INSERT
  8
SUNPOU
  2
ARROWANG
 10
1792.49926
 20
5214.557407
 30
0.0
 41
30.0
 42
30.0
 50
270.0
 43
30.0
  0
INSERT
  8
SUNPOU
  2
ARROWANG
 10
1792.49926
 20
5514.557407
 30
0.0
 41
30.0
 42
30.0
 50
90.0
 43
30.0
  0
TEXT
  8
SUNPOU
 10
1747.49926
 20
5300.271693
 30
0.0
 40
45.0
  1
300
 50
90.0
  7
K
 72
     1
 11
1747.49926
 21
5364.557407
 31
0.0
  0
LINE
  8
SUNPOU
 10
1762.49926
 20
5514.557407
 30
0.0
 11
1762.49926
 21
5514.557407
 31
0.0
  0
LINE
  8
SUNPOU
 10
1762.49926
 20
5814.557407
 30
0.0
 11
1762.49926
 21
5814.557407
 31
0.0
  0
LINE
  8
SUNPOU
 10
1792.49926
 20
5514.557407
 30
0.0
 11
1792.49926
 21
5814.557407
 31
0.0
  0
INSERT
  8
SUNPOU
  2
ARROWANG
 10
1792.49926
 20
5514.557407
 30
0.0
 41
30.0
 42
30.0
 50
270.0
 43
30.0
  0
INSERT
  8
SUNPOU
  2
ARROWANG
 10
1792.49926
 20
5814.557407
 30
0.0
 41
30.0
 42
30.0
 50
90.0
 43
30.0
  0
TEXT
  8
SUNPOU
 10
1747.49926
 20
5600.271693
 30
0.0
 40
45.0
  1
300
 50
90.0
  7
K
 72
     1
 11
1747.49926
 21
5664.557407
 31
0.0
  0
LINE
  8
SUNPOU
 10
1912.49926
 20
3564.557407
 30
0.0
 11
1912.49926
 21
3564.557407
 31
0.0
  0
LINE
  8
SUNPOU
 10
1912.49926
 20
5956.557407
 30
0.0
 11
1912.49926
 21
5956.557407
 31
0.0
  0
LINE
  8
SUNPOU
 10
1942.49926
 20
3564.557407
 30
0.0
 11
1942.49926
 21
5956.557407
 31
0.0
  0
INSERT
  8
SUNPOU
  2
ARROWANG
 10
1942.49926
 20
3564.557407
 30
0.0
 41
30.0
 42
30.0
 50
270.0
 43
30.0
  0
INSERT
  8
SUNPOU
  2
ARROWANG
 10
1942.49926
 20
5956.557407
 30
0.0
 41
30.0
 42
30.0
 50
90.0
 43
30.0
  0
TEXT
  8
SUNPOU
 10
1897.49926
 20
4674.843121
 30
0.0
 40
45.0
  1
2392
 50
90.0
  7
K
 72
     1
 11
1897.49926
 21
4760.557407
 31
0.0
  0
LINE
  8
SUNPOU
 10
10138.034177
 20
1829.171468
 30
0.0
 11
10138.034177
 21
1829.171468
 31
0.0
  0
LINE
  8
SUNPOU
 10
4442.153564
 20
3864.557407
 30
0.0
 11
4442.153564
 21
5956.557407
 31
0.0
  0
LINE
  8
SUNPOU
 10
4412.153564
 20
5956.557407
 30
0.0
 11
4412.153564
 21
5956.557407
 31
0.0
  0
LINE
  8
SUNPOU
 10
4412.153564
 20
3864.557407
 30
0.0
 11
4412.153564
 21
3864.557407
 31
0.0
  0
TEXT
  8
SUNPOU
 10
4247.153564
 20
5600.271693
 30
0.0
 40
45.0
  1
300
 50
90.0
  7
K
 72
     1
 11
4247.153564
 21
5664.557407
 31
0.0
  0
INSERT
  8
SUNPOU
  2
ARROWANG
 10
4292.153564
 20
5814.557407
 30
0.0
 41
30.0
 42
30.0
 50
90.0
 43
30.0
  0
INSERT
  8
SUNPOU
  2
ARROWANG
 10
4292.153564
 20
5514.557407
 30
0.0
 41
30.0
 42
30.0
 50
270.0
 43
30.0
  0
LINE
  8
SUNPOU
 10
4292.153564
 20
5514.557407
 30
0.0
 11
4292.153564
 21
5814.557407
 31
0.0
  0
LINE
  8
SUNPOU
 10
4262.153564
 20
5814.557407
 30
0.0
 11
4262.153564
 21
5814.557407
 31
0.0
  0
LINE
  8
SUNPOU
 10
4262.153564
 20
5514.557407
 30
0.0
 11
4262.153564
 21
5514.557407
 31
0.0
  0
TEXT
  8
SUNPOU
 10
4247.153564
 20
5300.271693
 30
0.0
 40
45.0
  1
300
 50
90.0
  7
K
 72
     1
 11
4247.153564
 21
5364.557407
 31
0.0
  0
INSERT
  8
SUNPOU
  2
ARROWANG
 10
4292.153564
 20
5514.557407
 30
0.0
 41
30.0
 42
30.0
 50
90.0
 43
30.0
  0
INSERT
  8
SUNPOU
  2
ARROWANG
 10
4292.153564
 20
5214.557407
 30
0.0
 41
30.0
 42
30.0
 50
270.0
 43
30.0
  0
LINE
  8
SUNPOU
 10
4292.153564
 20
5214.557407
 30
0.0
 11
4292.153564
 21
5514.557407
 31
0.0
  0
LINE
  8
SUNPOU
 10
4262.153564
 20
5514.557407
 30
0.0
 11
4262.153564
 21
5514.557407
 31
0.0
  0
LINE
  8
SUNPOU
 10
4262.153564
 20
5214.557407
 30
0.0
 11
4262.153564
 21
5214.557407
 31
0.0
  0
TEXT
  8
SUNPOU
 10
4247.153564
 20
5000.271693
 30
0.0
 40
45.0
  1
300
 50
90.0
  7
K
 72
     1
 11
4247.153564
 21
5064.557407
 31
0.0
  0
INSERT
  8
SUNPOU
  2
ARROWANG
 10
4292.153564
 20
5214.557407
 30
0.0
 41
30.0
 42
30.0
 50
90.0
 43
30.0
  0
INSERT
  8
SUNPOU
  2
ARROWANG
 10
4292.153564
 20
4914.557407
 30
0.0
 41
30.0
 42
30.0
 50
270.0
 43
30.0
  0
LINE
  8
SUNPOU
 10
4292.153564
 20
4914.557407
 30
0.0
 11
4292.153564
 21
5214.557407
 31
0.0
  0
LINE
  8
SUNPOU
 10
4262.153564
 20
5214.557407
 30
0.0
 11
4262.153564
 21
5214.557407
 31
0.0
  0
LINE
  8
SUNPOU
 10
4262.153564
 20
4914.557407
 30
0.0
 11
4262.153564
 21
4914.557407
 31
0.0
  0
TEXT
  8
SUNPOU
 10
4247.153564
 20
4700.271693
 30
0.0
 40
45.0
  1
300
 50
90.0
  7
K
 72
     1
 11
4247.153564
 21
4764.557407
 31
0.0
  0
INSERT
  8
SUNPOU
  2
ARROWANG
 10
4292.153564
 20
4914.557407
 30
0.0
 41
30.0
 42
30.0
 50
90.0
 43
30.0
  0
INSERT
  8
SUNPOU
  2
ARROWANG
 10
4292.153564
 20
4614.557407
 30
0.0
 41
30.0
 42
30.0
 50
270.0
 43
30.0
  0
LINE
  8
SUNPOU
 10
4292.153564
 20
4614.557407
 30
0.0
 11
4292.153564
 21
4914.557407
 31
0.0
  0
LINE
  8
SUNPOU
 10
4262.153564
 20
4914.557407
 30
0.0
 11
4262.153564
 21
4914.557407
 31
0.0
  0
LINE
  8
SUNPOU
 10
4262.153564
 20
4614.557407
 30
0.0
 11
4262.153564
 21
4614.557407
 31
0.0
  0
TEXT
  8
SUNPOU
 10
4247.153564
 20
4400.271693
 30
0.0
 40
45.0
  1
300
 50
90.0
  7
K
 72
     1
 11
4247.153564
 21
4464.557407
 31
0.0
  0
INSERT
  8
SUNPOU
  2
ARROWANG
 10
4292.153564
 20
4614.557407
 30
0.0
 41
30.0
 42
30.0
 50
90.0
 43
30.0
  0
INSERT
  8
SUNPOU
  2
ARROWANG
 10
4292.153564
 20
4314.557407
 30
0.0
 41
30.0
 42
30.0
 50
270.0
 43
30.0
  0
LINE
  8
SUNPOU
 10
4292.153564
 20
4314.557407
 30
0.0
 11
4292.153564
 21
4614.557407
 31
0.0
  0
LINE
  8
SUNPOU
 10
4322.153564
 20
4614.557407
 30
0.0
 11
4322.153564
 21
4614.557407
 31
0.0
  0
LINE
  8
SUNPOU
 10
4322.153564
 20
4314.557407
 30
0.0
 11
4322.153564
 21
4314.557407
 31
0.0
  0
INSERT
  8
SUNPOU
  2
ARROWANG
 10
4292.153564
 20
4314.557407
 30
0.0
 41
30.0
 42
30.0
 50
270.0
 43
30.0
  0
LINE
  8
SUNPOU
 10
4292.153564
 20
4314.557407
 30
0.0
 11
4292.153564
 21
4314.557407
 31
0.0
  0
LINE
  8
SUNPOU
 10
4262.153564
 20
4314.557407
 30
0.0
 11
4262.153564
 21
4314.557407
 31
0.0
  0
LINE
  8
SUNPOU
 10
4262.153564
 20
4314.557407
 30
0.0
 11
4262.153564
 21
4314.557407
 31
0.0
  0
LINE
  8
SUNPOU
 10
4322.153564
 20
4314.557407
 30
0.0
 11
4322.153564
 21
4314.557407
 31
0.0
  0
LINE
  8
SUNPOU
 10
4322.153564
 20
4014.557407
 30
0.0
 11
4322.153564
 21
4014.557407
 31
0.0
  0
TEXT
  8
SUNPOU
 10
4247.153564
 20
3872.057407
 30
0.0
 40
45.0
  1
150
 50
90.0
  7
K
 72
     1
 11
4247.153564
 21
3939.557407
 31
0.0
  0
INSERT
  8
SUNPOU
  2
ARROWANG
 10
4292.153564
 20
4014.557407
 30
0.0
 41
30.0
 42
30.0
 50
90.0
 43
30.0
  0
INSERT
  8
SUNPOU
  2
ARROWANG
 10
4292.153564
 20
3864.557407
 30
0.0
 41
30.0
 42
30.0
 50
270.0
 43
30.0
  0
LINE
  8
SUNPOU
 10
4292.153564
 20
3864.557407
 30
0.0
 11
4292.153564
 21
4014.557407
 31
0.0
  0
LINE
  8
SUNPOU
 10
4262.153564
 20
4014.557407
 30
0.0
 11
4262.153564
 21
4014.557407
 31
0.0
  0
LINE
  8
SUNPOU
 10
4262.153564
 20
3864.557407
 30
0.0
 11
4262.153564
 21
3864.557407
 31
0.0
  0
TEXT
  8
SUNPOU
 10
4673.225007
 20
3759.557407
 30
0.0
 40
45.0
  1
1556
  7
K
 72
     1
 11
4762.153579
 21
3759.557407
 31
0.0
  0
INSERT
  8
SUNPOU
  2
ARROWANG
 10
5540.153564
 20
3714.557407
 30
0.0
 41
30.0
 42
30.0
 43
30.0
  0
INSERT
  8
SUNPOU
  2
ARROWANG
 10
3984.153564
 20
3714.557407
 30
0.0
 41
30.0
 42
30.0
 50
180.0
 43
30.0
  0
LINE
  8
SUNPOU
 10
3984.153564
 20
3714.557407
 30
0.0
 11
5540.153564
 21
3714.557407
 31
0.0
  0
LINE
  8
SUNPOU
 10
5540.153564
 20
3834.557407
 30
0.0
 11
5540.153564
 21
3684.557407
 31
0.0
  0
LINE
  8
SUNPOU
 10
3984.153564
 20
3834.557407
 30
0.0
 11
3984.153564
 21
3684.557407
 31
0.0
  0
TEXT
  8
SUNPOU
 10
4673.225007
 20
3609.557407
 30
0.0
 40
45.0
  1
1578
  7
K
 72
     1
 11
4762.153579
 21
3609.557407
 31
0.0
  0
INSERT
  8
SUNPOU
  2
ARROWANG
 10
5551.153564
 20
3564.557407
 30
0.0
 41
30.0
 42
30.0
 43
30.0
  0
INSERT
  8
SUNPOU
  2
ARROWANG
 10
3973.153564
 20
3564.557407
 30
0.0
 41
30.0
 42
30.0
 50
180.0
 43
30.0
  0
LINE
  8
SUNPOU
 10
3973.153564
 20
3564.557407
 30
0.0
 11
5551.153564
 21
3564.557407
 31
0.0
  0
LINE
  8
SUNPOU
 10
5551.153564
 20
3849.557407
 30
0.0
 11
5551.153564
 21
3534.557407
 31
0.0
  0
LINE
  8
SUNPOU
 10
3973.153564
 20
3849.557407
 30
0.0
 11
3973.153564
 21
3534.557407
 31
0.0
  0
TEXT
  8
SUNPOU
 10
5742.153564
 20
3986.307407
 30
0.0
 40
45.0
  1
100
 50
90.0
  7
K
 72
     1
 11
5742.153564
 21
4053.807407
 31
0.0
  0
LINE
  8
SUNPOU
 10
5787.153564
 20
3879.557407
 30
0.0
 11
5787.153565
 21
3819.557407
 31
0.0
  0
LINE
  8
SUNPOU
 10
5787.153564
 20
3979.557407
 30
0.0
 11
5787.153564
 21
4121.307407
 31
0.0
  0
INSERT
  8
SUNPOU
  2
ARROWANG
 10
5787.153564
 20
3979.557407
 30
0.0
 41
30.0
 42
30.0
 50
270.0
 43
30.0
  0
INSERT
  8
SUNPOU
  2
ARROWANG
 10
5787.153564
 20
3879.557407
 30
0.0
 41
30.0
 42
30.0
 50
90.0
 43
30.0
  0
LINE
  8
SUNPOU
 10
5787.153564
 20
3879.557407
 30
0.0
 11
5787.153564
 21
3979.557407
 31
0.0
  0
LINE
  8
SUNPOU
 10
5475.871997
 20
3979.557407
 30
0.0
 11
5817.153564
 21
3979.557407
 31
0.0
  0
LINE
  8
SUNPOU
 10
5667.153564
 20
3879.557407
 30
0.0
 11
5817.153564
 21
3879.557407
 31
0.0
  0
TEXT
  8
SUNPOU
 10
5742.153564
 20
5737.807407
 30
0.0
 40
45.0
  1
100
 50
90.0
  7
K
 72
     1
 11
5742.153564
 21
5805.307407
 31
0.0
  0
LINE
  8
SUNPOU
 10
5787.153564
 20
5979.557407
 30
0.0
 11
5787.153564
 21
6039.557407
 31
0.0
  0
LINE
  8
SUNPOU
 10
5787.153564
 20
5879.557407
 30
0.0
 11
5787.153564
 21
5737.807407
 31
0.0
  0
INSERT
  8
SUNPOU
  2
ARROWANG
 10
5787.153564
 20
5979.557407
 30
0.0
 41
30.0
 42
30.0
 50
270.0
 43
30.0
  0
INSERT
  8
SUNPOU
  2
ARROWANG
 10
5787.153564
 20
5879.557407
 30
0.0
 41
30.0
 42
30.0
 50
90.0
 43
30.0
  0
LINE
  8
SUNPOU
 10
5787.153564
 20
5879.557407
 30
0.0
 11
5787.153564
 21
5979.557407
 31
0.0
  0
LINE
  8
SUNPOU
 10
5667.153564
 20
5979.557407
 30
0.0
 11
5817.153564
 21
5979.557407
 31
0.0
  0
LINE
  8
SUNPOU
 10
5475.871997
 20
5879.557407
 30
0.0
 11
5817.153564
 21
5879.557407
 31
0.0
  0
LINE
  8
SUNPOU
 10
3587.153564
 20
3864.557407
 30
0.0
 11
3587.153564
 21
3804.557407
 31
0.0
  0
LINE
  8
SUNPOU
 10
3587.153564
 20
3879.557407
 30
0.0
 11
3587.153564
 21
3939.557407
 31
0.0
  0
TEXT
  8
SUNPOU
 10
3542.153564
 20
3825.985978
 30
0.0
 40
45.0
  1
15
 50
90.0
  7
K
 72
     1
 11
3542.153564
 21
3872.057407
 31
0.0
  0
INSERT
  8
SUNPOU
  2
ARROWANG
 10
3587.153564
 20
3879.557407
 30
0.0
 41
30.0
 42
30.0
 50
270.0
 43
30.0
  0
INSERT
  8
SUNPOU
  2
ARROWANG
 10
3587.153564
 20
3864.557407
 30
0.0
 41
30.0
 42
30.0
 50
90.0
 43
30.0
  0
LINE
  8
SUNPOU
 10
3587.153564
 20
3864.557407
 30
0.0
 11
3587.153564
 21
3879.557407
 31
0.0
  0
LINE
  8
SUNPOU
 10
3617.153564
 20
3879.557407
 30
0.0
 11
3617.153564
 21
3879.557407
 31
0.0
  0
LINE
  8
SUNPOU
 10
3954.153564
 20
3864.557407
 30
0.0
 11
3557.153564
 21
3864.557407
 31
0.0
  0
TEXT
  8
SUNPOU
 10
3692.153564
 20
5986.200264
 30
0.0
 40
45.0
  1
23
 50
90.0
  7
K
 72
     1
 11
3692.153564
 21
6029.057407
 31
0.0
  0
LINE
  8
SUNPOU
 10
3737.153564
 20
5956.557407
 30
0.0
 11
3737.153565
 21
5896.557407
 31
0.0
  0
LINE
  8
SUNPOU
 10
3737.153564
 20
5979.557407
 30
0.0
 11
3737.153564
 21
6078.557407
 31
0.0
  0
INSERT
  8
SUNPOU
  2
ARROWANG
 10
3737.153564
 20
5979.557407
 30
0.0
 41
30.0
 42
30.0
 50
270.0
 43
30.0
  0
INSERT
  8
SUNPOU
  2
ARROWANG
 10
3737.153564
 20
5956.557407
 30
0.0
 41
30.0
 42
30.0
 50
90.0
 43
30.0
  0
LINE
  8
SUNPOU
 10
3737.153564
 20
5956.557407
 30
0.0
 11
3737.153564
 21
5979.557407
 31
0.0
  0
LINE
  8
SUNPOU
 10
3767.153564
 20
5979.557407
 30
0.0
 11
3767.153564
 21
5979.557407
 31
0.0
  0
LINE
  8
SUNPOU
 10
3949.153564
 20
5956.557407
 30
0.0
 11
3707.153564
 21
5956.557407
 31
0.0
  0
LINE
  8
SUNPOU
 10
3767.153564
 20
5979.557407
 30
0.0
 11
3767.153564
 21
5979.557407
 31
0.0
  0
LINE
  8
SUNPOU
 10
3857.153564
 20
5979.557407
 30
0.0
 11
3557.153564
 21
5979.557407
 31
0.0
  0
LINE
  8
SUNPOU
 10
3857.153564
 20
3879.557407
 30
0.0
 11
3557.153564
 21
3879.557407
 31
0.0
  0
TEXT
  8
SUNPOU
 10
4673.225007
 20
6124.557407
 30
0.0
 40
45.0
  1
1566
  7
K
 72
     1
 11
4762.153579
 21
6124.557407
 31
0.0
  0
INSERT
  8
SUNPOU
  2
ARROWANG
 10
5545.153564
 20
6079.557407
 30
0.0
 41
30.0
 42
30.0
 43
30.0
  0
INSERT
  8
SUNPOU
  2
ARROWANG
 10
3979.153564
 20
6079.557407
 30
0.0
 41
30.0
 42
30.0
 50
180.0
 43
30.0
  0
LINE
  8
SUNPOU
 10
3979.153564
 20
6079.557407
 30
0.0
 11
5545.153564
 21
6079.557407
 31
0.0
  0
LINE
  8
SUNPOU
 10
5545.153564
 20
5986.557407
 30
0.0
 11
5545.153564
 21
6109.557407
 31
0.0
  0
LINE
  8
SUNPOU
 10
3979.153564
 20
5986.557407
 30
0.0
 11
3979.153564
 21
6109.557407
 31
0.0
  0
TEXT
  8
SUNPOU
 10
4673.225007
 20
6224.557407
 30
0.0
 40
45.0
  1
1580
  7
K
 72
     1
 11
4762.153579
 21
6224.557407
 31
0.0
  0
INSERT
  8
SUNPOU
  2
ARROWANG
 10
5552.153564
 20
6179.557407
 30
0.0
 41
30.0
 42
30.0
 43
30.0
  0
INSERT
  8
SUNPOU
  2
ARROWANG
 10
3972.153564
 20
6179.557407
 30
0.0
 41
30.0
 42
30.0
 50
180.0
 43
30.0
  0
LINE
  8
SUNPOU
 10
3972.153564
 20
6179.557407
 30
0.0
 11
5552.153564
 21
6179.557407
 31
0.0
  0
LINE
  8
SUNPOU
 10
5552.153564
 20
6009.557407
 30
0.0
 11
5552.153564
 21
6209.557407
 31
0.0
  0
LINE
  8
SUNPOU
 10
3972.153564
 20
6009.557407
 30
0.0
 11
3972.153564
 21
6209.557407
 31
0.0
  0
TEXT
  8
SUNPOU
 10
5507.153579
 20
6324.557407
 30
0.0
 40
45.0
  1
125
  7
K
 72
     1
 11
5574.653579
 21
6324.557407
 31
0.0
  0
INSERT
  8
SUNPOU
  2
ARROWANG
 10
5637.153564
 20
6279.557407
 30
0.0
 41
30.0
 42
30.0
 43
30.0
  0
INSERT
  8
SUNPOU
  2
ARROWANG
 10
5512.153564
 20
6279.557407
 30
0.0
 41
30.0
 42
30.0
 50
180.0
 43
30.0
  0
LINE
  8
SUNPOU
 10
5512.153564
 20
6279.557407
 30
0.0
 11
5637.153564
 21
6279.557407
 31
0.0
  0
LINE
  8
SUNPOU
 10
5637.153564
 20
6009.557407
 30
0.0
 11
5637.153564
 21
6309.557407
 31
0.0
  0
LINE
  8
SUNPOU
 10
5512.153564
 20
5986.557407
 30
0.0
 11
5512.153564
 21
6309.557407
 31
0.0
  0
TEXT
  8
SUNPOU
 10
4673.225007
 20
6324.557407
 30
0.0
 40
45.0
  1
1500
  7
K
 72
     1
 11
4762.153579
 21
6324.557407
 31
0.0
  0
INSERT
  8
SUNPOU
  2
ARROWANG
 10
5512.153564
 20
6279.557407
 30
0.0
 41
30.0
 42
30.0
 43
30.0
  0
INSERT
  8
SUNPOU
  2
ARROWANG
 10
4012.153564
 20
6279.557407
 30
0.0
 41
30.0
 42
30.0
 50
180.0
 43
30.0
  0
LINE
  8
SUNPOU
 10
4012.153564
 20
6279.557407
 30
0.0
 11
5512.153564
 21
6279.557407
 31
0.0
  0
LINE
  8
SUNPOU
 10
4012.153564
 20
6249.557407
 30
0.0
 11
4012.153564
 21
6249.557407
 31
0.0
  0
TEXT
  8
SUNPOU
 10
3886.051445
 20
6324.557407
 30
0.0
 40
45.0
  1
125
  7
K
 72
     1
 11
3953.551445
 21
6324.557407
 31
0.0
  0
INSERT
  8
SUNPOU
  2
ARROWANG
 10
3887.153564
 20
6279.557407
 30
0.0
 41
30.0
 42
30.0
 50
180.0
 43
30.0
  0
INSERT
  8
SUNPOU
  2
ARROWANG
 10
4012.153564
 20
6279.557407
 30
0.0
 41
30.0
 42
30.0
 43
30.0
  0
LINE
  8
SUNPOU
 10
3887.153564
 20
6279.557407
 30
0.0
 11
4012.153564
 21
6279.557407
 31
0.0
  0
LINE
  8
SUNPOU
 10
4012.153564
 20
6306.984259
 30
0.0
 11
4012.153564
 21
6309.557407
 31
0.0
  0
LINE
  8
SUNPOU
 10
3887.153564
 20
6306.984259
 30
0.0
 11
3887.153564
 21
6309.557407
 31
0.0
  0
LINE
  8
SUNPOU
 10
4012.153564
 20
5986.557407
 30
0.0
 11
4012.153564
 21
6309.557407
 31
0.0
  0
LINE
  8
SUNPOU
 10
3887.153564
 20
6009.557407
 30
0.0
 11
3887.153564
 21
6309.557407
 31
0.0
  0
LINE
  8
ITTEN
 10
5445.871997
 20
5879.557407
 30
0.0
 11
5315.871997
 21
5879.557407
 31
0.0
  0
LINE
  8
ITTEN
 10
5380.871997
 20
5944.557407
 30
0.0
 11
5380.871997
 21
5814.557407
 31
0.0
  0
LINE
  8
ITTEN
 10
4208.43513
 20
5879.557407
 30
0.0
 11
4078.43513
 21
5879.557407
 31
0.0
  0
LINE
  8
ITTEN
 10
4143.43513
 20
5944.557407
 30
0.0
 11
4143.43513
 21
5814.557407
 31
0.0
  0
LINE
  8
ITTEN
 10
5445.871997
 20
3979.557407
 30
0.0
 11
5315.871997
 21
3979.557407
 31
0.0
  0
LINE
  8
ITTEN
 10
5380.871997
 20
4044.557407
 30
0.0
 11
5380.871997
 21
3914.557407
 31
0.0
  0
LINE
  8
ITTEN
 10
4208.43513
 20
3979.557407
 30
0.0
 11
4078.43513
 21
3979.557407
 31
0.0
  0
LINE
  8
ITTEN
 10
4143.43513
 20
4044.557407
 30
0.0
 11
4143.43513
 21
3914.557407
 31
0.0
  0
CIRCLE
  8
JISSEN
 10
5380.871997
 20
5879.557407
 30
0.0
 40
15.0
  0
CIRCLE
  8
TENSEN
 10
4143.43513
 20
5879.557407
 30
0.0
 40
15.0
  0
CIRCLE
  8
TENSEN
 10
4143.43513
 20
3979.557407
 30
0.0
 40
15.0
  0
CIRCLE
  8
JISSEN
 10
5380.871997
 20
3979.557407
 30
0.0
 40
15.0
  0
LINE
  8
TENSEN
 10
4762.153564
 20
5956.557407
 30
0.0
 11
5512.153564
 21
5956.557407
 31
0.0
  0
ARC
  8
JISSEN
 10
4132.153564
 20
5814.557407
 30
0.0
 40
10.0
 50
270.0
 51
90.0
  0
LINE
  8
JISSEN
 10
4132.153564
 20
5804.557407
 30
0.0
 11
4012.153564
 21
5804.557407
 31
0.0
  0
LINE
  8
JISSEN
 10
4012.153564
 20
5824.557407
 30
0.0
 11
4132.153564
 21
5824.557407
 31
0.0
  0
LINE
  8
ITTEN
 10
3956.03771
 20
5814.557407
 30
0.0
 11
4312.153564
 21
5814.557407
 31
0.0
  0
ARC
  8
JISSEN
 10
4132.153564
 20
5514.557407
 30
0.0
 40
10.0
 50
270.0
 51
90.0
  0
LINE
  8
JISSEN
 10
4132.153564
 20
5504.557407
 30
0.0
 11
4012.153564
 21
5504.557407
 31
0.0
  0
LINE
  8
JISSEN
 10
4012.153564
 20
5524.557407
 30
0.0
 11
4132.153564
 21
5524.557407
 31
0.0
  0
LINE
  8
ITTEN
 10
3956.03771
 20
5514.557407
 30
0.0
 11
4312.153564
 21
5514.557407
 31
0.0
  0
ARC
  8
JISSEN
 10
4132.153564
 20
5214.557407
 30
0.0
 40
10.0
 50
270.0
 51
90.0
  0
LINE
  8
JISSEN
 10
4132.153564
 20
5204.557407
 30
0.0
 11
4012.153564
 21
5204.557407
 31
0.0
  0
LINE
  8
JISSEN
 10
4012.153564
 20
5224.557407
 30
0.0
 11
4132.153564
 21
5224.557407
 31
0.0
  0
LINE
  8
ITTEN
 10
3956.03771
 20
5214.557407
 30
0.0
 11
4312.153564
 21
5214.557407
 31
0.0
  0
ARC
  8
JISSEN
 10
4132.153564
 20
4914.557407
 30
0.0
 40
10.0
 50
270.0
 51
90.0
  0
LINE
  8
JISSEN
 10
4132.153564
 20
4904.557407
 30
0.0
 11
4012.153564
 21
4904.557407
 31
0.0
  0
LINE
  8
JISSEN
 10
4012.153564
 20
4924.557407
 30
0.0
 11
4132.153564
 21
4924.557407
 31
0.0
  0
LINE
  8
ITTEN
 10
3956.03771
 20
4914.557407
 30
0.0
 11
4312.153564
 21
4914.557407
 31
0.0
  0
ARC
  8
JISSEN
 10
4132.153564
 20
4614.557407
 30
0.0
 40
10.0
 50
270.0
 51
90.0
  0
LINE
  8
JISSEN
 10
4132.153564
 20
4604.557407
 30
0.0
 11
4012.153564
 21
4604.557407
 31
0.0
  0
LINE
  8
JISSEN
 10
4012.153564
 20
4624.557407
 30
0.0
 11
4132.153564
 21
4624.557407
 31
0.0
  0
LINE
  8
ITTEN
 10
3956.03771
 20
4614.557407
 30
0.0
 11
4312.153564
 21
4614.557407
 31
0.0
  0
ARC
  8
JISSEN
 10
4132.153564
 20
4314.557407
 30
0.0
 40
10.0
 50
270.0
 51
90.0
  0
LINE
  8
JISSEN
 10
4132.153564
 20
4304.557407
 30
0.0
 11
4012.153564
 21
4304.557407
 31
0.0
  0
LINE
  8
JISSEN
 10
4012.153564
 20
4324.557407
 30
0.0
 11
4132.153564
 21
4324.557407
 31
0.0
  0
LINE
  8
ITTEN
 10
3956.03771
 20
4314.557407
 30
0.0
 11
4312.153564
 21
4314.557407
 31
0.0
  0
LINE
  8
ITTEN
 10
3956.03771
 20
4014.557407
 30
0.0
 11
4312.153564
 21
4014.557407
 31
0.0
  0
LINE
  8
JISSEN
 10
4132.153564
 20
4004.557407
 30
0.0
 11
4012.153564
 21
4004.557407
 31
0.0
  0
LINE
  8
JISSEN
 10
4012.153564
 20
4024.557407
 30
0.0
 11
4132.153564
 21
4024.557407
 31
0.0
  0
ARC
  8
JISSEN
 10
4132.153564
 20
4014.557407
 30
0.0
 40
10.0
 50
270.0
 51
90.0
  0
LINE
  8
JISSEN
 10
3972.153564
 20
5979.557407
 30
0.0
 11
5552.153564
 21
5979.557407
 31
0.0
  0
LINE
  8
JISSEN
 10
5551.153564
 20
3879.557407
 30
0.0
 11
4762.153564
 21
3879.557407
 31
0.0
  0
LINE
  8
JISSEN
 10
4012.153564
 20
3864.557407
 30
0.0
 11
5512.153564
 21
3864.557407
 31
0.0
  0
LINE
  8
JISSEN
 10
4012.153564
 20
5956.557407
 30
0.0
 11
4762.153564
 21
5956.557407
 31
0.0
  0
LINE
  8
JISSEN
 10
5551.153564
 20
3879.557407
 30
0.0
 11
5540.153564
 21
3864.557407
 31
0.0
  0
LINE
  8
JISSEN
 10
5552.153564
 20
5979.557407
 30
0.0
 11
5545.153564
 21
5956.557407
 31
0.0
  0
LINE
  8
JISSEN
 10
5540.153564
 20
3864.557407
 30
0.0
 11
5512.153564
 21
3864.557407
 31
0.0
  0
LINE
  8
JISSEN
 10
5637.153564
 20
3879.557407
 30
0.0
 11
5551.153564
 21
3879.557407
 31
0.0
  0
LINE
  8
TENSEN
 10
5512.153564
 20
3864.557407
 30
0.0
 11
5512.153564
 21
5956.557407
 31
0.0
  0
LINE
  8
JISSEN
 10
5545.153564
 20
5956.557407
 30
0.0
 11
5512.153564
 21
5956.557407
 31
0.0
  0
LINE
  8
JISSEN
 10
5637.153564
 20
5979.557407
 30
0.0
 11
5637.153564
 21
3879.557407
 31
0.0
  0
LINE
  8
JISSEN
 10
5637.153564
 20
5979.557407
 30
0.0
 11
5552.153564
 21
5979.557407
 31
0.0
  0
LINE
  8
JISSEN
 10
4012.153564
 20
3864.557407
 30
0.0
 11
4012.153564
 21
5956.557407
 31
0.0
  0
LINE
  8
JISSEN
 10
3887.153564
 20
5979.557407
 30
0.0
 11
3887.153564
 21
3879.557407
 31
0.0
  0
LINE
  8
JISSEN
 10
3984.153564
 20
3864.557407
 30
0.0
 11
4012.153564
 21
3864.557407
 31
0.0
  0
LINE
  8
JISSEN
 10
3973.153564
 20
3879.557407
 30
0.0
 11
3984.153564
 21
3864.557407
 31
0.0
  0
LINE
  8
JISSEN
 10
3887.153564
 20
3879.557407
 30
0.0
 11
3973.153564
 21
3879.557407
 31
0.0
  0
LINE
  8
JISSEN
 10
3887.153564
 20
5979.557407
 30
0.0
 11
3887.153564
 21
5979.557407
 31
0.0
  0
LINE
  8
JISSEN
 10
3979.153564
 20
5956.557407
 30
0.0
 11
4012.153564
 21
5956.557407
 31
0.0
  0
LINE
  8
JISSEN
 10
3972.153564
 20
5979.557407
 30
0.0
 11
3979.153564
 21
5956.557407
 31
0.0
  0
LINE
  8
JISSEN
 10
3887.153564
 20
5979.557407
 30
0.0
 11
3972.153564
 21
5979.557407
 31
0.0
  0
LINE
  8
SUNPOU
 10
3557.153564
 20
3879.557407
 30
0.0
 11
3557.153564
 21
3879.557407
 31
0.0
  0
LINE
  8
SUNPOU
 10
3557.153564
 20
5979.557407
 30
0.0
 11
3557.153564
 21
5979.557407
 31
0.0
  0
LINE
  8
SUNPOU
 10
3587.153564
 20
3879.557407
 30
0.0
 11
3587.153564
 21
5979.557407
 31
0.0
  0
INSERT
  8
SUNPOU
  2
ARROWANG
 10
3587.153564
 20
3879.557407
 30
0.0
 41
30.0
 42
30.0
 50
270.0
 43
30.0
  0
INSERT
  8
SUNPOU
  2
ARROWANG
 10
3587.153564
 20
5979.557407
 30
0.0
 41
30.0
 42
30.0
 50
90.0
 43
30.0
  0
TEXT
  8
SUNPOU
 10
3542.153564
 20
4843.843121
 30
0.0
 40
45.0
  1
2100
 50
90.0
  7
K
 72
     1
 11
3542.153564
 21
4929.557407
 31
0.0
  0
LINE
  8
SUNPOU
 10
4262.153564
 20
4014.557407
 30
0.0
 11
4262.153564
 21
4014.557407
 31
0.0
  0
LINE
  8
SUNPOU
 10
4262.153564
 20
4314.557407
 30
0.0
 11
4262.153564
 21
4314.557407
 31
0.0
  0
LINE
  8
SUNPOU
 10
4292.153564
 20
4014.557407
 30
0.0
 11
4292.153564
 21
4314.557407
 31
0.0
  0
INSERT
  8
SUNPOU
  2
ARROWANG
 10
4292.153564
 20
4014.557407
 30
0.0
 41
30.0
 42
30.0
 50
270.0
 43
30.0
  0
INSERT
  8
SUNPOU
  2
ARROWANG
 10
4292.153564
 20
4314.557407
 30
0.0
 41
30.0
 42
30.0
 50
90.0
 43
30.0
  0
TEXT
  8
SUNPOU
 10
4247.153564
 20
4100.271693
 30
0.0
 40
45.0
  1
300
 50
90.0
  7
K
 72
     1
 11
4247.153564
 21
4164.557407
 31
0.0
  0
LINE
  8
SUNPOU
 10
4412.153564
 20
3864.557407
 30
0.0
 11
4412.153564
 21
3864.557407
 31
0.0
  0
LINE
  8
SUNPOU
 10
4412.153564
 20
5956.557407
 30
0.0
 11
4412.153564
 21
5956.557407
 31
0.0
  0
LINE
  8
SUNPOU
 10
4442.153564
 20
3864.557407
 30
0.0
 11
4442.153564
 21
5956.557407
 31
0.0
  0
INSERT
  8
SUNPOU
  2
ARROWANG
 10
4442.153564
 20
3864.557407
 30
0.0
 41
30.0
 42
30.0
 50
270.0
 43
30.0
  0
INSERT
  8
SUNPOU
  2
ARROWANG
 10
4442.153564
 20
5956.557407
 30
0.0
 41
30.0
 42
30.0
 50
90.0
 43
30.0
  0
TEXT
  8
SUNPOU
 10
4397.153564
 20
4824.843121
 30
0.0
 40
45.0
  1
2092
 50
90.0
  7
K
 72
     1
 11
4397.153564
 21
4910.557407
 31
0.0
  0
LINE
  8
SUNPOU
 10
6942.153564
 20
4164.557407
 30
0.0
 11
6942.153564
 21
5956.557407
 31
0.0
  0
LINE
  8
SUNPOU
 10
6912.153564
 20
5956.557407
 30
0.0
 11
6912.153564
 21
5956.557407
 31
0.0
  0
LINE
  8
SUNPOU
 10
6912.153564
 20
4164.557407
 30
0.0
 11
6912.153564
 21
4164.557407
 31
0.0
  0
LINE
  8
SUNPOU
 10
6762.153564
 20
4614.557407
 30
0.0
 11
6762.153564
 21
4614.557407
 31
0.0
  0
LINE
  8
SUNPOU
 10
6762.153564
 20
4314.557407
 30
0.0
 11
6762.153564
 21
4314.557407
 31
0.0
  0
INSERT
  8
SUNPOU
  2
ARROWANG
 10
6087.153564
 20
4179.557407
 30
0.0
 41
30.0
 42
30.0
 50
270.0
 43
30.0
  0
LINE
  8
SUNPOU
 10
6057.153564
 20
5979.557407
 30
0.0
 11
6057.153564
 21
5979.557407
 31
0.0
  0
LINE
  8
SUNPOU
 10
6057.153564
 20
4179.557407
 30
0.0
 11
6057.153564
 21
4179.557407
 31
0.0
  0
LINE
  8
JISSEN
 10
6387.153564
 20
5979.557407
 30
0.0
 11
6472.153564
 21
5979.557407
 31
0.0
  0
LINE
  8
JISSEN
 10
6472.153564
 20
5979.557407
 30
0.0
 11
6479.153564
 21
5956.557407
 31
0.0
  0
LINE
  8
JISSEN
 10
6479.153564
 20
5956.557407
 30
0.0
 11
6512.153564
 21
5956.557407
 31
0.0
  0
LINE
  8
JISSEN
 10
6387.153564
 20
5979.557407
 30
0.0
 11
6387.153564
 21
5979.557407
 31
0.0
  0
LINE
  8
JISSEN
 10
6387.153564
 20
4179.557407
 30
0.0
 11
6473.153564
 21
4179.557407
 31
0.0
  0
LINE
  8
JISSEN
 10
6473.153564
 20
4179.557407
 30
0.0
 11
6484.153564
 21
4164.557407
 31
0.0
  0
LINE
  8
JISSEN
 10
6484.153564
 20
4164.557407
 30
0.0
 11
6512.153564
 21
4164.557407
 31
0.0
  0
LINE
  8
JISSEN
 10
6387.153564
 20
5979.557407
 30
0.0
 11
6387.153564
 21
4179.557407
 31
0.0
  0
LINE
  8
JISSEN
 10
6512.153564
 20
4164.557407
 30
0.0
 11
6512.153564
 21
5956.557407
 31
0.0
  0
LINE
  8
JISSEN
 10
8137.153564
 20
5979.557407
 30
0.0
 11
8052.153564
 21
5979.557407
 31
0.0
  0
LINE
  8
JISSEN
 10
8137.153564
 20
5979.557407
 30
0.0
 11
8137.153564
 21
4179.557407
 31
0.0
  0
LINE
  8
JISSEN
 10
8045.153564
 20
5956.557407
 30
0.0
 11
8012.153564
 21
5956.557407
 31
0.0
  0
LINE
  8
TENSEN
 10
8012.153564
 20
4164.557407
 30
0.0
 11
8012.153564
 21
5956.557407
 31
0.0
  0
LINE
  8
JISSEN
 10
8137.153564
 20
4179.557407
 30
0.0
 11
8051.153564
 21
4179.557407
 31
0.0
  0
LINE
  8
JISSEN
 10
8040.153564
 20
4164.557407
 30
0.0
 11
8012.153564
 21
4164.557407
 31
0.0
  0
LINE
  8
JISSEN
 10
8052.153564
 20
5979.557407
 30
0.0
 11
8045.153564
 21
5956.557407
 31
0.0
  0
LINE
  8
JISSEN
 10
8051.153564
 20
4179.557407
 30
0.0
 11
8040.153564
 21
4164.557407
 31
0.0
  0
LINE
  8
JISSEN
 10
6512.153564
 20
5956.557407
 30
0.0
 11
7262.153564
 21
5956.557407
 31
0.0
  0
LINE
  8
JISSEN
 10
6512.153564
 20
4164.557407
 30
0.0
 11
8012.153564
 21
4164.557407
 31
0.0
  0
LINE
  8
JISSEN
 10
8051.153564
 20
4179.557407
 30
0.0
 11
7262.153564
 21
4179.557407
 31
0.0
  0
LINE
  8
JISSEN
 10
6472.153564
 20
5979.557407
 30
0.0
 11
8052.153564
 21
5979.557407
 31
0.0
  0
ARC
  8
JISSEN
 10
6632.153564
 20
4314.557407
 30
0.0
 40
10.0
 50
270.0
 51
90.0
  0
LINE
  8
JISSEN
 10
6512.153564
 20
4324.557407
 30
0.0
 11
6632.153564
 21
4324.557407
 31
0.0
  0
LINE
  8
JISSEN
 10
6632.153564
 20
4304.557407
 30
0.0
 11
6512.153564
 21
4304.557407
 31
0.0
  0
LINE
  8
ITTEN
 10
6456.03771
 20
4314.557407
 30
0.0
 11
6812.153564
 21
4314.557407
 31
0.0
  0
LINE
  8
ITTEN
 10
6456.03771
 20
4614.557407
 30
0.0
 11
6812.153564
 21
4614.557407
 31
0.0
  0
ARC
  8
JISSEN
 10
6632.153564
 20
4614.557407
 30
0.0
 40
10.0
 50
270.0
 51
90.0
  0
LINE
  8
ITTEN
 10
6456.03771
 20
4614.557407
 30
0.0
 11
6812.153564
 21
4614.557407
 31
0.0
  0
LINE
  8
JISSEN
 10
6512.153564
 20
4624.557407
 30
0.0
 11
6632.153564
 21
4624.557407
 31
0.0
  0
LINE
  8
JISSEN
 10
6632.153564
 20
4604.557407
 30
0.0
 11
6512.153564
 21
4604.557407
 31
0.0
  0
ARC
  8
JISSEN
 10
6632.153564
 20
4614.557407
 30
0.0
 40
10.0
 50
270.0
 51
90.0
  0
LINE
  8
ITTEN
 10
6456.03771
 20
4914.557407
 30
0.0
 11
6812.153564
 21
4914.557407
 31
0.0
  0
LINE
  8
JISSEN
 10
6512.153564
 20
4924.557407
 30
0.0
 11
6632.153564
 21
4924.557407
 31
0.0
  0
LINE
  8
JISSEN
 10
6632.153564
 20
4904.557407
 30
0.0
 11
6512.153564
 21
4904.557407
 31
0.0
  0
ARC
  8
JISSEN
 10
6632.153564
 20
4914.557407
 30
0.0
 40
10.0
 50
270.0
 51
90.0
  0
LINE
  8
ITTEN
 10
6456.03771
 20
5214.557407
 30
0.0
 11
6812.153564
 21
5214.557407
 31
0.0
  0
LINE
  8
JISSEN
 10
6512.153564
 20
5224.557407
 30
0.0
 11
6632.153564
 21
5224.557407
 31
0.0
  0
LINE
  8
JISSEN
 10
6632.153564
 20
5204.557407
 30
0.0
 11
6512.153564
 21
5204.557407
 31
0.0
  0
ARC
  8
JISSEN
 10
6632.153564
 20
5214.557407
 30
0.0
 40
10.0
 50
270.0
 51
90.0
  0
LINE
  8
ITTEN
 10
6456.03771
 20
5514.557407
 30
0.0
 11
6812.153564
 21
5514.557407
 31
0.0
  0
LINE
  8
JISSEN
 10
6512.153564
 20
5524.557407
 30
0.0
 11
6632.153564
 21
5524.557407
 31
0.0
  0
LINE
  8
JISSEN
 10
6632.153564
 20
5504.557407
 30
0.0
 11
6512.153564
 21
5504.557407
 31
0.0
  0
ARC
  8
JISSEN
 10
6632.153564
 20
5514.557407
 30
0.0
 40
10.0
 50
270.0
 51
90.0
  0
LINE
  8
ITTEN
 10
6456.03771
 20
5814.557407
 30
0.0
 11
6812.153564
 21
5814.557407
 31
0.0
  0
LINE
  8
JISSEN
 10
6512.153564
 20
5824.557407
 30
0.0
 11
6632.153564
 21
5824.557407
 31
0.0
  0
LINE
  8
JISSEN
 10
6632.153564
 20
5804.557407
 30
0.0
 11
6512.153564
 21
5804.557407
 31
0.0
  0
ARC
  8
JISSEN
 10
6632.153564
 20
5814.557407
 30
0.0
 40
10.0
 50
270.0
 51
90.0
  0
LINE
  8
TENSEN
 10
7262.153564
 20
5956.557407
 30
0.0
 11
8012.153564
 21
5956.557407
 31
0.0
  0
CIRCLE
  8
JISSEN
 10
7880.871997
 20
4279.557407
 30
0.0
 40
15.0
  0
CIRCLE
  8
TENSEN
 10
6643.43513
 20
4279.557407
 30
0.0
 40
15.0
  0
CIRCLE
  8
TENSEN
 10
6643.43513
 20
5879.557407
 30
0.0
 40
15.0
  0
CIRCLE
  8
JISSEN
 10
7880.871997
 20
5879.557407
 30
0.0
 40
15.0
  0
LINE
  8
ITTEN
 10
6643.43513
 20
4344.557407
 30
0.0
 11
6643.43513
 21
4214.557407
 31
0.0
  0
LINE
  8
ITTEN
 10
6708.43513
 20
4279.557407
 30
0.0
 11
6578.43513
 21
4279.557407
 31
0.0
  0
LINE
  8
ITTEN
 10
7880.871997
 20
4344.557407
 30
0.0
 11
7880.871997
 21
4214.557407
 31
0.0
  0
LINE
  8
ITTEN
 10
7945.871997
 20
4279.557407
 30
0.0
 11
7815.871997
 21
4279.557407
 31
0.0
  0
LINE
  8
ITTEN
 10
6643.43513
 20
5944.557407
 30
0.0
 11
6643.43513
 21
5814.557407
 31
0.0
  0
LINE
  8
ITTEN
 10
6708.43513
 20
5879.557407
 30
0.0
 11
6578.43513
 21
5879.557407
 31
0.0
  0
LINE
  8
ITTEN
 10
7880.871997
 20
5944.557407
 30
0.0
 11
7880.871997
 21
5814.557407
 31
0.0
  0
LINE
  8
ITTEN
 10
7945.871997
 20
5879.557407
 30
0.0
 11
7815.871997
 21
5879.557407
 31
0.0
  0
LINE
  8
SUNPOU
 10
6387.153564
 20
6009.557407
 30
0.0
 11
6387.153564
 21
6309.557407
 31
0.0
  0
LINE
  8
SUNPOU
 10
6512.153564
 20
5986.557407
 30
0.0
 11
6512.153564
 21
6309.557407
 31
0.0
  0
LINE
  8
SUNPOU
 10
6387.153564
 20
6306.984259
 30
0.0
 11
6387.153564
 21
6309.557407
 31
0.0
  0
LINE
  8
SUNPOU
 10
6512.153564
 20
6306.984259
 30
0.0
 11
6512.153564
 21
6309.557407
 31
0.0
  0
LINE
  8
SUNPOU
 10
6387.153564
 20
6279.557407
 30
0.0
 11
6512.153564
 21
6279.557407
 31
0.0
  0
INSERT
  8
SUNPOU
  2
ARROWANG
 10
6512.153564
 20
6279.557407
 30
0.0
 41
30.0
 42
30.0
 43
30.0
  0
INSERT
  8
SUNPOU
  2
ARROWANG
 10
6387.153564
 20
6279.557407
 30
0.0
 41
30.0
 42
30.0
 50
180.0
 43
30.0
  0
TEXT
  8
SUNPOU
 10
6386.051445
 20
6324.557407
 30
0.0
 40
45.0
  1
125
  7
K
 72
     1
 11
6453.551445
 21
6324.557407
 31
0.0
  0
LINE
  8
SUNPOU
 10
6512.153564
 20
6249.557407
 30
0.0
 11
6512.153564
 21
6249.557407
 31
0.0
  0
LINE
  8
SUNPOU
 10
6512.153564
 20
6279.557407
 30
0.0
 11
8012.153564
 21
6279.557407
 31
0.0
  0
INSERT
  8
SUNPOU
  2
ARROWANG
 10
6512.153564
 20
6279.557407
 30
0.0
 41
30.0
 42
30.0
 50
180.0
 43
30.0
  0
INSERT
  8
SUNPOU
  2
ARROWANG
 10
8012.153564
 20
6279.557407
 30
0.0
 41
30.0
 42
30.0
 43
30.0
  0
TEXT
  8
SUNPOU
 10
7173.225007
 20
6324.557407
 30
0.0
 40
45.0
  1
1500
  7
K
 72
     1
 11
7262.153579
 21
6324.557407
 31
0.0
  0
LINE
  8
SUNPOU
 10
8012.153564
 20
5986.557407
 30
0.0
 11
8012.153564
 21
6309.557407
 31
0.0
  0
LINE
  8
SUNPOU
 10
8137.153564
 20
6009.557407
 30
0.0
 11
8137.153564
 21
6309.557407
 31
0.0
  0
LINE
  8
SUNPOU
 10
8012.153564
 20
6279.557407
 30
0.0
 11
8137.153564
 21
6279.557407
 31
0.0
  0
INSERT
  8
SUNPOU
  2
ARROWANG
 10
8012.153564
 20
6279.557407
 30
0.0
 41
30.0
 42
30.0
 50
180.0
 43
30.0
  0
INSERT
  8
SUNPOU
  2
ARROWANG
 10
8137.153564
 20
6279.557407
 30
0.0
 41
30.0
 42
30.0
 43
30.0
  0
TEXT
  8
SUNPOU
 10
8007.153579
 20
6324.557407
 30
0.0
 40
45.0
  1
125
  7
K
 72
     1
 11
8074.653579
 21
6324.557407
 31
0.0
  0
LINE
  8
SUNPOU
 10
6472.153564
 20
6009.557407
 30
0.0
 11
6472.153564
 21
6209.557407
 31
0.0
  0
LINE
  8
SUNPOU
 10
8052.153564
 20
6009.557407
 30
0.0
 11
8052.153564
 21
6209.557407
 31
0.0
  0
LINE
  8
SUNPOU
 10
6472.153564
 20
6179.557407
 30
0.0
 11
8052.153564
 21
6179.557407
 31
0.0
  0
INSERT
  8
SUNPOU
  2
ARROWANG
 10
6472.153564
 20
6179.557407
 30
0.0
 41
30.0
 42
30.0
 50
180.0
 43
30.0
  0
INSERT
  8
SUNPOU
  2
ARROWANG
 10
8052.153564
 20
6179.557407
 30
0.0
 41
30.0
 42
30.0
 43
30.0
  0
TEXT
  8
SUNPOU
 10
7173.225007
 20
6224.557407
 30
0.0
 40
45.0
  1
1580
  7
K
 72
     1
 11
7262.153579
 21
6224.557407
 31
0.0
  0
LINE
  8
SUNPOU
 10
6479.153564
 20
5986.557407
 30
0.0
 11
6479.153564
 21
6109.557407
 31
0.0
  0
LINE
  8
SUNPOU
 10
8045.153564
 20
5986.557407
 30
0.0
 11
8045.153564
 21
6109.557407
 31
0.0
  0
LINE
  8
SUNPOU
 10
6479.153564
 20
6079.557407
 30
0.0
 11
8045.153564
 21
6079.557407
 31
0.0
  0
INSERT
  8
SUNPOU
  2
ARROWANG
 10
6479.153564
 20
6079.557407
 30
0.0
 41
30.0
 42
30.0
 50
180.0
 43
30.0
  0
INSERT
  8
SUNPOU
  2
ARROWANG
 10
8045.153564
 20
6079.557407
 30
0.0
 41
30.0
 42
30.0
 43
30.0
  0
TEXT
  8
SUNPOU
 10
7173.225007
 20
6124.557407
 30
0.0
 40
45.0
  1
1566
  7
K
 72
     1
 11
7262.153579
 21
6124.557407
 31
0.0
  0
LINE
  8
SUNPOU
 10
6357.153564
 20
4179.557407
 30
0.0
 11
6057.153564
 21
4179.557407
 31
0.0
  0
LINE
  8
SUNPOU
 10
6357.153564
 20
5979.557407
 30
0.0
 11
6057.153564
 21
5979.557407
 31
0.0
  0
LINE
  8
SUNPOU
 10
6267.153564
 20
5979.557407
 30
0.0
 11
6267.153564
 21
5979.557407
 31
0.0
  0
LINE
  8
SUNPOU
 10
6449.153564
 20
5956.557407
 30
0.0
 11
6207.153564
 21
5956.557407
 31
0.0
  0
LINE
  8
SUNPOU
 10
6267.153564
 20
5979.557407
 30
0.0
 11
6267.153564
 21
5979.557407
 31
0.0
  0
LINE
  8
SUNPOU
 10
6237.153564
 20
5956.557407
 30
0.0
 11
6237.153564
 21
5979.557407
 31
0.0
  0
INSERT
  8
SUNPOU
  2
ARROWANG
 10
6237.153564
 20
5956.557407
 30
0.0
 41
30.0
 42
30.0
 50
90.0
 43
30.0
  0
INSERT
  8
SUNPOU
  2
ARROWANG
 10
6237.153564
 20
5979.557407
 30
0.0
 41
30.0
 42
30.0
 50
270.0
 43
30.0
  0
LINE
  8
SUNPOU
 10
6237.153564
 20
5979.557407
 30
0.0
 11
6237.153564
 21
6078.557407
 31
0.0
  0
LINE
  8
SUNPOU
 10
6237.153564
 20
5956.557407
 30
0.0
 11
6237.153565
 21
5896.557407
 31
0.0
  0
TEXT
  8
SUNPOU
 10
6192.153564
 20
5986.200264
 30
0.0
 40
45.0
  1
23
 50
90.0
  7
K
 72
     1
 11
6192.153564
 21
6029.057407
 31
0.0
  0
LINE
  8
SUNPOU
 10
6454.153564
 20
4164.557407
 30
0.0
 11
6057.153564
 21
4164.557407
 31
0.0
  0
LINE
  8
SUNPOU
 10
6117.153564
 20
4179.557407
 30
0.0
 11
6117.153564
 21
4179.557407
 31
0.0
  0
LINE
  8
SUNPOU
 10
6087.153564
 20
4164.557407
 30
0.0
 11
6087.153564
 21
4179.557407
 31
0.0
  0
INSERT
  8
SUNPOU
  2
ARROWANG
 10
6087.153564
 20
4164.557407
 30
0.0
 41
30.0
 42
30.0
 50
90.0
 43
30.0
  0
TEXT
  8
SUNPOU
 10
6042.153564
 20
4125.985978
 30
0.0
 40
45.0
  1
15
 50
90.0
  7
K
 72
     1
 11
6042.153564
 21
4172.057407
 31
0.0
  0
LINE
  8
SUNPOU
 10
6087.153564
 20
4164.557407
 30
0.0
 11
6087.153564
 21
4104.557407
 31
0.0
  0
LINE
  8
SUNPOU
 10
7975.871997
 20
5879.557407
 30
0.0
 11
8317.153564
 21
5879.557407
 31
0.0
  0
LINE
  8
SUNPOU
 10
8167.153564
 20
5979.557407
 30
0.0
 11
8317.153564
 21
5979.557407
 31
0.0
  0
LINE
  8
SUNPOU
 10
8287.153564
 20
5879.557407
 30
0.0
 11
8287.153564
 21
5979.557407
 31
0.0
  0
INSERT
  8
SUNPOU
  2
ARROWANG
 10
8287.153564
 20
5879.557407
 30
0.0
 41
30.0
 42
30.0
 50
90.0
 43
30.0
  0
INSERT
  8
SUNPOU
  2
ARROWANG
 10
8287.153564
 20
5979.557407
 30
0.0
 41
30.0
 42
30.0
 50
270.0
 43
30.0
  0
LINE
  8
SUNPOU
 10
8287.153564
 20
5879.557407
 30
0.0
 11
8287.153564
 21
5737.807407
 31
0.0
  0
LINE
  8
SUNPOU
 10
8287.153564
 20
5979.557407
 30
0.0
 11
8287.153564
 21
6039.557407
 31
0.0
  0
TEXT
  8
SUNPOU
 10
8242.153564
 20
5737.807407
 30
0.0
 40
45.0
  1
100
 50
90.0
  7
K
 72
     1
 11
8242.153564
 21
5805.307407
 31
0.0
  0
LINE
  8
SUNPOU
 10
8167.153564
 20
4179.557407
 30
0.0
 11
8317.153564
 21
4179.557407
 31
0.0
  0
LINE
  8
SUNPOU
 10
7975.871997
 20
4279.557407
 30
0.0
 11
8317.153564
 21
4279.557407
 31
0.0
  0
LINE
  8
SUNPOU
 10
8287.153564
 20
4179.557407
 30
0.0
 11
8287.153564
 21
4279.557407
 31
0.0
  0
INSERT
  8
SUNPOU
  2
ARROWANG
 10
8287.153564
 20
4179.557407
 30
0.0
 41
30.0
 42
30.0
 50
90.0
 43
30.0
  0
INSERT
  8
SUNPOU
  2
ARROWANG
 10
8287.153564
 20
4279.557407
 30
0.0
 41
30.0
 42
30.0
 50
270.0
 43
30.0
  0
LINE
  8
SUNPOU
 10
8287.153564
 20
4279.557407
 30
0.0
 11
8287.153564
 21
4421.307407
 31
0.0
  0
LINE
  8
SUNPOU
 10
8287.153564
 20
4179.557407
 30
0.0
 11
8287.153565
 21
4119.557407
 31
0.0
  0
TEXT
  8
SUNPOU
 10
8242.153564
 20
4286.307407
 30
0.0
 40
45.0
  1
100
 50
90.0
  7
K
 72
     1
 11
8242.153564
 21
4353.807407
 31
0.0
  0
LINE
  8
SUNPOU
 10
6473.153564
 20
4149.557407
 30
0.0
 11
6473.153564
 21
3834.557407
 31
0.0
  0
LINE
  8
SUNPOU
 10
8051.153564
 20
4149.557407
 30
0.0
 11
8051.153564
 21
3834.557407
 31
0.0
  0
LINE
  8
SUNPOU
 10
6473.153564
 20
3864.557407
 30
0.0
 11
8051.153564
 21
3864.557407
 31
0.0
  0
INSERT
  8
SUNPOU
  2
ARROWANG
 10
6473.153564
 20
3864.557407
 30
0.0
 41
30.0
 42
30.0
 50
180.0
 43
30.0
  0
INSERT
  8
SUNPOU
  2
ARROWANG
 10
8051.153564
 20
3864.557407
 30
0.0
 41
30.0
 42
30.0
 43
30.0
  0
TEXT
  8
SUNPOU
 10
7173.225007
 20
3909.557407
 30
0.0
 40
45.0
  1
1578
  7
K
 72
     1
 11
7262.153579
 21
3909.557407
 31
0.0
  0
LINE
  8
SUNPOU
 10
6484.153564
 20
4134.557407
 30
0.0
 11
6484.153564
 21
3984.557407
 31
0.0
  0
LINE
  8
SUNPOU
 10
8040.153564
 20
4134.557407
 30
0.0
 11
8040.153564
 21
3984.557407
 31
0.0
  0
LINE
  8
SUNPOU
 10
6484.153564
 20
4014.557407
 30
0.0
 11
8040.153564
 21
4014.557407
 31
0.0
  0
INSERT
  8
SUNPOU
  2
ARROWANG
 10
6484.153564
 20
4014.557407
 30
0.0
 41
30.0
 42
30.0
 50
180.0
 43
30.0
  0
INSERT
  8
SUNPOU
  2
ARROWANG
 10
8040.153564
 20
4014.557407
 30
0.0
 41
30.0
 42
30.0
 43
30.0
  0
TEXT
  8
SUNPOU
 10
7173.225007
 20
4059.557407
 30
0.0
 40
45.0
  1
1556
  7
K
 72
     1
 11
7262.153579
 21
4059.557407
 31
0.0
  0
LINE
  8
SUNPOU
 10
6762.153564
 20
4164.557407
 30
0.0
 11
6762.153564
 21
4164.557407
 31
0.0
  0
LINE
  8
SUNPOU
 10
6762.153564
 20
4314.557407
 30
0.0
 11
6762.153564
 21
4314.557407
 31
0.0
  0
LINE
  8
SUNPOU
 10
6792.153564
 20
4164.557407
 30
0.0
 11
6792.153564
 21
4314.557407
 31
0.0
  0
INSERT
  8
SUNPOU
  2
ARROWANG
 10
6792.153564
 20
4164.557407
 30
0.0
 41
30.0
 42
30.0
 50
270.0
 43
30.0
  0
INSERT
  8
SUNPOU
  2
ARROWANG
 10
6792.153564
 20
4314.557407
 30
0.0
 41
30.0
 42
30.0
 50
90.0
 43
30.0
  0
TEXT
  8
SUNPOU
 10
6747.153564
 20
4172.057407
 30
0.0
 40
45.0
  1
150
 50
90.0
  7
K
 72
     1
 11
6747.153564
 21
4239.557407
 31
0.0
  0
LINE
  8
SUNPOU
 10
6822.153564
 20
4314.557407
 30
0.0
 11
6822.153564
 21
4314.557407
 31
0.0
  0
LINE
  8
SUNPOU
 10
6822.153564
 20
4614.557407
 30
0.0
 11
6822.153564
 21
4614.557407
 31
0.0
  0
LINE
  8
SUNPOU
 10
6762.153564
 20
4614.557407
 30
0.0
 11
6762.153564
 21
4614.557407
 31
0.0
  0
LINE
  8
SUNPOU
 10
6762.153564
 20
4614.557407
 30
0.0
 11
6762.153564
 21
4614.557407
 31
0.0
  0
LINE
  8
SUNPOU
 10
6792.153564
 20
4614.557407
 30
0.0
 11
6792.153564
 21
4614.557407
 31
0.0
  0
INSERT
  8
SUNPOU
  2
ARROWANG
 10
6792.153564
 20
4614.557407
 30
0.0
 41
30.0
 42
30.0
 50
270.0
 43
30.0
  0
LINE
  8
SUNPOU
 10
6822.153564
 20
4614.557407
 30
0.0
 11
6822.153564
 21
4614.557407
 31
0.0
  0
LINE
  8
SUNPOU
 10
6822.153564
 20
4614.557407
 30
0.0
 11
6822.153564
 21
4614.557407
 31
0.0
  0
LINE
  8
SUNPOU
 10
6792.153564
 20
4614.557407
 30
0.0
 11
6792.153564
 21
4614.557407
 31
0.0
  0
INSERT
  8
SUNPOU
  2
ARROWANG
 10
6792.153564
 20
4614.557407
 30
0.0
 41
30.0
 42
30.0
 50
270.0
 43
30.0
  0
LINE
  8
SUNPOU
 10
6762.153564
 20
4614.557407
 30
0.0
 11
6762.153564
 21
4614.557407
 31
0.0
  0
LINE
  8
SUNPOU
 10
6762.153564
 20
4914.557407
 30
0.0
 11
6762.153564
 21
4914.557407
 31
0.0
  0
LINE
  8
SUNPOU
 10
6792.153564
 20
4614.557407
 30
0.0
 11
6792.153564
 21
4914.557407
 31
0.0
  0
INSERT
  8
SUNPOU
  2
ARROWANG
 10
6792.153564
 20
4614.557407
 30
0.0
 41
30.0
 42
30.0
 50
270.0
 43
30.0
  0
INSERT
  8
SUNPOU
  2
ARROWANG
 10
6792.153564
 20
4914.557407
 30
0.0
 41
30.0
 42
30.0
 50
90.0
 43
30.0
  0
TEXT
  8
SUNPOU
 10
6747.153564
 20
4700.271693
 30
0.0
 40
45.0
  1
300
 50
90.0
  7
K
 72
     1
 11
6747.153564
 21
4764.557407
 31
0.0
  0
LINE
  8
SUNPOU
 10
6762.153564
 20
4914.557407
 30
0.0
 11
6762.153564
 21
4914.557407
 31
0.0
  0
LINE
  8
SUNPOU
 10
6762.153564
 20
5214.557407
 30
0.0
 11
6762.153564
 21
5214.557407
 31
0.0
  0
LINE
  8
SUNPOU
 10
6792.153564
 20
4914.557407
 30
0.0
 11
6792.153564
 21
5214.557407
 31
0.0
  0
INSERT
  8
SUNPOU
  2
ARROWANG
 10
6792.153564
 20
4914.557407
 30
0.0
 41
30.0
 42
30.0
 50
270.0
 43
30.0
  0
INSERT
  8
SUNPOU
  2
ARROWANG
 10
6792.153564
 20
5214.557407
 30
0.0
 41
30.0
 42
30.0
 50
90.0
 43
30.0
  0
TEXT
  8
SUNPOU
 10
6747.153564
 20
5000.271693
 30
0.0
 40
45.0
  1
300
 50
90.0
  7
K
 72
     1
 11
6747.153564
 21
5064.557407
 31
0.0
  0
LINE
  8
SUNPOU
 10
6762.153564
 20
5214.557407
 30
0.0
 11
6762.153564
 21
5214.557407
 31
0.0
  0
LINE
  8
SUNPOU
 10
6762.153564
 20
5514.557407
 30
0.0
 11
6762.153564
 21
5514.557407
 31
0.0
  0
LINE
  8
SUNPOU
 10
6792.153564
 20
5214.557407
 30
0.0
 11
6792.153564
 21
5514.557407
 31
0.0
  0
INSERT
  8
SUNPOU
  2
ARROWANG
 10
6792.153564
 20
5214.557407
 30
0.0
 41
30.0
 42
30.0
 50
270.0
 43
30.0
  0
INSERT
  8
SUNPOU
  2
ARROWANG
 10
6792.153564
 20
5514.557407
 30
0.0
 41
30.0
 42
30.0
 50
90.0
 43
30.0
  0
TEXT
  8
SUNPOU
 10
6747.153564
 20
5300.271693
 30
0.0
 40
45.0
  1
300
 50
90.0
  7
K
 72
     1
 11
6747.153564
 21
5364.557407
 31
0.0
  0
LINE
  8
SUNPOU
 10
6762.153564
 20
5514.557407
 30
0.0
 11
6762.153564
 21
5514.557407
 31
0.0
  0
LINE
  8
SUNPOU
 10
6762.153564
 20
5814.557407
 30
0.0
 11
6762.153564
 21
5814.557407
 31
0.0
  0
LINE
  8
SUNPOU
 10
6792.153564
 20
5514.557407
 30
0.0
 11
6792.153564
 21
5814.557407
 31
0.0
  0
INSERT
  8
SUNPOU
  2
ARROWANG
 10
6792.153564
 20
5514.557407
 30
0.0
 41
30.0
 42
30.0
 50
270.0
 43
30.0
  0
INSERT
  8
SUNPOU
  2
ARROWANG
 10
6792.153564
 20
5814.557407
 30
0.0
 41
30.0
 42
30.0
 50
90.0
 43
30.0
  0
TEXT
  8
SUNPOU
 10
6747.153564
 20
5600.271693
 30
0.0
 40
45.0
  1
300
 50
90.0
  7
K
 72
     1
 11
6747.153564
 21
5664.557407
 31
0.0
  0
LINE
  8
SUNPOU
 10
6912.153564
 20
4164.557407
 30
0.0
 11
6912.153564
 21
4164.557407
 31
0.0
  0
LINE
  8
SUNPOU
 10
6912.153564
 20
5956.557407
 30
0.0
 11
6912.153564
 21
5956.557407
 31
0.0
  0
LINE
  8
ITTEN
 10
6456.03771
 20
4614.557407
 30
0.0
 11
6812.153564
 21
4614.557407
 31
0.0
  0
LINE
  8
SUNPOU
 10
6762.153564
 20
4314.557407
 30
0.0
 11
6762.153564
 21
4314.557407
 31
0.0
  0
LINE
  8
SUNPOU
 10
6762.153564
 20
4614.557407
 30
0.0
 11
6762.153564
 21
4614.557407
 31
0.0
  0
LINE
  8
SUNPOU
 10
6792.153564
 20
4314.557407
 30
0.0
 11
6792.153564
 21
4614.557407
 31
0.0
  0
INSERT
  8
SUNPOU
  2
ARROWANG
 10
6792.153564
 20
4314.557407
 30
0.0
 41
30.0
 42
30.0
 50
270.0
 43
30.0
  0
INSERT
  8
SUNPOU
  2
ARROWANG
 10
6792.153564
 20
4614.557407
 30
0.0
 41
30.0
 42
30.0
 50
90.0
 43
30.0
  0
TEXT
  8
SUNPOU
 10
6747.153564
 20
4400.271693
 30
0.0
 40
45.0
  1
300
 50
90.0
  7
K
 72
     1
 11
6747.153564
 21
4464.557407
 31
0.0
  0
LINE
  8
SUNPOU
 10
6057.153564
 20
4179.557407
 30
0.0
 11
6057.153564
 21
4179.557407
 31
0.0
  0
LINE
  8
SUNPOU
 10
6057.153564
 20
5979.557407
 30
0.0
 11
6057.153564
 21
5979.557407
 31
0.0
  0
LINE
  8
SUNPOU
 10
6087.153564
 20
4179.557407
 30
0.0
 11
6087.153564
 21
5979.557407
 31
0.0
  0
INSERT
  8
SUNPOU
  2
ARROWANG
 10
6087.153564
 20
4179.557407
 30
0.0
 41
30.0
 42
30.0
 50
270.0
 43
30.0
  0
INSERT
  8
SUNPOU
  2
ARROWANG
 10
6087.153564
 20
5979.557407
 30
0.0
 41
30.0
 42
30.0
 50
90.0
 43
30.0
  0
TEXT
  8
SUNPOU
 10
6042.153564
 20
4990.628836
 30
0.0
 40
45.0
  1
1800
 50
90.0
  7
K
 72
     1
 11
6042.153564
 21
5079.557407
 31
0.0
  0
LINE
  8
SUNPOU
 10
6912.153564
 20
4164.557407
 30
0.0
 11
6912.153564
 21
4164.557407
 31
0.0
  0
LINE
  8
SUNPOU
 10
6912.153564
 20
5956.557407
 30
0.0
 11
6912.153564
 21
5956.557407
 31
0.0
  0
LINE
  8
SUNPOU
 10
6942.153564
 20
4164.557407
 30
0.0
 11
6942.153564
 21
5956.557407
 31
0.0
  0
INSERT
  8
SUNPOU
  2
ARROWANG
 10
6942.153564
 20
4164.557407
 30
0.0
 41
30.0
 42
30.0
 50
270.0
 43
30.0
  0
INSERT
  8
SUNPOU
  2
ARROWANG
 10
6942.153564
 20
5956.557407
 30
0.0
 41
30.0
 42
30.0
 50
90.0
 43
30.0
  0
TEXT
  8
SUNPOU
 10
6897.153564
 20
4971.628836
 30
0.0
 40
45.0
  1
1792
 50
90.0
  7
K
 72
     1
 11
6897.153564
 21
5060.557407
 31
0.0
  0
INSERT
  8
SUNPOU
  2
ARROWANG
 10
9442.153564
 20
5956.557407
 30
0.0
 41
30.0
 42
30.0
 50
90.0
 43
30.0
  0
INSERT
  8
SUNPOU
  2
ARROWANG
 10
9442.153564
 20
4464.557407
 30
0.0
 41
30.0
 42
30.0
 50
270.0
 43
30.0
  0
LINE
  8
SUNPOU
 10
9442.153564
 20
4464.557407
 30
0.0
 11
9442.153564
 21
5956.557407
 31
0.0
  0
LINE
  8
SUNPOU
 10
9412.153564
 20
5956.557407
 30
0.0
 11
9412.153564
 21
5956.557407
 31
0.0
  0
LINE
  8
SUNPOU
 10
9412.153564
 20
4464.557407
 30
0.0
 11
9412.153564
 21
4464.557407
 31
0.0
  0
INSERT
  8
SUNPOU
  2
ARROWANG
 10
8587.153564
 20
4479.557407
 30
0.0
 41
30.0
 42
30.0
 50
270.0
 43
30.0
  0
LINE
  8
SUNPOU
 10
8557.153564
 20
5979.557407
 30
0.0
 11
8557.153564
 21
5979.557407
 31
0.0
  0
LINE
  8
SUNPOU
 10
8557.153564
 20
4479.557407
 30
0.0
 11
8557.153564
 21
4479.557407
 31
0.0
  0
TEXT
  8
SUNPOU
 10
9247.153564
 20
4700.271693
 30
0.0
 40
45.0
  1
300
 50
90.0
  7
K
 72
     1
 11
9247.153564
 21
4764.557407
 31
0.0
  0
LINE
  8
SUNPOU
 10
9262.153564
 20
4914.557407
 30
0.0
 11
9262.153564
 21
4914.557407
 31
0.0
  0
LINE
  8
SUNPOU
 10
9262.153564
 20
4614.557407
 30
0.0
 11
9262.153564
 21
4614.557407
 31
0.0
  0
LINE
  8
ITTEN
 10
8956.03771
 20
4914.557407
 30
0.0
 11
9312.153564
 21
4914.557407
 31
0.0
  0
LINE
  8
SUNPOU
 10
9412.153564
 20
5956.557407
 30
0.0
 11
9412.153564
 21
5956.557407
 31
0.0
  0
LINE
  8
SUNPOU
 10
9412.153564
 20
4464.557407
 30
0.0
 11
9412.153564
 21
4464.557407
 31
0.0
  0
TEXT
  8
SUNPOU
 10
9247.153564
 20
5600.271693
 30
0.0
 40
45.0
  1
300
 50
90.0
  7
K
 72
     1
 11
9247.153564
 21
5664.557407
 31
0.0
  0
INSERT
  8
SUNPOU
  2
ARROWANG
 10
9292.153564
 20
5814.557407
 30
0.0
 41
30.0
 42
30.0
 50
90.0
 43
30.0
  0
INSERT
  8
SUNPOU
  2
ARROWANG
 10
9292.153564
 20
5514.557407
 30
0.0
 41
30.0
 42
30.0
 50
270.0
 43
30.0
  0
LINE
  8
SUNPOU
 10
9292.153564
 20
5514.557407
 30
0.0
 11
9292.153564
 21
5814.557407
 31
0.0
  0
LINE
  8
SUNPOU
 10
9262.153564
 20
5814.557407
 30
0.0
 11
9262.153564
 21
5814.557407
 31
0.0
  0
LINE
  8
SUNPOU
 10
9262.153564
 20
5514.557407
 30
0.0
 11
9262.153564
 21
5514.557407
 31
0.0
  0
TEXT
  8
SUNPOU
 10
9247.153564
 20
5300.271693
 30
0.0
 40
45.0
  1
300
 50
90.0
  7
K
 72
     1
 11
9247.153564
 21
5364.557407
 31
0.0
  0
INSERT
  8
SUNPOU
  2
ARROWANG
 10
9292.153564
 20
5514.557407
 30
0.0
 41
30.0
 42
30.0
 50
90.0
 43
30.0
  0
INSERT
  8
SUNPOU
  2
ARROWANG
 10
9292.153564
 20
5214.557407
 30
0.0
 41
30.0
 42
30.0
 50
270.0
 43
30.0
  0
LINE
  8
SUNPOU
 10
9292.153564
 20
5214.557407
 30
0.0
 11
9292.153564
 21
5514.557407
 31
0.0
  0
LINE
  8
SUNPOU
 10
9262.153564
 20
5514.557407
 30
0.0
 11
9262.153564
 21
5514.557407
 31
0.0
  0
LINE
  8
SUNPOU
 10
9262.153564
 20
5214.557407
 30
0.0
 11
9262.153564
 21
5214.557407
 31
0.0
  0
TEXT
  8
SUNPOU
 10
9247.153564
 20
5000.271693
 30
0.0
 40
45.0
  1
300
 50
90.0
  7
K
 72
     1
 11
9247.153564
 21
5064.557407
 31
0.0
  0
INSERT
  8
SUNPOU
  2
ARROWANG
 10
9292.153564
 20
5214.557407
 30
0.0
 41
30.0
 42
30.0
 50
90.0
 43
30.0
  0
INSERT
  8
SUNPOU
  2
ARROWANG
 10
9292.153564
 20
4914.557407
 30
0.0
 41
30.0
 42
30.0
 50
270.0
 43
30.0
  0
LINE
  8
SUNPOU
 10
9292.153564
 20
4914.557407
 30
0.0
 11
9292.153564
 21
5214.557407
 31
0.0
  0
LINE
  8
SUNPOU
 10
9262.153564
 20
5214.557407
 30
0.0
 11
9262.153564
 21
5214.557407
 31
0.0
  0
LINE
  8
SUNPOU
 10
9262.153564
 20
4914.557407
 30
0.0
 11
9262.153564
 21
4914.557407
 31
0.0
  0
INSERT
  8
SUNPOU
  2
ARROWANG
 10
9292.153564
 20
4914.557407
 30
0.0
 41
30.0
 42
30.0
 50
270.0
 43
30.0
  0
LINE
  8
SUNPOU
 10
9262.153564
 20
4914.557407
 30
0.0
 11
9262.153564
 21
4914.557407
 31
0.0
  0
LINE
  8
SUNPOU
 10
9262.153564
 20
4914.557407
 30
0.0
 11
9262.153564
 21
4914.557407
 31
0.0
  0
INSERT
  8
SUNPOU
  2
ARROWANG
 10
9292.153564
 20
4914.557407
 30
0.0
 41
30.0
 42
30.0
 50
270.0
 43
30.0
  0
LINE
  8
SUNPOU
 10
9292.153564
 20
4914.557407
 30
0.0
 11
9292.153564
 21
4914.557407
 31
0.0
  0
LINE
  8
SUNPOU
 10
9322.153564
 20
4914.557407
 30
0.0
 11
9322.153564
 21
4914.557407
 31
0.0
  0
LINE
  8
SUNPOU
 10
9322.153564
 20
4914.557407
 30
0.0
 11
9322.153564
 21
4914.557407
 31
0.0
  0
LINE
  8
SUNPOU
 10
9292.153564
 20
4914.557407
 30
0.0
 11
9292.153564
 21
4914.557407
 31
0.0
  0
LINE
  8
SUNPOU
 10
9262.153564
 20
4914.557407
 30
0.0
 11
9262.153564
 21
4914.557407
 31
0.0
  0
LINE
  8
SUNPOU
 10
9262.153564
 20
4914.557407
 30
0.0
 11
9262.153564
 21
4914.557407
 31
0.0
  0
LINE
  8
SUNPOU
 10
9322.153564
 20
4914.557407
 30
0.0
 11
9322.153564
 21
4914.557407
 31
0.0
  0
LINE
  8
SUNPOU
 10
9322.153564
 20
4614.557407
 30
0.0
 11
9322.153564
 21
4614.557407
 31
0.0
  0
TEXT
  8
SUNPOU
 10
9247.153564
 20
4472.057407
 30
0.0
 40
45.0
  1
150
 50
90.0
  7
K
 72
     1
 11
9247.153564
 21
4539.557407
 31
0.0
  0
INSERT
  8
SUNPOU
  2
ARROWANG
 10
9292.153564
 20
4614.557407
 30
0.0
 41
30.0
 42
30.0
 50
90.0
 43
30.0
  0
INSERT
  8
SUNPOU
  2
ARROWANG
 10
9292.153564
 20
4464.557407
 30
0.0
 41
30.0
 42
30.0
 50
270.0
 43
30.0
  0
LINE
  8
SUNPOU
 10
9292.153564
 20
4464.557407
 30
0.0
 11
9292.153564
 21
4614.557407
 31
0.0
  0
LINE
  8
SUNPOU
 10
9262.153564
 20
4614.557407
 30
0.0
 11
9262.153564
 21
4614.557407
 31
0.0
  0
LINE
  8
SUNPOU
 10
9262.153564
 20
4464.557407
 30
0.0
 11
9262.153564
 21
4464.557407
 31
0.0
  0
TEXT
  8
SUNPOU
 10
9673.225007
 20
4359.557407
 30
0.0
 40
45.0
  1
1556
  7
K
 72
     1
 11
9762.153579
 21
4359.557407
 31
0.0
  0
INSERT
  8
SUNPOU
  2
ARROWANG
 10
10540.153564
 20
4314.557407
 30
0.0
 41
30.0
 42
30.0
 43
30.0
  0
INSERT
  8
SUNPOU
  2
ARROWANG
 10
8984.153564
 20
4314.557407
 30
0.0
 41
30.0
 42
30.0
 50
180.0
 43
30.0
  0
LINE
  8
SUNPOU
 10
8984.153564
 20
4314.557407
 30
0.0
 11
10540.153564
 21
4314.557407
 31
0.0
  0
LINE
  8
SUNPOU
 10
10540.153564
 20
4434.557407
 30
0.0
 11
10540.153564
 21
4284.557407
 31
0.0
  0
LINE
  8
SUNPOU
 10
8984.153564
 20
4434.557407
 30
0.0
 11
8984.153564
 21
4284.557407
 31
0.0
  0
TEXT
  8
SUNPOU
 10
9673.225007
 20
4209.557407
 30
0.0
 40
45.0
  1
1578
  7
K
 72
     1
 11
9762.153579
 21
4209.557407
 31
0.0
  0
INSERT
  8
SUNPOU
  2
ARROWANG
 10
10551.153564
 20
4164.557407
 30
0.0
 41
30.0
 42
30.0
 43
30.0
  0
INSERT
  8
SUNPOU
  2
ARROWANG
 10
8973.153564
 20
4164.557407
 30
0.0
 41
30.0
 42
30.0
 50
180.0
 43
30.0
  0
LINE
  8
SUNPOU
 10
8973.153564
 20
4164.557407
 30
0.0
 11
10551.153564
 21
4164.557407
 31
0.0
  0
LINE
  8
SUNPOU
 10
10551.153564
 20
4449.557407
 30
0.0
 11
10551.153564
 21
4134.557407
 31
0.0
  0
LINE
  8
SUNPOU
 10
8973.153564
 20
4449.557407
 30
0.0
 11
8973.153564
 21
4134.557407
 31
0.0
  0
TEXT
  8
SUNPOU
 10
10742.153564
 20
4586.307407
 30
0.0
 40
45.0
  1
100
 50
90.0
  7
K
 72
     1
 11
10742.153564
 21
4653.807407
 31
0.0
  0
LINE
  8
SUNPOU
 10
10787.153564
 20
4479.557407
 30
0.0
 11
10787.153565
 21
4419.557407
 31
0.0
  0
LINE
  8
SUNPOU
 10
10787.153564
 20
4579.557407
 30
0.0
 11
10787.153564
 21
4721.307407
 31
0.0
  0
INSERT
  8
SUNPOU
  2
ARROWANG
 10
10787.153564
 20
4579.557407
 30
0.0
 41
30.0
 42
30.0
 50
270.0
 43
30.0
  0
INSERT
  8
SUNPOU
  2
ARROWANG
 10
10787.153564
 20
4479.557407
 30
0.0
 41
30.0
 42
30.0
 50
90.0
 43
30.0
  0
LINE
  8
SUNPOU
 10
10787.153564
 20
4479.557407
 30
0.0
 11
10787.153564
 21
4579.557407
 31
0.0
  0
LINE
  8
SUNPOU
 10
10475.871997
 20
4579.557407
 30
0.0
 11
10817.153564
 21
4579.557407
 31
0.0
  0
LINE
  8
SUNPOU
 10
10667.153564
 20
4479.557407
 30
0.0
 11
10817.153564
 21
4479.557407
 31
0.0
  0
TEXT
  8
SUNPOU
 10
10742.153564
 20
5737.807407
 30
0.0
 40
45.0
  1
100
 50
90.0
  7
K
 72
     1
 11
10742.153564
 21
5805.307407
 31
0.0
  0
LINE
  8
SUNPOU
 10
10787.153564
 20
5979.557407
 30
0.0
 11
10787.153564
 21
6039.557407
 31
0.0
  0
LINE
  8
SUNPOU
 10
10787.153564
 20
5879.557407
 30
0.0
 11
10787.153564
 21
5737.807407
 31
0.0
  0
INSERT
  8
SUNPOU
  2
ARROWANG
 10
10787.153564
 20
5979.557407
 30
0.0
 41
30.0
 42
30.0
 50
270.0
 43
30.0
  0
INSERT
  8
SUNPOU
  2
ARROWANG
 10
10787.153564
 20
5879.557407
 30
0.0
 41
30.0
 42
30.0
 50
90.0
 43
30.0
  0
LINE
  8
SUNPOU
 10
10787.153564
 20
5879.557407
 30
0.0
 11
10787.153564
 21
5979.557407
 31
0.0
  0
LINE
  8
SUNPOU
 10
10667.153564
 20
5979.557407
 30
0.0
 11
10817.153564
 21
5979.557407
 31
0.0
  0
LINE
  8
SUNPOU
 10
10475.871997
 20
5879.557407
 30
0.0
 11
10817.153564
 21
5879.557407
 31
0.0
  0
LINE
  8
SUNPOU
 10
8587.153564
 20
4464.557407
 30
0.0
 11
8587.153564
 21
4404.557407
 31
0.0
  0
TEXT
  8
SUNPOU
 10
8542.153564
 20
4425.985978
 30
0.0
 40
45.0
  1
15
 50
90.0
  7
K
 72
     1
 11
8542.153564
 21
4472.057407
 31
0.0
  0
INSERT
  8
SUNPOU
  2
ARROWANG
 10
8587.153564
 20
4464.557407
 30
0.0
 41
30.0
 42
30.0
 50
90.0
 43
30.0
  0
LINE
  8
SUNPOU
 10
8587.153564
 20
4464.557407
 30
0.0
 11
8587.153564
 21
4479.557407
 31
0.0
  0
LINE
  8
SUNPOU
 10
8617.153564
 20
4479.557407
 30
0.0
 11
8617.153564
 21
4479.557407
 31
0.0
  0
LINE
  8
SUNPOU
 10
8954.153564
 20
4464.557407
 30
0.0
 11
8557.153564
 21
4464.557407
 31
0.0
  0
TEXT
  8
SUNPOU
 10
8692.153564
 20
5986.200264
 30
0.0
 40
45.0
  1
23
 50
90.0
  7
K
 72
     1
 11
8692.153564
 21
6029.057407
 31
0.0
  0
LINE
  8
SUNPOU
 10
8737.153564
 20
5956.557407
 30
0.0
 11
8737.153565
 21
5896.557407
 31
0.0
  0
LINE
  8
SUNPOU
 10
8737.153564
 20
5979.557407
 30
0.0
 11
8737.153564
 21
6078.557407
 31
0.0
  0
INSERT
  8
SUNPOU
  2
ARROWANG
 10
8737.153564
 20
5979.557407
 30
0.0
 41
30.0
 42
30.0
 50
270.0
 43
30.0
  0
INSERT
  8
SUNPOU
  2
ARROWANG
 10
8737.153564
 20
5956.557407
 30
0.0
 41
30.0
 42
30.0
 50
90.0
 43
30.0
  0
LINE
  8
SUNPOU
 10
8737.153564
 20
5956.557407
 30
0.0
 11
8737.153564
 21
5979.557407
 31
0.0
  0
LINE
  8
SUNPOU
 10
8767.153564
 20
5979.557407
 30
0.0
 11
8767.153564
 21
5979.557407
 31
0.0
  0
LINE
  8
SUNPOU
 10
8949.153564
 20
5956.557407
 30
0.0
 11
8707.153564
 21
5956.557407
 31
0.0
  0
LINE
  8
SUNPOU
 10
8767.153564
 20
5979.557407
 30
0.0
 11
8767.153564
 21
5979.557407
 31
0.0
  0
LINE
  8
SUNPOU
 10
8857.153564
 20
5979.557407
 30
0.0
 11
8557.153564
 21
5979.557407
 31
0.0
  0
LINE
  8
SUNPOU
 10
8857.153564
 20
4479.557407
 30
0.0
 11
8557.153564
 21
4479.557407
 31
0.0
  0
TEXT
  8
SUNPOU
 10
9673.225007
 20
6124.557407
 30
0.0
 40
45.0
  1
1566
  7
K
 72
     1
 11
9762.153579
 21
6124.557407
 31
0.0
  0
INSERT
  8
SUNPOU
  2
ARROWANG
 10
10545.153564
 20
6079.557407
 30
0.0
 41
30.0
 42
30.0
 43
30.0
  0
INSERT
  8
SUNPOU
  2
ARROWANG
 10
8979.153564
 20
6079.557407
 30
0.0
 41
30.0
 42
30.0
 50
180.0
 43
30.0
  0
LINE
  8
SUNPOU
 10
8979.153564
 20
6079.557407
 30
0.0
 11
10545.153564
 21
6079.557407
 31
0.0
  0
LINE
  8
SUNPOU
 10
10545.153564
 20
5986.557407
 30
0.0
 11
10545.153564
 21
6109.557407
 31
0.0
  0
LINE
  8
SUNPOU
 10
8979.153564
 20
5986.557407
 30
0.0
 11
8979.153564
 21
6109.557407
 31
0.0
  0
TEXT
  8
SUNPOU
 10
9673.225007
 20
6224.557407
 30
0.0
 40
45.0
  1
1580
  7
K
 72
     1
 11
9762.153579
 21
6224.557407
 31
0.0
  0
INSERT
  8
SUNPOU
  2
ARROWANG
 10
10552.153564
 20
6179.557407
 30
0.0
 41
30.0
 42
30.0
 43
30.0
  0
INSERT
  8
SUNPOU
  2
ARROWANG
 10
8972.153564
 20
6179.557407
 30
0.0
 41
30.0
 42
30.0
 50
180.0
 43
30.0
  0
LINE
  8
SUNPOU
 10
8972.153564
 20
6179.557407
 30
0.0
 11
10552.153564
 21
6179.557407
 31
0.0
  0
LINE
  8
SUNPOU
 10
10552.153564
 20
6009.557407
 30
0.0
 11
10552.153564
 21
6209.557407
 31
0.0
  0
LINE
  8
SUNPOU
 10
8972.153564
 20
6009.557407
 30
0.0
 11
8972.153564
 21
6209.557407
 31
0.0
  0
TEXT
  8
SUNPOU
 10
10507.153579
 20
6324.557407
 30
0.0
 40
45.0
  1
125
  7
K
 72
     1
 11
10574.653579
 21
6324.557407
 31
0.0
  0
INSERT
  8
SUNPOU
  2
ARROWANG
 10
10637.153564
 20
6279.557407
 30
0.0
 41
30.0
 42
30.0
 43
30.0
  0
INSERT
  8
SUNPOU
  2
ARROWANG
 10
10512.153564
 20
6279.557407
 30
0.0
 41
30.0
 42
30.0
 50
180.0
 43
30.0
  0
LINE
  8
SUNPOU
 10
10512.153564
 20
6279.557407
 30
0.0
 11
10637.153564
 21
6279.557407
 31
0.0
  0
LINE
  8
SUNPOU
 10
10637.153564
 20
6009.557407
 30
0.0
 11
10637.153564
 21
6309.557407
 31
0.0
  0
LINE
  8
SUNPOU
 10
10512.153564
 20
5986.557407
 30
0.0
 11
10512.153564
 21
6309.557407
 31
0.0
  0
TEXT
  8
SUNPOU
 10
9673.225007
 20
6324.557407
 30
0.0
 40
45.0
  1
1500
  7
K
 72
     1
 11
9762.153579
 21
6324.557407
 31
0.0
  0
INSERT
  8
SUNPOU
  2
ARROWANG
 10
10512.153564
 20
6279.557407
 30
0.0
 41
30.0
 42
30.0
 43
30.0
  0
INSERT
  8
SUNPOU
  2
ARROWANG
 10
9012.153564
 20
6279.557407
 30
0.0
 41
30.0
 42
30.0
 50
180.0
 43
30.0
  0
LINE
  8
SUNPOU
 10
9012.153564
 20
6279.557407
 30
0.0
 11
10512.153564
 21
6279.557407
 31
0.0
  0
LINE
  8
SUNPOU
 10
9012.153564
 20
6249.557407
 30
0.0
 11
9012.153564
 21
6249.557407
 31
0.0
  0
TEXT
  8
SUNPOU
 10
8886.051445
 20
6324.557407
 30
0.0
 40
45.0
  1
125
  7
K
 72
     1
 11
8953.551445
 21
6324.557407
 31
0.0
  0
INSERT
  8
SUNPOU
  2
ARROWANG
 10
8887.153564
 20
6279.557407
 30
0.0
 41
30.0
 42
30.0
 50
180.0
 43
30.0
  0
INSERT
  8
SUNPOU
  2
ARROWANG
 10
9012.153564
 20
6279.557407
 30
0.0
 41
30.0
 42
30.0
 43
30.0
  0
LINE
  8
SUNPOU
 10
8887.153564
 20
6279.557407
 30
0.0
 11
9012.153564
 21
6279.557407
 31
0.0
  0
LINE
  8
SUNPOU
 10
9012.153564
 20
6306.984259
 30
0.0
 11
9012.153564
 21
6309.557407
 31
0.0
  0
LINE
  8
SUNPOU
 10
8887.153564
 20
6306.984259
 30
0.0
 11
8887.153564
 21
6309.557407
 31
0.0
  0
LINE
  8
SUNPOU
 10
9012.153564
 20
5986.557407
 30
0.0
 11
9012.153564
 21
6309.557407
 31
0.0
  0
LINE
  8
SUNPOU
 10
8887.153564
 20
6009.557407
 30
0.0
 11
8887.153564
 21
6309.557407
 31
0.0
  0
LINE
  8
ITTEN
 10
10445.871997
 20
5879.557407
 30
0.0
 11
10315.871997
 21
5879.557407
 31
0.0
  0
LINE
  8
ITTEN
 10
10380.871997
 20
5944.557407
 30
0.0
 11
10380.871997
 21
5814.557407
 31
0.0
  0
LINE
  8
ITTEN
 10
9208.43513
 20
5879.557407
 30
0.0
 11
9078.43513
 21
5879.557407
 31
0.0
  0
LINE
  8
ITTEN
 10
9143.43513
 20
5944.557407
 30
0.0
 11
9143.43513
 21
5814.557407
 31
0.0
  0
LINE
  8
ITTEN
 10
10445.871997
 20
4579.557407
 30
0.0
 11
10315.871997
 21
4579.557407
 31
0.0
  0
LINE
  8
ITTEN
 10
10380.871997
 20
4644.557407
 30
0.0
 11
10380.871997
 21
4514.557407
 31
0.0
  0
LINE
  8
ITTEN
 10
9208.43513
 20
4579.557407
 30
0.0
 11
9078.43513
 21
4579.557407
 31
0.0
  0
LINE
  8
ITTEN
 10
9143.43513
 20
4644.557407
 30
0.0
 11
9143.43513
 21
4514.557407
 31
0.0
  0
CIRCLE
  8
JISSEN
 10
10380.871997
 20
5879.557407
 30
0.0
 40
15.0
  0
CIRCLE
  8
TENSEN
 10
9143.43513
 20
5879.557407
 30
0.0
 40
15.0
  0
CIRCLE
  8
TENSEN
 10
9143.43513
 20
4579.557407
 30
0.0
 40
15.0
  0
CIRCLE
  8
JISSEN
 10
10380.871997
 20
4579.557407
 30
0.0
 40
15.0
  0
LINE
  8
TENSEN
 10
9762.153564
 20
5956.557407
 30
0.0
 11
10512.153564
 21
5956.557407
 31
0.0
  0
ARC
  8
JISSEN
 10
9132.153564
 20
5814.557407
 30
0.0
 40
10.0
 50
270.0
 51
90.0
  0
LINE
  8
JISSEN
 10
9132.153564
 20
5804.557407
 30
0.0
 11
9012.153564
 21
5804.557407
 31
0.0
  0
LINE
  8
JISSEN
 10
9012.153564
 20
5824.557407
 30
0.0
 11
9132.153564
 21
5824.557407
 31
0.0
  0
LINE
  8
ITTEN
 10
8956.03771
 20
5814.557407
 30
0.0
 11
9312.153564
 21
5814.557407
 31
0.0
  0
ARC
  8
JISSEN
 10
9132.153564
 20
5514.557407
 30
0.0
 40
10.0
 50
270.0
 51
90.0
  0
LINE
  8
JISSEN
 10
9132.153564
 20
5504.557407
 30
0.0
 11
9012.153564
 21
5504.557407
 31
0.0
  0
LINE
  8
JISSEN
 10
9012.153564
 20
5524.557407
 30
0.0
 11
9132.153564
 21
5524.557407
 31
0.0
  0
LINE
  8
ITTEN
 10
8956.03771
 20
5514.557407
 30
0.0
 11
9312.153564
 21
5514.557407
 31
0.0
  0
ARC
  8
JISSEN
 10
9132.153564
 20
5214.557407
 30
0.0
 40
10.0
 50
270.0
 51
90.0
  0
LINE
  8
JISSEN
 10
9132.153564
 20
5204.557407
 30
0.0
 11
9012.153564
 21
5204.557407
 31
0.0
  0
LINE
  8
JISSEN
 10
9012.153564
 20
5224.557407
 30
0.0
 11
9132.153564
 21
5224.557407
 31
0.0
  0
LINE
  8
ITTEN
 10
8956.03771
 20
5214.557407
 30
0.0
 11
9312.153564
 21
5214.557407
 31
0.0
  0
ARC
  8
JISSEN
 10
9132.153564
 20
4914.557407
 30
0.0
 40
10.0
 50
270.0
 51
90.0
  0
LINE
  8
JISSEN
 10
9132.153564
 20
4904.557407
 30
0.0
 11
9012.153564
 21
4904.557407
 31
0.0
  0
LINE
  8
JISSEN
 10
9012.153564
 20
4924.557407
 30
0.0
 11
9132.153564
 21
4924.557407
 31
0.0
  0
LINE
  8
ITTEN
 10
8956.03771
 20
4914.557407
 30
0.0
 11
9312.153564
 21
4914.557407
 31
0.0
  0
ARC
  8
JISSEN
 10
9132.153564
 20
4914.557407
 30
0.0
 40
10.0
 50
270.0
 51
90.0
  0
LINE
  8
ITTEN
 10
8956.03771
 20
4914.557407
 30
0.0
 11
9312.153564
 21
4914.557407
 31
0.0
  0
LINE
  8
ITTEN
 10
8956.03771
 20
4614.557407
 30
0.0
 11
9312.153564
 21
4614.557407
 31
0.0
  0
LINE
  8
JISSEN
 10
9132.153564
 20
4604.557407
 30
0.0
 11
9012.153564
 21
4604.557407
 31
0.0
  0
LINE
  8
JISSEN
 10
9012.153564
 20
4624.557407
 30
0.0
 11
9132.153564
 21
4624.557407
 31
0.0
  0
ARC
  8
JISSEN
 10
9132.153564
 20
4614.557407
 30
0.0
 40
10.0
 50
270.0
 51
90.0
  0
LINE
  8
JISSEN
 10
8972.153564
 20
5979.557407
 30
0.0
 11
10552.153564
 21
5979.557407
 31
0.0
  0
LINE
  8
JISSEN
 10
10551.153564
 20
4479.557407
 30
0.0
 11
9762.153564
 21
4479.557407
 31
0.0
  0
LINE
  8
JISSEN
 10
9012.153564
 20
4464.557407
 30
0.0
 11
10512.153564
 21
4464.557407
 31
0.0
  0
LINE
  8
JISSEN
 10
9012.153564
 20
5956.557407
 30
0.0
 11
9762.153564
 21
5956.557407
 31
0.0
  0
LINE
  8
JISSEN
 10
10551.153564
 20
4479.557407
 30
0.0
 11
10540.153564
 21
4464.557407
 31
0.0
  0
LINE
  8
JISSEN
 10
10552.153564
 20
5979.557407
 30
0.0
 11
10545.153564
 21
5956.557407
 31
0.0
  0
LINE
  8
JISSEN
 10
10540.153564
 20
4464.557407
 30
0.0
 11
10512.153564
 21
4464.557407
 31
0.0
  0
LINE
  8
JISSEN
 10
10637.153564
 20
4479.557407
 30
0.0
 11
10551.153564
 21
4479.557407
 31
0.0
  0
LINE
  8
TENSEN
 10
10512.153564
 20
4464.557407
 30
0.0
 11
10512.153564
 21
5956.557407
 31
0.0
  0
LINE
  8
JISSEN
 10
10545.153564
 20
5956.557407
 30
0.0
 11
10512.153564
 21
5956.557407
 31
0.0
  0
LINE
  8
JISSEN
 10
10637.153564
 20
5979.557407
 30
0.0
 11
10637.153564
 21
4479.557407
 31
0.0
  0
LINE
  8
JISSEN
 10
10637.153564
 20
5979.557407
 30
0.0
 11
10552.153564
 21
5979.557407
 31
0.0
  0
LINE
  8
JISSEN
 10
9012.153564
 20
4464.557407
 30
0.0
 11
9012.153564
 21
5956.557407
 31
0.0
  0
LINE
  8
JISSEN
 10
8887.153564
 20
5979.557407
 30
0.0
 11
8887.153564
 21
4479.557407
 31
0.0
  0
LINE
  8
JISSEN
 10
8984.153564
 20
4464.557407
 30
0.0
 11
9012.153564
 21
4464.557407
 31
0.0
  0
LINE
  8
JISSEN
 10
8973.153564
 20
4479.557407
 30
0.0
 11
8984.153564
 21
4464.557407
 31
0.0
  0
LINE
  8
JISSEN
 10
8887.153564
 20
4479.557407
 30
0.0
 11
8973.153564
 21
4479.557407
 31
0.0
  0
LINE
  8
JISSEN
 10
8887.153564
 20
5979.557407
 30
0.0
 11
8887.153564
 21
5979.557407
 31
0.0
  0
LINE
  8
JISSEN
 10
8979.153564
 20
5956.557407
 30
0.0
 11
9012.153564
 21
5956.557407
 31
0.0
  0
LINE
  8
JISSEN
 10
8972.153564
 20
5979.557407
 30
0.0
 11
8979.153564
 21
5956.557407
 31
0.0
  0
LINE
  8
JISSEN
 10
8887.153564
 20
5979.557407
 30
0.0
 11
8972.153564
 21
5979.557407
 31
0.0
  0
LINE
  8
SUNPOU
 10
8557.153564
 20
4479.557407
 30
0.0
 11
8557.153564
 21
4479.557407
 31
0.0
  0
LINE
  8
SUNPOU
 10
8557.153564
 20
5979.557407
 30
0.0
 11
8557.153564
 21
5979.557407
 31
0.0
  0
LINE
  8
SUNPOU
 10
9262.153564
 20
4614.557407
 30
0.0
 11
9262.153564
 21
4614.557407
 31
0.0
  0
LINE
  8
SUNPOU
 10
9262.153564
 20
4914.557407
 30
0.0
 11
9262.153564
 21
4914.557407
 31
0.0
  0
LINE
  8
SUNPOU
 10
9412.153564
 20
4464.557407
 30
0.0
 11
9412.153564
 21
4464.557407
 31
0.0
  0
LINE
  8
SUNPOU
 10
9412.153564
 20
5956.557407
 30
0.0
 11
9412.153564
 21
5956.557407
 31
0.0
  0
LINE
  8
SUNPOU
 10
9442.153564
 20
4464.557407
 30
0.0
 11
9442.153564
 21
5956.557407
 31
0.0
  0
LINE
  8
SUNPOU
 10
9262.153564
 20
4614.557407
 30
0.0
 11
9262.153564
 21
4614.557407
 31
0.0
  0
LINE
  8
SUNPOU
 10
9262.153564
 20
4914.557407
 30
0.0
 11
9262.153564
 21
4914.557407
 31
0.0
  0
LINE
  8
SUNPOU
 10
9292.153564
 20
4614.557407
 30
0.0
 11
9292.153564
 21
4914.557407
 31
0.0
  0
INSERT
  8
SUNPOU
  2
ARROWANG
 10
9292.153564
 20
4614.557407
 30
0.0
 41
30.0
 42
30.0
 50
270.0
 43
30.0
  0
INSERT
  8
SUNPOU
  2
ARROWANG
 10
9292.153564
 20
4914.557407
 30
0.0
 41
30.0
 42
30.0
 50
90.0
 43
30.0
  0
TEXT
  8
SUNPOU
 10
9247.153564
 20
4700.271693
 30
0.0
 40
45.0
  1
300
 50
90.0
  7
K
 72
     1
 11
9247.153564
 21
4764.557407
 31
0.0
  0
LINE
  8
SUNPOU
 10
8617.153564
 20
4479.557407
 30
0.0
 11
8617.153564
 21
4479.557407
 31
0.0
  0
LINE
  8
SUNPOU
 10
8617.153564
 20
5979.557407
 30
0.0
 11
8617.153564
 21
5979.557407
 31
0.0
  0
LINE
  8
SUNPOU
 10
8587.153564
 20
4479.557407
 30
0.0
 11
8587.153564
 21
5979.557407
 31
0.0
  0
INSERT
  8
SUNPOU
  2
ARROWANG
 10
8587.153564
 20
4479.557407
 30
0.0
 41
30.0
 42
30.0
 50
270.0
 43
30.0
  0
INSERT
  8
SUNPOU
  2
ARROWANG
 10
8587.153564
 20
5979.557407
 30
0.0
 41
30.0
 42
30.0
 50
90.0
 43
30.0
  0
TEXT
  8
SUNPOU
 10
8542.153564
 20
5070.379549
 30
0.0
 40
45.0
  1
1500
 50
90.0
  7
K
 72
     1
 11
8542.153564
 21
5159.30812
 31
0.0
  0
LINE
  8
SUNPOU
 10
9412.153564
 20
4464.557407
 30
0.0
 11
9412.153564
 21
4464.557407
 31
0.0
  0
LINE
  8
SUNPOU
 10
9412.153564
 20
5956.557407
 30
0.0
 11
9412.153564
 21
5956.557407
 31
0.0
  0
LINE
  8
SUNPOU
 10
9442.153564
 20
4464.557407
 30
0.0
 11
9442.153564
 21
5956.557407
 31
0.0
  0
INSERT
  8
SUNPOU
  2
ARROWANG
 10
9442.153564
 20
4464.557407
 30
0.0
 41
30.0
 42
30.0
 50
270.0
 43
30.0
  0
INSERT
  8
SUNPOU
  2
ARROWANG
 10
9442.153564
 20
5956.557407
 30
0.0
 41
30.0
 42
30.0
 50
90.0
 43
30.0
  0
TEXT
  8
SUNPOU
 10
9397.153564
 20
5121.628836
 30
0.0
 40
45.0
  1
1492
 50
90.0
  7
K
 72
     1
 11
9397.153564
 21
5210.557407
 31
0.0
  0
TEXT
  8
SUNPOU
 10
4397.153564
 20
1990.540682
 30
0.0
 40
45.0
  1
1192
 50
90.0
  7
K
 72
     1
 11
4397.153564
 21
2079.469253
 31
0.0
  0
INSERT
  8
SUNPOU
  2
ARROWANG
 10
4442.153564
 20
2675.469253
 30
0.0
 41
30.0
 42
30.0
 50
90.0
 43
30.0
  0
INSERT
  8
SUNPOU
  2
ARROWANG
 10
4442.153564
 20
1483.469253
 30
0.0
 41
30.0
 42
30.0
 50
270.0
 43
30.0
  0
LINE
  8
SUNPOU
 10
4442.153564
 20
1483.469253
 30
0.0
 11
4442.153564
 21
2675.469253
 31
0.0
  0
LINE
  8
SUNPOU
 10
4412.153564
 20
2675.469253
 30
0.0
 11
4412.153564
 21
2675.469253
 31
0.0
  0
LINE
  8
SUNPOU
 10
4412.153564
 20
1483.469253
 30
0.0
 11
4412.153564
 21
1483.469253
 31
0.0
  0
TEXT
  8
SUNPOU
 10
3542.153564
 20
2009.540682
 30
0.0
 40
45.0
  1
1200
 50
90.0
  7
K
 72
     1
 11
3542.153564
 21
2098.469253
 31
0.0
  0
INSERT
  8
SUNPOU
  2
ARROWANG
 10
3587.153564
 20
2698.469253
 30
0.0
 41
30.0
 42
30.0
 50
90.0
 43
30.0
  0
INSERT
  8
SUNPOU
  2
ARROWANG
 10
3587.153564
 20
1498.469253
 30
0.0
 41
30.0
 42
30.0
 50
270.0
 43
30.0
  0
LINE
  8
SUNPOU
 10
3587.153564
 20
1498.469253
 30
0.0
 11
3587.153564
 21
2698.469253
 31
0.0
  0
LINE
  8
SUNPOU
 10
3557.153564
 20
2698.469253
 30
0.0
 11
3557.153564
 21
2698.469253
 31
0.0
  0
LINE
  8
SUNPOU
 10
3557.153564
 20
1498.469253
 30
0.0
 11
3557.153564
 21
1498.469253
 31
0.0
  0
TEXT
  8
SUNPOU
 10
4247.153564
 20
1719.183539
 30
0.0
 40
45.0
  1
300
 50
90.0
  7
K
 72
     1
 11
4247.153564
 21
1783.469253
 31
0.0
  0
INSERT
  8
SUNPOU
  2
ARROWANG
 10
4292.153564
 20
1933.469253
 30
0.0
 41
30.0
 42
30.0
 50
90.0
 43
30.0
  0
INSERT
  8
SUNPOU
  2
ARROWANG
 10
4292.153564
 20
1633.469253
 30
0.0
 41
30.0
 42
30.0
 50
270.0
 43
30.0
  0
LINE
  8
SUNPOU
 10
4292.153564
 20
1633.469253
 30
0.0
 11
4292.153564
 21
1933.469253
 31
0.0
  0
LINE
  8
SUNPOU
 10
4262.153564
 20
1933.469253
 30
0.0
 11
4262.153564
 21
1933.469253
 31
0.0
  0
LINE
  8
SUNPOU
 10
4262.153564
 20
1633.469253
 30
0.0
 11
4262.153564
 21
1633.469253
 31
0.0
  0
LINE
  8
SUNPOU
 10
4412.153564
 20
2675.469253
 30
0.0
 11
4412.153564
 21
2675.469253
 31
0.0
  0
LINE
  8
SUNPOU
 10
4412.153564
 20
1483.469253
 30
0.0
 11
4412.153564
 21
1483.469253
 31
0.0
  0
LINE
  8
SUNPOU
 10
3557.153564
 20
2698.469253
 30
0.0
 11
3557.153564
 21
2698.469253
 31
0.0
  0
LINE
  8
SUNPOU
 10
3557.153564
 20
1498.469253
 30
0.0
 11
3557.153564
 21
1498.469253
 31
0.0
  0
LINE
  8
SUNPOU
 10
4262.153564
 20
1933.469253
 30
0.0
 11
4262.153564
 21
1933.469253
 31
0.0
  0
LINE
  8
SUNPOU
 10
4262.153564
 20
1633.469253
 30
0.0
 11
4262.153564
 21
1633.469253
 31
0.0
  0
LINE
  8
ITTEN
 10
3956.03771
 20
1633.469253
 30
0.0
 11
4312.153564
 21
1633.469253
 31
0.0
  0
LINE
  8
SUNPOU
 10
4412.153564
 20
2675.469253
 30
0.0
 11
4412.153564
 21
2675.469253
 31
0.0
  0
LINE
  8
SUNPOU
 10
4412.153564
 20
1483.469253
 30
0.0
 11
4412.153564
 21
1483.469253
 31
0.0
  0
TEXT
  8
SUNPOU
 10
4247.153564
 20
2319.183539
 30
0.0
 40
45.0
  1
300
 50
90.0
  7
K
 72
     1
 11
4247.153564
 21
2383.469253
 31
0.0
  0
INSERT
  8
SUNPOU
  2
ARROWANG
 10
4292.153564
 20
2533.469253
 30
0.0
 41
30.0
 42
30.0
 50
90.0
 43
30.0
  0
INSERT
  8
SUNPOU
  2
ARROWANG
 10
4292.153564
 20
2233.469253
 30
0.0
 41
30.0
 42
30.0
 50
270.0
 43
30.0
  0
LINE
  8
SUNPOU
 10
4292.153564
 20
2233.469253
 30
0.0
 11
4292.153564
 21
2533.469253
 31
0.0
  0
LINE
  8
SUNPOU
 10
4262.153564
 20
2533.469253
 30
0.0
 11
4262.153564
 21
2533.469253
 31
0.0
  0
LINE
  8
SUNPOU
 10
4262.153564
 20
2233.469253
 30
0.0
 11
4262.153564
 21
2233.469253
 31
0.0
  0
TEXT
  8
SUNPOU
 10
4247.153564
 20
2019.183539
 30
0.0
 40
45.0
  1
300
 50
90.0
  7
K
 72
     1
 11
4247.153564
 21
2083.469253
 31
0.0
  0
INSERT
  8
SUNPOU
  2
ARROWANG
 10
4292.153564
 20
2233.469253
 30
0.0
 41
30.0
 42
30.0
 50
90.0
 43
30.0
  0
INSERT
  8
SUNPOU
  2
ARROWANG
 10
4292.153564
 20
1933.469253
 30
0.0
 41
30.0
 42
30.0
 50
270.0
 43
30.0
  0
LINE
  8
SUNPOU
 10
4292.153564
 20
1933.469253
 30
0.0
 11
4292.153564
 21
2233.469253
 31
0.0
  0
LINE
  8
SUNPOU
 10
4262.153564
 20
2233.469253
 30
0.0
 11
4262.153564
 21
2233.469253
 31
0.0
  0
LINE
  8
SUNPOU
 10
4262.153564
 20
1933.469253
 30
0.0
 11
4262.153564
 21
1933.469253
 31
0.0
  0
INSERT
  8
SUNPOU
  2
ARROWANG
 10
4292.153564
 20
1933.469253
 30
0.0
 41
30.0
 42
30.0
 50
270.0
 43
30.0
  0
LINE
  8
SUNPOU
 10
4292.153564
 20
1933.469253
 30
0.0
 11
4292.153564
 21
1933.469253
 31
0.0
  0
LINE
  8
SUNPOU
 10
4262.153564
 20
1933.469253
 30
0.0
 11
4262.153564
 21
1933.469253
 31
0.0
  0
LINE
  8
SUNPOU
 10
4262.153564
 20
1933.469253
 30
0.0
 11
4262.153564
 21
1933.469253
 31
0.0
  0
INSERT
  8
SUNPOU
  2
ARROWANG
 10
4292.153564
 20
1933.469253
 30
0.0
 41
30.0
 42
30.0
 50
270.0
 43
30.0
  0
LINE
  8
SUNPOU
 10
4262.153564
 20
1933.469253
 30
0.0
 11
4262.153564
 21
1933.469253
 31
0.0
  0
LINE
  8
SUNPOU
 10
4262.153564
 20
1933.469253
 30
0.0
 11
4262.153564
 21
1933.469253
 31
0.0
  0
INSERT
  8
SUNPOU
  2
ARROWANG
 10
4292.153564
 20
1933.469253
 30
0.0
 41
30.0
 42
30.0
 50
270.0
 43
30.0
  0
LINE
  8
SUNPOU
 10
4292.153564
 20
1933.469253
 30
0.0
 11
4292.153564
 21
1933.469253
 31
0.0
  0
LINE
  8
SUNPOU
 10
4322.153564
 20
1933.469253
 30
0.0
 11
4322.153564
 21
1933.469253
 31
0.0
  0
LINE
  8
SUNPOU
 10
4322.153564
 20
1933.469253
 30
0.0
 11
4322.153564
 21
1933.469253
 31
0.0
  0
LINE
  8
SUNPOU
 10
4292.153564
 20
1933.469253
 30
0.0
 11
4292.153564
 21
1933.469253
 31
0.0
  0
LINE
  8
SUNPOU
 10
4262.153564
 20
1933.469253
 30
0.0
 11
4262.153564
 21
1933.469253
 31
0.0
  0
LINE
  8
SUNPOU
 10
4262.153564
 20
1933.469253
 30
0.0
 11
4262.153564
 21
1933.469253
 31
0.0
  0
LINE
  8
SUNPOU
 10
4322.153564
 20
1933.469253
 30
0.0
 11
4322.153564
 21
1933.469253
 31
0.0
  0
LINE
  8
SUNPOU
 10
4322.153564
 20
1633.469253
 30
0.0
 11
4322.153564
 21
1633.469253
 31
0.0
  0
TEXT
  8
SUNPOU
 10
4247.153564
 20
1490.969253
 30
0.0
 40
45.0
  1
150
 50
90.0
  7
K
 72
     1
 11
4247.153564
 21
1558.469253
 31
0.0
  0
INSERT
  8
SUNPOU
  2
ARROWANG
 10
4292.153564
 20
1633.469253
 30
0.0
 41
30.0
 42
30.0
 50
90.0
 43
30.0
  0
INSERT
  8
SUNPOU
  2
ARROWANG
 10
4292.153564
 20
1483.469253
 30
0.0
 41
30.0
 42
30.0
 50
270.0
 43
30.0
  0
LINE
  8
SUNPOU
 10
4292.153564
 20
1483.469253
 30
0.0
 11
4292.153564
 21
1633.469253
 31
0.0
  0
LINE
  8
SUNPOU
 10
4262.153564
 20
1633.469253
 30
0.0
 11
4262.153564
 21
1633.469253
 31
0.0
  0
LINE
  8
SUNPOU
 10
4262.153564
 20
1483.469253
 30
0.0
 11
4262.153564
 21
1483.469253
 31
0.0
  0
TEXT
  8
SUNPOU
 10
4673.225007
 20
1378.469253
 30
0.0
 40
45.0
  1
1556
  7
K
 72
     1
 11
4762.153579
 21
1378.469253
 31
0.0
  0
INSERT
  8
SUNPOU
  2
ARROWANG
 10
5540.153564
 20
1333.469253
 30
0.0
 41
30.0
 42
30.0
 43
30.0
  0
INSERT
  8
SUNPOU
  2
ARROWANG
 10
3984.153564
 20
1333.469253
 30
0.0
 41
30.0
 42
30.0
 50
180.0
 43
30.0
  0
LINE
  8
SUNPOU
 10
3984.153564
 20
1333.469253
 30
0.0
 11
5540.153564
 21
1333.469253
 31
0.0
  0
LINE
  8
SUNPOU
 10
5540.153564
 20
1453.469253
 30
0.0
 11
5540.153564
 21
1303.469253
 31
0.0
  0
LINE
  8
SUNPOU
 10
3984.153564
 20
1453.469253
 30
0.0
 11
3984.153564
 21
1303.469253
 31
0.0
  0
TEXT
  8
SUNPOU
 10
4673.225007
 20
1228.469253
 30
0.0
 40
45.0
  1
1578
  7
K
 72
     1
 11
4762.153579
 21
1228.469253
 31
0.0
  0
INSERT
  8
SUNPOU
  2
ARROWANG
 10
5551.153564
 20
1183.469253
 30
0.0
 41
30.0
 42
30.0
 43
30.0
  0
INSERT
  8
SUNPOU
  2
ARROWANG
 10
3973.153564
 20
1183.469253
 30
0.0
 41
30.0
 42
30.0
 50
180.0
 43
30.0
  0
LINE
  8
SUNPOU
 10
3973.153564
 20
1183.469253
 30
0.0
 11
5551.153564
 21
1183.469253
 31
0.0
  0
LINE
  8
SUNPOU
 10
5551.153564
 20
1468.469253
 30
0.0
 11
5551.153564
 21
1153.469253
 31
0.0
  0
LINE
  8
SUNPOU
 10
3973.153564
 20
1468.469253
 30
0.0
 11
3973.153564
 21
1153.469253
 31
0.0
  0
TEXT
  8
SUNPOU
 10
5742.153564
 20
1605.219253
 30
0.0
 40
45.0
  1
100
 50
90.0
  7
K
 72
     1
 11
5742.153564
 21
1672.719253
 31
0.0
  0
LINE
  8
SUNPOU
 10
5787.153564
 20
1498.469253
 30
0.0
 11
5787.153565
 21
1438.469253
 31
0.0
  0
LINE
  8
SUNPOU
 10
5787.153564
 20
1598.469253
 30
0.0
 11
5787.153564
 21
1740.219253
 31
0.0
  0
INSERT
  8
SUNPOU
  2
ARROWANG
 10
5787.153564
 20
1598.469253
 30
0.0
 41
30.0
 42
30.0
 50
270.0
 43
30.0
  0
INSERT
  8
SUNPOU
  2
ARROWANG
 10
5787.153564
 20
1498.469253
 30
0.0
 41
30.0
 42
30.0
 50
90.0
 43
30.0
  0
LINE
  8
SUNPOU
 10
5787.153564
 20
1498.469253
 30
0.0
 11
5787.153564
 21
1598.469253
 31
0.0
  0
LINE
  8
SUNPOU
 10
5475.871997
 20
1598.469253
 30
0.0
 11
5817.153564
 21
1598.469253
 31
0.0
  0
LINE
  8
SUNPOU
 10
5667.153564
 20
1498.469253
 30
0.0
 11
5817.153564
 21
1498.469253
 31
0.0
  0
TEXT
  8
SUNPOU
 10
5742.153564
 20
2456.719253
 30
0.0
 40
45.0
  1
100
 50
90.0
  7
K
 72
     1
 11
5742.153564
 21
2524.219253
 31
0.0
  0
LINE
  8
SUNPOU
 10
5787.153564
 20
2698.469253
 30
0.0
 11
5787.153564
 21
2758.469253
 31
0.0
  0
LINE
  8
SUNPOU
 10
5787.153564
 20
2598.469253
 30
0.0
 11
5787.153564
 21
2456.719253
 31
0.0
  0
INSERT
  8
SUNPOU
  2
ARROWANG
 10
5787.153564
 20
2698.469253
 30
0.0
 41
30.0
 42
30.0
 50
270.0
 43
30.0
  0
INSERT
  8
SUNPOU
  2
ARROWANG
 10
5787.153564
 20
2598.469253
 30
0.0
 41
30.0
 42
30.0
 50
90.0
 43
30.0
  0
LINE
  8
SUNPOU
 10
5787.153564
 20
2598.469253
 30
0.0
 11
5787.153564
 21
2698.469253
 31
0.0
  0
LINE
  8
SUNPOU
 10
5667.153564
 20
2698.469253
 30
0.0
 11
5817.153564
 21
2698.469253
 31
0.0
  0
LINE
  8
SUNPOU
 10
5475.871997
 20
2598.469253
 30
0.0
 11
5817.153564
 21
2598.469253
 31
0.0
  0
LINE
  8
SUNPOU
 10
3587.153564
 20
1483.469253
 30
0.0
 11
3587.153564
 21
1423.469253
 31
0.0
  0
TEXT
  8
SUNPOU
 10
3542.153564
 20
1444.897824
 30
0.0
 40
45.0
  1
15
 50
90.0
  7
K
 72
     1
 11
3542.153564
 21
1490.969253
 31
0.0
  0
INSERT
  8
SUNPOU
  2
ARROWANG
 10
3587.153564
 20
1483.469253
 30
0.0
 41
30.0
 42
30.0
 50
90.0
 43
30.0
  0
LINE
  8
SUNPOU
 10
3587.153564
 20
1483.469253
 30
0.0
 11
3587.153564
 21
1498.469253
 31
0.0
  0
LINE
  8
SUNPOU
 10
3617.153564
 20
1498.469253
 30
0.0
 11
3617.153564
 21
1498.469253
 31
0.0
  0
LINE
  8
SUNPOU
 10
3954.153564
 20
1483.469253
 30
0.0
 11
3557.153564
 21
1483.469253
 31
0.0
  0
TEXT
  8
SUNPOU
 10
3692.153564
 20
2705.11211
 30
0.0
 40
45.0
  1
23
 50
90.0
  7
K
 72
     1
 11
3692.153564
 21
2747.969253
 31
0.0
  0
LINE
  8
SUNPOU
 10
3737.153564
 20
2675.469253
 30
0.0
 11
3737.153565
 21
2615.469253
 31
0.0
  0
LINE
  8
SUNPOU
 10
3737.153564
 20
2698.469253
 30
0.0
 11
3737.153564
 21
2797.469253
 31
0.0
  0
INSERT
  8
SUNPOU
  2
ARROWANG
 10
3737.153564
 20
2698.469253
 30
0.0
 41
30.0
 42
30.0
 50
270.0
 43
30.0
  0
INSERT
  8
SUNPOU
  2
ARROWANG
 10
3737.153564
 20
2675.469253
 30
0.0
 41
30.0
 42
30.0
 50
90.0
 43
30.0
  0
LINE
  8
SUNPOU
 10
3737.153564
 20
2675.469253
 30
0.0
 11
3737.153564
 21
2698.469253
 31
0.0
  0
LINE
  8
SUNPOU
 10
3767.153564
 20
2698.469253
 30
0.0
 11
3767.153564
 21
2698.469253
 31
0.0
  0
LINE
  8
SUNPOU
 10
3949.153564
 20
2675.469253
 30
0.0
 11
3707.153564
 21
2675.469253
 31
0.0
  0
LINE
  8
SUNPOU
 10
3767.153564
 20
2698.469253
 30
0.0
 11
3767.153564
 21
2698.469253
 31
0.0
  0
LINE
  8
SUNPOU
 10
3857.153564
 20
2698.469253
 30
0.0
 11
3557.153564
 21
2698.469253
 31
0.0
  0
LINE
  8
SUNPOU
 10
3857.153564
 20
1498.469253
 30
0.0
 11
3557.153564
 21
1498.469253
 31
0.0
  0
TEXT
  8
SUNPOU
 10
4673.225007
 20
2843.469253
 30
0.0
 40
45.0
  1
1566
  7
K
 72
     1
 11
4762.153579
 21
2843.469253
 31
0.0
  0
INSERT
  8
SUNPOU
  2
ARROWANG
 10
5545.153564
 20
2798.469253
 30
0.0
 41
30.0
 42
30.0
 43
30.0
  0
INSERT
  8
SUNPOU
  2
ARROWANG
 10
3979.153564
 20
2798.469253
 30
0.0
 41
30.0
 42
30.0
 50
180.0
 43
30.0
  0
LINE
  8
SUNPOU
 10
3979.153564
 20
2798.469253
 30
0.0
 11
5545.153564
 21
2798.469253
 31
0.0
  0
LINE
  8
SUNPOU
 10
5545.153564
 20
2705.469253
 30
0.0
 11
5545.153564
 21
2828.469253
 31
0.0
  0
LINE
  8
SUNPOU
 10
3979.153564
 20
2705.469253
 30
0.0
 11
3979.153564
 21
2828.469253
 31
0.0
  0
TEXT
  8
SUNPOU
 10
4673.225007
 20
2943.469253
 30
0.0
 40
45.0
  1
1580
  7
K
 72
     1
 11
4762.153579
 21
2943.469253
 31
0.0
  0
INSERT
  8
SUNPOU
  2
ARROWANG
 10
5552.153564
 20
2898.469253
 30
0.0
 41
30.0
 42
30.0
 43
30.0
  0
INSERT
  8
SUNPOU
  2
ARROWANG
 10
3972.153564
 20
2898.469253
 30
0.0
 41
30.0
 42
30.0
 50
180.0
 43
30.0
  0
LINE
  8
SUNPOU
 10
3972.153564
 20
2898.469253
 30
0.0
 11
5552.153564
 21
2898.469253
 31
0.0
  0
LINE
  8
SUNPOU
 10
5552.153564
 20
2728.469253
 30
0.0
 11
5552.153564
 21
2928.469253
 31
0.0
  0
LINE
  8
SUNPOU
 10
3972.153564
 20
2728.469253
 30
0.0
 11
3972.153564
 21
2928.469253
 31
0.0
  0
TEXT
  8
SUNPOU
 10
5507.153579
 20
3043.469253
 30
0.0
 40
45.0
  1
125
  7
K
 72
     1
 11
5574.653579
 21
3043.469253
 31
0.0
  0
INSERT
  8
SUNPOU
  2
ARROWANG
 10
5637.153564
 20
2998.469253
 30
0.0
 41
30.0
 42
30.0
 43
30.0
  0
INSERT
  8
SUNPOU
  2
ARROWANG
 10
5512.153564
 20
2998.469253
 30
0.0
 41
30.0
 42
30.0
 50
180.0
 43
30.0
  0
LINE
  8
SUNPOU
 10
5512.153564
 20
2998.469253
 30
0.0
 11
5637.153564
 21
2998.469253
 31
0.0
  0
LINE
  8
SUNPOU
 10
5637.153564
 20
2728.469253
 30
0.0
 11
5637.153564
 21
3028.469253
 31
0.0
  0
LINE
  8
SUNPOU
 10
5512.153564
 20
2705.469253
 30
0.0
 11
5512.153564
 21
3028.469253
 31
0.0
  0
TEXT
  8
SUNPOU
 10
4673.225007
 20
3043.469253
 30
0.0
 40
45.0
  1
1500
  7
K
 72
     1
 11
4762.153579
 21
3043.469253
 31
0.0
  0
INSERT
  8
SUNPOU
  2
ARROWANG
 10
5512.153564
 20
2998.469253
 30
0.0
 41
30.0
 42
30.0
 43
30.0
  0
INSERT
  8
SUNPOU
  2
ARROWANG
 10
4012.153564
 20
2998.469253
 30
0.0
 41
30.0
 42
30.0
 50
180.0
 43
30.0
  0
LINE
  8
SUNPOU
 10
4012.153564
 20
2998.469253
 30
0.0
 11
5512.153564
 21
2998.469253
 31
0.0
  0
LINE
  8
SUNPOU
 10
4012.153564
 20
2968.469253
 30
0.0
 11
4012.153564
 21
2968.469253
 31
0.0
  0
TEXT
  8
SUNPOU
 10
3886.051445
 20
3043.469253
 30
0.0
 40
45.0
  1
125
  7
K
 72
     1
 11
3953.551445
 21
3043.469253
 31
0.0
  0
INSERT
  8
SUNPOU
  2
ARROWANG
 10
3887.153564
 20
2998.469253
 30
0.0
 41
30.0
 42
30.0
 50
180.0
 43
30.0
  0
INSERT
  8
SUNPOU
  2
ARROWANG
 10
4012.153564
 20
2998.469253
 30
0.0
 41
30.0
 42
30.0
 43
30.0
  0
LINE
  8
SUNPOU
 10
3887.153564
 20
2998.469253
 30
0.0
 11
4012.153564
 21
2998.469253
 31
0.0
  0
LINE
  8
SUNPOU
 10
4012.153564
 20
3025.896105
 30
0.0
 11
4012.153564
 21
3028.469253
 31
0.0
  0
LINE
  8
SUNPOU
 10
3887.153564
 20
3025.896105
 30
0.0
 11
3887.153564
 21
3028.469253
 31
0.0
  0
LINE
  8
SUNPOU
 10
4012.153564
 20
2705.469253
 30
0.0
 11
4012.153564
 21
3028.469253
 31
0.0
  0
LINE
  8
SUNPOU
 10
3887.153564
 20
2728.469253
 30
0.0
 11
3887.153564
 21
3028.469253
 31
0.0
  0
LINE
  8
ITTEN
 10
5445.871997
 20
2598.469253
 30
0.0
 11
5315.871997
 21
2598.469253
 31
0.0
  0
LINE
  8
ITTEN
 10
5380.871997
 20
2663.469253
 30
0.0
 11
5380.871997
 21
2533.469253
 31
0.0
  0
LINE
  8
ITTEN
 10
4208.43513
 20
2598.469253
 30
0.0
 11
4078.43513
 21
2598.469253
 31
0.0
  0
LINE
  8
ITTEN
 10
4143.43513
 20
2663.469253
 30
0.0
 11
4143.43513
 21
2533.469253
 31
0.0
  0
LINE
  8
ITTEN
 10
5445.871997
 20
1598.469253
 30
0.0
 11
5315.871997
 21
1598.469253
 31
0.0
  0
LINE
  8
ITTEN
 10
5380.871997
 20
1663.469253
 30
0.0
 11
5380.871997
 21
1533.469253
 31
0.0
  0
LINE
  8
ITTEN
 10
4208.43513
 20
1598.469253
 30
0.0
 11
4078.43513
 21
1598.469253
 31
0.0
  0
LINE
  8
ITTEN
 10
4143.43513
 20
1663.469253
 30
0.0
 11
4143.43513
 21
1533.469253
 31
0.0
  0
CIRCLE
  8
JISSEN
 10
5380.871997
 20
2598.469253
 30
0.0
 40
15.0
  0
CIRCLE
  8
TENSEN
 10
4143.43513
 20
2598.469253
 30
0.0
 40
15.0
  0
CIRCLE
  8
TENSEN
 10
4143.43513
 20
1598.469253
 30
0.0
 40
15.0
  0
CIRCLE
  8
JISSEN
 10
5380.871997
 20
1598.469253
 30
0.0
 40
15.0
  0
LINE
  8
TENSEN
 10
4762.153564
 20
2675.469253
 30
0.0
 11
5512.153564
 21
2675.469253
 31
0.0
  0
ARC
  8
JISSEN
 10
4132.153564
 20
2533.469253
 30
0.0
 40
10.0
 50
270.0
 51
90.0
  0
LINE
  8
JISSEN
 10
4132.153564
 20
2523.469253
 30
0.0
 11
4012.153564
 21
2523.469253
 31
0.0
  0
LINE
  8
JISSEN
 10
4012.153564
 20
2543.469253
 30
0.0
 11
4132.153564
 21
2543.469253
 31
0.0
  0
LINE
  8
ITTEN
 10
3956.03771
 20
2533.469253
 30
0.0
 11
4312.153564
 21
2533.469253
 31
0.0
  0
ARC
  8
JISSEN
 10
4132.153564
 20
2233.469253
 30
0.0
 40
10.0
 50
270.0
 51
90.0
  0
LINE
  8
JISSEN
 10
4132.153564
 20
2223.469253
 30
0.0
 11
4012.153564
 21
2223.469253
 31
0.0
  0
LINE
  8
JISSEN
 10
4012.153564
 20
2243.469253
 30
0.0
 11
4132.153564
 21
2243.469253
 31
0.0
  0
LINE
  8
ITTEN
 10
3956.03771
 20
2233.469253
 30
0.0
 11
4312.153564
 21
2233.469253
 31
0.0
  0
ARC
  8
JISSEN
 10
4132.153564
 20
1933.469253
 30
0.0
 40
10.0
 50
270.0
 51
90.0
  0
LINE
  8
JISSEN
 10
4132.153564
 20
1923.469253
 30
0.0
 11
4012.153564
 21
1923.469253
 31
0.0
  0
LINE
  8
JISSEN
 10
4012.153564
 20
1943.469253
 30
0.0
 11
4132.153564
 21
1943.469253
 31
0.0
  0
LINE
  8
ITTEN
 10
3956.03771
 20
1933.469253
 30
0.0
 11
4312.153564
 21
1933.469253
 31
0.0
  0
LINE
  8
ITTEN
 10
3956.03771
 20
1933.469253
 30
0.0
 11
4312.153564
 21
1933.469253
 31
0.0
  0
LINE
  8
ITTEN
 10
3956.03771
 20
1933.469253
 30
0.0
 11
4312.153564
 21
1933.469253
 31
0.0
  0
LINE
  8
ITTEN
 10
3956.03771
 20
1633.469253
 30
0.0
 11
4312.153564
 21
1633.469253
 31
0.0
  0
LINE
  8
JISSEN
 10
4132.153564
 20
1623.469253
 30
0.0
 11
4012.153564
 21
1623.469253
 31
0.0
  0
LINE
  8
JISSEN
 10
4012.153564
 20
1643.469253
 30
0.0
 11
4132.153564
 21
1643.469253
 31
0.0
  0
ARC
  8
JISSEN
 10
4132.153564
 20
1633.469253
 30
0.0
 40
10.0
 50
270.0
 51
90.0
  0
LINE
  8
JISSEN
 10
3972.153564
 20
2698.469253
 30
0.0
 11
5552.153564
 21
2698.469253
 31
0.0
  0
LINE
  8
JISSEN
 10
5551.153564
 20
1498.469253
 30
0.0
 11
4762.153564
 21
1498.469253
 31
0.0
  0
LINE
  8
JISSEN
 10
4012.153564
 20
1483.469253
 30
0.0
 11
5512.153564
 21
1483.469253
 31
0.0
  0
LINE
  8
JISSEN
 10
4012.153564
 20
2675.469253
 30
0.0
 11
4762.153564
 21
2675.469253
 31
0.0
  0
LINE
  8
JISSEN
 10
5551.153564
 20
1498.469253
 30
0.0
 11
5540.153564
 21
1483.469253
 31
0.0
  0
LINE
  8
JISSEN
 10
5552.153564
 20
2698.469253
 30
0.0
 11
5545.153564
 21
2675.469253
 31
0.0
  0
LINE
  8
JISSEN
 10
5540.153564
 20
1483.469253
 30
0.0
 11
5512.153564
 21
1483.469253
 31
0.0
  0
LINE
  8
JISSEN
 10
5637.153564
 20
1498.469253
 30
0.0
 11
5551.153564
 21
1498.469253
 31
0.0
  0
LINE
  8
TENSEN
 10
5512.153564
 20
1483.469253
 30
0.0
 11
5512.153564
 21
2675.469253
 31
0.0
  0
LINE
  8
JISSEN
 10
5545.153564
 20
2675.469253
 30
0.0
 11
5512.153564
 21
2675.469253
 31
0.0
  0
LINE
  8
JISSEN
 10
5637.153564
 20
2698.469253
 30
0.0
 11
5637.153564
 21
1498.469253
 31
0.0
  0
LINE
  8
JISSEN
 10
5637.153564
 20
2698.469253
 30
0.0
 11
5552.153564
 21
2698.469253
 31
0.0
  0
LINE
  8
JISSEN
 10
4012.153564
 20
1483.469253
 30
0.0
 11
4012.153564
 21
2675.469253
 31
0.0
  0
LINE
  8
JISSEN
 10
3887.153564
 20
2698.469253
 30
0.0
 11
3887.153564
 21
1498.469253
 31
0.0
  0
LINE
  8
JISSEN
 10
3984.153564
 20
1483.469253
 30
0.0
 11
4012.153564
 21
1483.469253
 31
0.0
  0
LINE
  8
JISSEN
 10
3973.153564
 20
1498.469253
 30
0.0
 11
3984.153564
 21
1483.469253
 31
0.0
  0
LINE
  8
JISSEN
 10
3887.153564
 20
1498.469253
 30
0.0
 11
3973.153564
 21
1498.469253
 31
0.0
  0
LINE
  8
JISSEN
 10
3887.153564
 20
2698.469253
 30
0.0
 11
3887.153564
 21
2698.469253
 31
0.0
  0
LINE
  8
JISSEN
 10
3979.153564
 20
2675.469253
 30
0.0
 11
4012.153564
 21
2675.469253
 31
0.0
  0
LINE
  8
JISSEN
 10
3972.153564
 20
2698.469253
 30
0.0
 11
3979.153564
 21
2675.469253
 31
0.0
  0
LINE
  8
JISSEN
 10
3887.153564
 20
2698.469253
 30
0.0
 11
3972.153564
 21
2698.469253
 31
0.0
  0
LINE
  8
SUNPOU
 10
3557.153564
 20
1498.469253
 30
0.0
 11
3557.153564
 21
1498.469253
 31
0.0
  0
LINE
  8
SUNPOU
 10
3557.153564
 20
2698.469253
 30
0.0
 11
3557.153564
 21
2698.469253
 31
0.0
  0
LINE
  8
SUNPOU
 10
4262.153564
 20
1633.469253
 30
0.0
 11
4262.153564
 21
1633.469253
 31
0.0
  0
LINE
  8
SUNPOU
 10
4262.153564
 20
1933.469253
 30
0.0
 11
4262.153564
 21
1933.469253
 31
0.0
  0
LINE
  8
SUNPOU
 10
4412.153564
 20
1483.469253
 30
0.0
 11
4412.153564
 21
1483.469253
 31
0.0
  0
LINE
  8
SUNPOU
 10
4412.153564
 20
2675.469253
 30
0.0
 11
4412.153564
 21
2675.469253
 31
0.0
  0
LINE
  8
SUNPOU
 10
4262.153564
 20
1633.469253
 30
0.0
 11
4262.153564
 21
1633.469253
 31
0.0
  0
LINE
  8
SUNPOU
 10
4262.153564
 20
1933.469253
 30
0.0
 11
4262.153564
 21
1933.469253
 31
0.0
  0
TEXT
  8
SUNPOU
 10
4247.153564
 20
1719.183539
 30
0.0
 40
45.0
  1
300
 50
90.0
  7
K
 72
     1
 11
4247.153564
 21
1783.469253
 31
0.0
  0
LINE
  8
SUNPOU
 10
3617.153564
 20
1498.469253
 30
0.0
 11
3617.153564
 21
1498.469253
 31
0.0
  0
LINE
  8
SUNPOU
 10
3617.153564
 20
2698.469253
 30
0.0
 11
3617.153564
 21
2698.469253
 31
0.0
  0
LINE
  8
SUNPOU
 10
4412.153564
 20
1483.469253
 30
0.0
 11
4412.153564
 21
1483.469253
 31
0.0
  0
LINE
  8
SUNPOU
 10
4412.153564
 20
2675.469253
 30
0.0
 11
4412.153564
 21
2675.469253
 31
0.0
  0
LINE
  8
SUNPOU
 10
6912.153564
 20
2675.469253
 30
0.0
 11
6912.153564
 21
2675.469253
 31
0.0
  0
LINE
  8
SUNPOU
 10
6912.153564
 20
1783.469253
 30
0.0
 11
6912.153564
 21
1783.469253
 31
0.0
  0
LINE
  8
SUNPOU
 10
6117.153564
 20
2698.469253
 30
0.0
 11
6117.153564
 21
2698.469253
 31
0.0
  0
LINE
  8
SUNPOU
 10
6117.153564
 20
1798.469253
 30
0.0
 11
6117.153564
 21
1798.469253
 31
0.0
  0
TEXT
  8
SUNPOU
 10
6747.153564
 20
2019.183539
 30
0.0
 40
45.0
  1
300
 50
90.0
  7
K
 72
     1
 11
6747.153564
 21
2083.469253
 31
0.0
  0
LINE
  8
SUNPOU
 10
6762.153564
 20
2233.469253
 30
0.0
 11
6762.153564
 21
2233.469253
 31
0.0
  0
LINE
  8
SUNPOU
 10
6762.153564
 20
1933.469253
 30
0.0
 11
6762.153564
 21
1933.469253
 31
0.0
  0
LINE
  8
SUNPOU
 10
6912.153564
 20
2675.469253
 30
0.0
 11
6912.153564
 21
2675.469253
 31
0.0
  0
LINE
  8
SUNPOU
 10
6912.153564
 20
1783.469253
 30
0.0
 11
6912.153564
 21
1783.469253
 31
0.0
  0
LINE
  8
SUNPOU
 10
6762.153564
 20
2233.469253
 30
0.0
 11
6762.153564
 21
2233.469253
 31
0.0
  0
LINE
  8
SUNPOU
 10
6762.153564
 20
1933.469253
 30
0.0
 11
6762.153564
 21
1933.469253
 31
0.0
  0
LINE
  8
SUNPOU
 10
6057.153564
 20
2698.469253
 30
0.0
 11
6057.153564
 21
2698.469253
 31
0.0
  0
LINE
  8
SUNPOU
 10
6057.153564
 20
1798.469253
 30
0.0
 11
6057.153564
 21
1798.469253
 31
0.0
  0
LINE
  8
JISSEN
 10
6387.153564
 20
2698.469253
 30
0.0
 11
6472.153564
 21
2698.469253
 31
0.0
  0
LINE
  8
JISSEN
 10
6472.153564
 20
2698.469253
 30
0.0
 11
6479.153564
 21
2675.469253
 31
0.0
  0
LINE
  8
JISSEN
 10
6479.153564
 20
2675.469253
 30
0.0
 11
6512.153564
 21
2675.469253
 31
0.0
  0
LINE
  8
JISSEN
 10
6387.153564
 20
2698.469253
 30
0.0
 11
6387.153564
 21
2698.469253
 31
0.0
  0
LINE
  8
JISSEN
 10
6387.153564
 20
1798.469253
 30
0.0
 11
6473.153564
 21
1798.469253
 31
0.0
  0
LINE
  8
JISSEN
 10
6473.153564
 20
1798.469253
 30
0.0
 11
6484.153564
 21
1783.469253
 31
0.0
  0
LINE
  8
JISSEN
 10
6484.153564
 20
1783.469253
 30
0.0
 11
6512.153564
 21
1783.469253
 31
0.0
  0
LINE
  8
JISSEN
 10
6387.153564
 20
2698.469253
 30
0.0
 11
6387.153564
 21
1798.469253
 31
0.0
  0
LINE
  8
JISSEN
 10
6512.153564
 20
1783.469253
 30
0.0
 11
6512.153564
 21
2675.469253
 31
0.0
  0
LINE
  8
JISSEN
 10
8137.153564
 20
2698.469253
 30
0.0
 11
8052.153564
 21
2698.469253
 31
0.0
  0
LINE
  8
JISSEN
 10
8137.153564
 20
2698.469253
 30
0.0
 11
8137.153564
 21
1798.469253
 31
0.0
  0
LINE
  8
JISSEN
 10
8045.153564
 20
2675.469253
 30
0.0
 11
8012.153564
 21
2675.469253
 31
0.0
  0
LINE
  8
TENSEN
 10
8012.153564
 20
1783.469253
 30
0.0
 11
8012.153564
 21
2675.469253
 31
0.0
  0
LINE
  8
JISSEN
 10
8137.153564
 20
1798.469253
 30
0.0
 11
8051.153564
 21
1798.469253
 31
0.0
  0
LINE
  8
JISSEN
 10
8040.153564
 20
1783.469253
 30
0.0
 11
8012.153564
 21
1783.469253
 31
0.0
  0
LINE
  8
JISSEN
 10
8052.153564
 20
2698.469253
 30
0.0
 11
8045.153564
 21
2675.469253
 31
0.0
  0
LINE
  8
JISSEN
 10
8051.153564
 20
1798.469253
 30
0.0
 11
8040.153564
 21
1783.469253
 31
0.0
  0
LINE
  8
JISSEN
 10
6512.153564
 20
2675.469253
 30
0.0
 11
7262.153564
 21
2675.469253
 31
0.0
  0
LINE
  8
JISSEN
 10
6512.153564
 20
1783.469253
 30
0.0
 11
8012.153564
 21
1783.469253
 31
0.0
  0
LINE
  8
JISSEN
 10
8051.153564
 20
1798.469253
 30
0.0
 11
7262.153564
 21
1798.469253
 31
0.0
  0
LINE
  8
JISSEN
 10
6472.153564
 20
2698.469253
 30
0.0
 11
8052.153564
 21
2698.469253
 31
0.0
  0
ARC
  8
JISSEN
 10
6632.153564
 20
1933.469253
 30
0.0
 40
10.0
 50
270.0
 51
90.0
  0
LINE
  8
JISSEN
 10
6512.153564
 20
1943.469253
 30
0.0
 11
6632.153564
 21
1943.469253
 31
0.0
  0
LINE
  8
JISSEN
 10
6632.153564
 20
1923.469253
 30
0.0
 11
6512.153564
 21
1923.469253
 31
0.0
  0
LINE
  8
ITTEN
 10
6456.03771
 20
1933.469253
 30
0.0
 11
6812.153564
 21
1933.469253
 31
0.0
  0
LINE
  8
ITTEN
 10
6456.03771
 20
2233.469253
 30
0.0
 11
6812.153564
 21
2233.469253
 31
0.0
  0
LINE
  8
ITTEN
 10
6456.03771
 20
2233.469253
 30
0.0
 11
6812.153564
 21
2233.469253
 31
0.0
  0
LINE
  8
ITTEN
 10
6456.03771
 20
2233.469253
 30
0.0
 11
6812.153564
 21
2233.469253
 31
0.0
  0
LINE
  8
JISSEN
 10
6512.153564
 20
2243.469253
 30
0.0
 11
6632.153564
 21
2243.469253
 31
0.0
  0
LINE
  8
JISSEN
 10
6632.153564
 20
2223.469253
 30
0.0
 11
6512.153564
 21
2223.469253
 31
0.0
  0
ARC
  8
JISSEN
 10
6632.153564
 20
2233.469253
 30
0.0
 40
10.0
 50
270.0
 51
90.0
  0
LINE
  8
ITTEN
 10
6456.03771
 20
2233.469253
 30
0.0
 11
6812.153564
 21
2233.469253
 31
0.0
  0
LINE
  8
JISSEN
 10
6512.153564
 20
2243.469253
 30
0.0
 11
6632.153564
 21
2243.469253
 31
0.0
  0
LINE
  8
JISSEN
 10
6632.153564
 20
2223.469253
 30
0.0
 11
6512.153564
 21
2223.469253
 31
0.0
  0
ARC
  8
JISSEN
 10
6632.153564
 20
2233.469253
 30
0.0
 40
10.0
 50
270.0
 51
90.0
  0
LINE
  8
ITTEN
 10
6456.03771
 20
2533.469253
 30
0.0
 11
6812.153564
 21
2533.469253
 31
0.0
  0
LINE
  8
TENSEN
 10
7262.153564
 20
2675.469253
 30
0.0
 11
8012.153564
 21
2675.469253
 31
0.0
  0
CIRCLE
  8
JISSEN
 10
7880.871997
 20
1898.469253
 30
0.0
 40
15.0
  0
CIRCLE
  8
TENSEN
 10
6643.43513
 20
1898.469253
 30
0.0
 40
15.0
  0
CIRCLE
  8
TENSEN
 10
6643.43513
 20
2598.469253
 30
0.0
 40
15.0
  0
CIRCLE
  8
JISSEN
 10
7880.871997
 20
2598.469253
 30
0.0
 40
15.0
  0
LINE
  8
ITTEN
 10
6643.43513
 20
1963.469253
 30
0.0
 11
6643.43513
 21
1833.469253
 31
0.0
  0
LINE
  8
ITTEN
 10
6708.43513
 20
1898.469253
 30
0.0
 11
6578.43513
 21
1898.469253
 31
0.0
  0
LINE
  8
ITTEN
 10
7880.871997
 20
1963.469253
 30
0.0
 11
7880.871997
 21
1833.469253
 31
0.0
  0
LINE
  8
ITTEN
 10
7945.871997
 20
1898.469253
 30
0.0
 11
7815.871997
 21
1898.469253
 31
0.0
  0
LINE
  8
ITTEN
 10
6643.43513
 20
2663.469253
 30
0.0
 11
6643.43513
 21
2533.469253
 31
0.0
  0
LINE
  8
ITTEN
 10
6708.43513
 20
2598.469253
 30
0.0
 11
6578.43513
 21
2598.469253
 31
0.0
  0
LINE
  8
ITTEN
 10
7880.871997
 20
2663.469253
 30
0.0
 11
7880.871997
 21
2533.469253
 31
0.0
  0
LINE
  8
ITTEN
 10
7945.871997
 20
2598.469253
 30
0.0
 11
7815.871997
 21
2598.469253
 31
0.0
  0
LINE
  8
SUNPOU
 10
6387.153564
 20
2728.469253
 30
0.0
 11
6387.153564
 21
3028.469253
 31
0.0
  0
LINE
  8
SUNPOU
 10
6512.153564
 20
2705.469253
 30
0.0
 11
6512.153564
 21
3028.469253
 31
0.0
  0
LINE
  8
SUNPOU
 10
6387.153564
 20
3025.896105
 30
0.0
 11
6387.153564
 21
3028.469253
 31
0.0
  0
LINE
  8
SUNPOU
 10
6512.153564
 20
3025.896105
 30
0.0
 11
6512.153564
 21
3028.469253
 31
0.0
  0
LINE
  8
SUNPOU
 10
6387.153564
 20
2998.469253
 30
0.0
 11
6512.153564
 21
2998.469253
 31
0.0
  0
INSERT
  8
SUNPOU
  2
ARROWANG
 10
6512.153564
 20
2998.469253
 30
0.0
 41
30.0
 42
30.0
 43
30.0
  0
INSERT
  8
SUNPOU
  2
ARROWANG
 10
6387.153564
 20
2998.469253
 30
0.0
 41
30.0
 42
30.0
 50
180.0
 43
30.0
  0
TEXT
  8
SUNPOU
 10
6386.051445
 20
3043.469253
 30
0.0
 40
45.0
  1
125
  7
K
 72
     1
 11
6453.551445
 21
3043.469253
 31
0.0
  0
LINE
  8
SUNPOU
 10
6512.153564
 20
2968.469253
 30
0.0
 11
6512.153564
 21
2968.469253
 31
0.0
  0
LINE
  8
SUNPOU
 10
6512.153564
 20
2998.469253
 30
0.0
 11
8012.153564
 21
2998.469253
 31
0.0
  0
INSERT
  8
SUNPOU
  2
ARROWANG
 10
6512.153564
 20
2998.469253
 30
0.0
 41
30.0
 42
30.0
 50
180.0
 43
30.0
  0
INSERT
  8
SUNPOU
  2
ARROWANG
 10
8012.153564
 20
2998.469253
 30
0.0
 41
30.0
 42
30.0
 43
30.0
  0
TEXT
  8
SUNPOU
 10
7173.225007
 20
3043.469253
 30
0.0
 40
45.0
  1
1500
  7
K
 72
     1
 11
7262.153579
 21
3043.469253
 31
0.0
  0
LINE
  8
SUNPOU
 10
8012.153564
 20
2705.469253
 30
0.0
 11
8012.153564
 21
3028.469253
 31
0.0
  0
LINE
  8
SUNPOU
 10
8137.153564
 20
2728.469253
 30
0.0
 11
8137.153564
 21
3028.469253
 31
0.0
  0
LINE
  8
SUNPOU
 10
8012.153564
 20
2998.469253
 30
0.0
 11
8137.153564
 21
2998.469253
 31
0.0
  0
INSERT
  8
SUNPOU
  2
ARROWANG
 10
8012.153564
 20
2998.469253
 30
0.0
 41
30.0
 42
30.0
 50
180.0
 43
30.0
  0
INSERT
  8
SUNPOU
  2
ARROWANG
 10
8137.153564
 20
2998.469253
 30
0.0
 41
30.0
 42
30.0
 43
30.0
  0
TEXT
  8
SUNPOU
 10
8007.153579
 20
3043.469253
 30
0.0
 40
45.0
  1
125
  7
K
 72
     1
 11
8074.653579
 21
3043.469253
 31
0.0
  0
LINE
  8
SUNPOU
 10
6472.153564
 20
2728.469253
 30
0.0
 11
6472.153564
 21
2928.469253
 31
0.0
  0
LINE
  8
SUNPOU
 10
8052.153564
 20
2728.469253
 30
0.0
 11
8052.153564
 21
2928.469253
 31
0.0
  0
LINE
  8
SUNPOU
 10
6472.153564
 20
2898.469253
 30
0.0
 11
8052.153564
 21
2898.469253
 31
0.0
  0
INSERT
  8
SUNPOU
  2
ARROWANG
 10
6472.153564
 20
2898.469253
 30
0.0
 41
30.0
 42
30.0
 50
180.0
 43
30.0
  0
INSERT
  8
SUNPOU
  2
ARROWANG
 10
8052.153564
 20
2898.469253
 30
0.0
 41
30.0
 42
30.0
 43
30.0
  0
TEXT
  8
SUNPOU
 10
7173.225007
 20
2943.469253
 30
0.0
 40
45.0
  1
1580
  7
K
 72
     1
 11
7262.153579
 21
2943.469253
 31
0.0
  0
LINE
  8
SUNPOU
 10
6479.153564
 20
2705.469253
 30
0.0
 11
6479.153564
 21
2828.469253
 31
0.0
  0
LINE
  8
SUNPOU
 10
8045.153564
 20
2705.469253
 30
0.0
 11
8045.153564
 21
2828.469253
 31
0.0
  0
LINE
  8
SUNPOU
 10
6479.153564
 20
2798.469253
 30
0.0
 11
8045.153564
 21
2798.469253
 31
0.0
  0
INSERT
  8
SUNPOU
  2
ARROWANG
 10
6479.153564
 20
2798.469253
 30
0.0
 41
30.0
 42
30.0
 50
180.0
 43
30.0
  0
INSERT
  8
SUNPOU
  2
ARROWANG
 10
8045.153564
 20
2798.469253
 30
0.0
 41
30.0
 42
30.0
 43
30.0
  0
TEXT
  8
SUNPOU
 10
7173.225007
 20
2843.469253
 30
0.0
 40
45.0
  1
1566
  7
K
 72
     1
 11
7262.153579
 21
2843.469253
 31
0.0
  0
LINE
  8
SUNPOU
 10
6357.153564
 20
1798.469253
 30
0.0
 11
6057.153564
 21
1798.469253
 31
0.0
  0
LINE
  8
SUNPOU
 10
6357.153564
 20
2698.469253
 30
0.0
 11
6057.153564
 21
2698.469253
 31
0.0
  0
LINE
  8
SUNPOU
 10
6267.153564
 20
2698.469253
 30
0.0
 11
6267.153564
 21
2698.469253
 31
0.0
  0
LINE
  8
SUNPOU
 10
6449.153564
 20
2675.469253
 30
0.0
 11
6207.153564
 21
2675.469253
 31
0.0
  0
LINE
  8
SUNPOU
 10
6267.153564
 20
2698.469253
 30
0.0
 11
6267.153564
 21
2698.469253
 31
0.0
  0
LINE
  8
SUNPOU
 10
6237.153564
 20
2675.469253
 30
0.0
 11
6237.153564
 21
2698.469253
 31
0.0
  0
INSERT
  8
SUNPOU
  2
ARROWANG
 10
6237.153564
 20
2675.469253
 30
0.0
 41
30.0
 42
30.0
 50
90.0
 43
30.0
  0
INSERT
  8
SUNPOU
  2
ARROWANG
 10
6237.153564
 20
2698.469253
 30
0.0
 41
30.0
 42
30.0
 50
270.0
 43
30.0
  0
LINE
  8
SUNPOU
 10
6237.153564
 20
2698.469253
 30
0.0
 11
6237.153564
 21
2797.469253
 31
0.0
  0
LINE
  8
SUNPOU
 10
6237.153564
 20
2675.469253
 30
0.0
 11
6237.153565
 21
2615.469253
 31
0.0
  0
TEXT
  8
SUNPOU
 10
6192.153564
 20
2705.11211
 30
0.0
 40
45.0
  1
23
 50
90.0
  7
K
 72
     1
 11
6192.153564
 21
2747.969253
 31
0.0
  0
LINE
  8
SUNPOU
 10
6454.153564
 20
1783.469253
 30
0.0
 11
6057.153564
 21
1783.469253
 31
0.0
  0
LINE
  8
SUNPOU
 10
6117.153564
 20
1798.469253
 30
0.0
 11
6117.153564
 21
1798.469253
 31
0.0
  0
LINE
  8
SUNPOU
 10
6087.153564
 20
1783.469253
 30
0.0
 11
6087.153564
 21
1798.469253
 31
0.0
  0
INSERT
  8
SUNPOU
  2
ARROWANG
 10
6087.153564
 20
1783.469253
 30
0.0
 41
30.0
 42
30.0
 50
90.0
 43
30.0
  0
TEXT
  8
SUNPOU
 10
6042.153564
 20
1744.897824
 30
0.0
 40
45.0
  1
15
 50
90.0
  7
K
 72
     1
 11
6042.153564
 21
1790.969253
 31
0.0
  0
LINE
  8
SUNPOU
 10
6087.153564
 20
1783.469253
 30
0.0
 11
6087.153564
 21
1723.469253
 31
0.0
  0
LINE
  8
SUNPOU
 10
7975.871997
 20
2598.469253
 30
0.0
 11
8317.153564
 21
2598.469253
 31
0.0
  0
LINE
  8
SUNPOU
 10
8167.153564
 20
2698.469253
 30
0.0
 11
8317.153564
 21
2698.469253
 31
0.0
  0
LINE
  8
SUNPOU
 10
8287.153564
 20
2598.469253
 30
0.0
 11
8287.153564
 21
2698.469253
 31
0.0
  0
INSERT
  8
SUNPOU
  2
ARROWANG
 10
8287.153564
 20
2598.469253
 30
0.0
 41
30.0
 42
30.0
 50
90.0
 43
30.0
  0
INSERT
  8
SUNPOU
  2
ARROWANG
 10
8287.153564
 20
2698.469253
 30
0.0
 41
30.0
 42
30.0
 50
270.0
 43
30.0
  0
LINE
  8
SUNPOU
 10
8287.153564
 20
2598.469253
 30
0.0
 11
8287.153564
 21
2456.719253
 31
0.0
  0
LINE
  8
SUNPOU
 10
8287.153564
 20
2698.469253
 30
0.0
 11
8287.153564
 21
2758.469253
 31
0.0
  0
TEXT
  8
SUNPOU
 10
8242.153564
 20
2456.719253
 30
0.0
 40
45.0
  1
100
 50
90.0
  7
K
 72
     1
 11
8242.153564
 21
2524.219253
 31
0.0
  0
LINE
  8
SUNPOU
 10
8167.153564
 20
1798.469253
 30
0.0
 11
8317.153564
 21
1798.469253
 31
0.0
  0
LINE
  8
SUNPOU
 10
7975.871997
 20
1898.469253
 30
0.0
 11
8317.153564
 21
1898.469253
 31
0.0
  0
LINE
  8
SUNPOU
 10
8287.153564
 20
1798.469253
 30
0.0
 11
8287.153564
 21
1898.469253
 31
0.0
  0
INSERT
  8
SUNPOU
  2
ARROWANG
 10
8287.153564
 20
1798.469253
 30
0.0
 41
30.0
 42
30.0
 50
90.0
 43
30.0
  0
INSERT
  8
SUNPOU
  2
ARROWANG
 10
8287.153564
 20
1898.469253
 30
0.0
 41
30.0
 42
30.0
 50
270.0
 43
30.0
  0
LINE
  8
SUNPOU
 10
8287.153564
 20
1898.469253
 30
0.0
 11
8287.153564
 21
2040.219253
 31
0.0
  0
LINE
  8
SUNPOU
 10
8287.153564
 20
1798.469253
 30
0.0
 11
8287.153565
 21
1738.469253
 31
0.0
  0
TEXT
  8
SUNPOU
 10
8242.153564
 20
1905.219253
 30
0.0
 40
45.0
  1
100
 50
90.0
  7
K
 72
     1
 11
8242.153564
 21
1972.719253
 31
0.0
  0
LINE
  8
SUNPOU
 10
6473.153564
 20
1768.469253
 30
0.0
 11
6473.153564
 21
1453.469253
 31
0.0
  0
LINE
  8
SUNPOU
 10
8051.153564
 20
1768.469253
 30
0.0
 11
8051.153564
 21
1453.469253
 31
0.0
  0
LINE
  8
SUNPOU
 10
6473.153564
 20
1483.469253
 30
0.0
 11
8051.153564
 21
1483.469253
 31
0.0
  0
INSERT
  8
SUNPOU
  2
ARROWANG
 10
6473.153564
 20
1483.469253
 30
0.0
 41
30.0
 42
30.0
 50
180.0
 43
30.0
  0
INSERT
  8
SUNPOU
  2
ARROWANG
 10
8051.153564
 20
1483.469253
 30
0.0
 41
30.0
 42
30.0
 43
30.0
  0
TEXT
  8
SUNPOU
 10
7173.225007
 20
1528.469253
 30
0.0
 40
45.0
  1
1578
  7
K
 72
     1
 11
7262.153579
 21
1528.469253
 31
0.0
  0
LINE
  8
SUNPOU
 10
6484.153564
 20
1753.469253
 30
0.0
 11
6484.153564
 21
1603.469253
 31
0.0
  0
LINE
  8
SUNPOU
 10
8040.153564
 20
1753.469253
 30
0.0
 11
8040.153564
 21
1603.469253
 31
0.0
  0
LINE
  8
SUNPOU
 10
6484.153564
 20
1633.469253
 30
0.0
 11
8040.153564
 21
1633.469253
 31
0.0
  0
INSERT
  8
SUNPOU
  2
ARROWANG
 10
6484.153564
 20
1633.469253
 30
0.0
 41
30.0
 42
30.0
 50
180.0
 43
30.0
  0
INSERT
  8
SUNPOU
  2
ARROWANG
 10
8040.153564
 20
1633.469253
 30
0.0
 41
30.0
 42
30.0
 43
30.0
  0
TEXT
  8
SUNPOU
 10
7173.225007
 20
1678.469253
 30
0.0
 40
45.0
  1
1556
  7
K
 72
     1
 11
7262.153579
 21
1678.469253
 31
0.0
  0
LINE
  8
SUNPOU
 10
6762.153564
 20
1783.469253
 30
0.0
 11
6762.153564
 21
1783.469253
 31
0.0
  0
LINE
  8
SUNPOU
 10
6762.153564
 20
1933.469253
 30
0.0
 11
6762.153564
 21
1933.469253
 31
0.0
  0
LINE
  8
SUNPOU
 10
6792.153564
 20
1783.469253
 30
0.0
 11
6792.153564
 21
1933.469253
 31
0.0
  0
INSERT
  8
SUNPOU
  2
ARROWANG
 10
6792.153564
 20
1783.469253
 30
0.0
 41
30.0
 42
30.0
 50
270.0
 43
30.0
  0
INSERT
  8
SUNPOU
  2
ARROWANG
 10
6792.153564
 20
1933.469253
 30
0.0
 41
30.0
 42
30.0
 50
90.0
 43
30.0
  0
TEXT
  8
SUNPOU
 10
6747.153564
 20
1790.969253
 30
0.0
 40
45.0
  1
150
 50
90.0
  7
K
 72
     1
 11
6747.153564
 21
1858.469253
 31
0.0
  0
LINE
  8
SUNPOU
 10
6822.153564
 20
1933.469253
 30
0.0
 11
6822.153564
 21
1933.469253
 31
0.0
  0
LINE
  8
SUNPOU
 10
6822.153564
 20
2233.469253
 30
0.0
 11
6822.153564
 21
2233.469253
 31
0.0
  0
LINE
  8
SUNPOU
 10
6762.153564
 20
2233.469253
 30
0.0
 11
6762.153564
 21
2233.469253
 31
0.0
  0
LINE
  8
SUNPOU
 10
6762.153564
 20
2233.469253
 30
0.0
 11
6762.153564
 21
2233.469253
 31
0.0
  0
LINE
  8
SUNPOU
 10
6792.153564
 20
2233.469253
 30
0.0
 11
6792.153564
 21
2233.469253
 31
0.0
  0
LINE
  8
SUNPOU
 10
6822.153564
 20
2233.469253
 30
0.0
 11
6822.153564
 21
2233.469253
 31
0.0
  0
LINE
  8
SUNPOU
 10
6822.153564
 20
2233.469253
 30
0.0
 11
6822.153564
 21
2233.469253
 31
0.0
  0
LINE
  8
SUNPOU
 10
6792.153564
 20
2233.469253
 30
0.0
 11
6792.153564
 21
2233.469253
 31
0.0
  0
INSERT
  8
SUNPOU
  2
ARROWANG
 10
6792.153564
 20
2233.469253
 30
0.0
 41
30.0
 42
30.0
 50
270.0
 43
30.0
  0
LINE
  8
SUNPOU
 10
6762.153564
 20
2233.469253
 30
0.0
 11
6762.153564
 21
2233.469253
 31
0.0
  0
LINE
  8
SUNPOU
 10
6762.153564
 20
2233.469253
 30
0.0
 11
6762.153564
 21
2233.469253
 31
0.0
  0
INSERT
  8
SUNPOU
  2
ARROWANG
 10
6792.153564
 20
2233.469253
 30
0.0
 41
30.0
 42
30.0
 50
270.0
 43
30.0
  0
LINE
  8
SUNPOU
 10
6762.153564
 20
2233.469253
 30
0.0
 11
6762.153564
 21
2233.469253
 31
0.0
  0
LINE
  8
SUNPOU
 10
6762.153564
 20
2233.469253
 30
0.0
 11
6762.153564
 21
2233.469253
 31
0.0
  0
LINE
  8
SUNPOU
 10
6792.153564
 20
2233.469253
 30
0.0
 11
6792.153564
 21
2233.469253
 31
0.0
  0
INSERT
  8
SUNPOU
  2
ARROWANG
 10
6792.153564
 20
2233.469253
 30
0.0
 41
30.0
 42
30.0
 50
270.0
 43
30.0
  0
LINE
  8
SUNPOU
 10
6762.153564
 20
2233.469253
 30
0.0
 11
6762.153564
 21
2233.469253
 31
0.0
  0
LINE
  8
SUNPOU
 10
6762.153564
 20
2233.469253
 30
0.0
 11
6762.153564
 21
2233.469253
 31
0.0
  0
LINE
  8
SUNPOU
 10
6792.153564
 20
2233.469253
 30
0.0
 11
6792.153564
 21
2233.469253
 31
0.0
  0
INSERT
  8
SUNPOU
  2
ARROWANG
 10
6792.153564
 20
2233.469253
 30
0.0
 41
30.0
 42
30.0
 50
90.0
 43
30.0
  0
LINE
  8
SUNPOU
 10
6762.153564
 20
2233.469253
 30
0.0
 11
6762.153564
 21
2233.469253
 31
0.0
  0
LINE
  8
SUNPOU
 10
6762.153564
 20
2533.469253
 30
0.0
 11
6762.153564
 21
2533.469253
 31
0.0
  0
LINE
  8
SUNPOU
 10
6912.153564
 20
1783.469253
 30
0.0
 11
6912.153564
 21
1783.469253
 31
0.0
  0
LINE
  8
SUNPOU
 10
6912.153564
 20
2675.469253
 30
0.0
 11
6912.153564
 21
2675.469253
 31
0.0
  0
LINE
  8
ITTEN
 10
6456.03771
 20
1933.469253
 30
0.0
 11
6812.153564
 21
1933.469253
 31
0.0
  0
LINE
  8
SUNPOU
 10
6762.153564
 20
1933.469253
 30
0.0
 11
6762.153564
 21
1933.469253
 31
0.0
  0
LINE
  8
SUNPOU
 10
6762.153564
 20
2233.469253
 30
0.0
 11
6762.153564
 21
2233.469253
 31
0.0
  0
LINE
  8
SUNPOU
 10
6057.153564
 20
1798.469253
 30
0.0
 11
6057.153564
 21
1798.469253
 31
0.0
  0
LINE
  8
SUNPOU
 10
6057.153564
 20
2698.469253
 30
0.0
 11
6057.153564
 21
2698.469253
 31
0.0
  0
LINE
  8
SUNPOU
 10
6912.153564
 20
1783.469253
 30
0.0
 11
6912.153564
 21
1783.469253
 31
0.0
  0
LINE
  8
SUNPOU
 10
6912.153564
 20
2675.469253
 30
0.0
 11
6912.153564
 21
2675.469253
 31
0.0
  0
LINE
  8
SUNPOU
 10
6762.153564
 20
1933.469253
 30
0.0
 11
6762.153564
 21
1933.469253
 31
0.0
  0
LINE
  8
SUNPOU
 10
6762.153564
 20
2233.469253
 30
0.0
 11
6762.153564
 21
2233.469253
 31
0.0
  0
LINE
  8
SUNPOU
 10
6792.153564
 20
1933.469253
 30
0.0
 11
6792.153564
 21
2233.469253
 31
0.0
  0
LINE
  8
SUNPOU
 10
6057.153564
 20
1798.469253
 30
0.0
 11
6057.153564
 21
1798.469253
 31
0.0
  0
LINE
  8
SUNPOU
 10
6057.153564
 20
2698.469253
 30
0.0
 11
6057.153564
 21
2698.469253
 31
0.0
  0
LINE
  8
SUNPOU
 10
6912.153564
 20
1783.469253
 30
0.0
 11
6912.153564
 21
1783.469253
 31
0.0
  0
LINE
  8
SUNPOU
 10
6912.153564
 20
2675.469253
 30
0.0
 11
6912.153564
 21
2675.469253
 31
0.0
  0
LINE
  8
JISSEN
 10
6512.153564
 20
2543.469253
 30
0.0
 11
6632.153564
 21
2543.469253
 31
0.0
  0
LINE
  8
JISSEN
 10
6632.153564
 20
2523.469253
 30
0.0
 11
6512.153564
 21
2523.469253
 31
0.0
  0
LINE
  8
ITTEN
 10
6456.03771
 20
2533.469253
 30
0.0
 11
6812.153564
 21
2533.469253
 31
0.0
  0
ARC
  8
JISSEN
 10
6632.153564
 20
2533.469253
 30
0.0
 40
10.0
 50
270.0
 51
90.0
  0
LINE
  8
SUNPOU
 10
6762.153564
 20
2233.469253
 30
0.0
 11
6762.153564
 21
2233.469253
 31
0.0
  0
LINE
  8
SUNPOU
 10
6762.153564
 20
2533.469253
 30
0.0
 11
6762.153564
 21
2533.469253
 31
0.0
  0
LINE
  8
SUNPOU
 10
6792.153564
 20
2233.469253
 30
0.0
 11
6792.153564
 21
2533.469253
 31
0.0
  0
INSERT
  8
SUNPOU
  2
ARROWANG
 10
6792.153564
 20
2233.469253
 30
0.0
 41
30.0
 42
30.0
 50
270.0
 43
30.0
  0
INSERT
  8
SUNPOU
  2
ARROWANG
 10
6792.153564
 20
2533.469253
 30
0.0
 41
30.0
 42
30.0
 50
90.0
 43
30.0
  0
TEXT
  8
SUNPOU
 10
6747.153564
 20
2319.183539
 30
0.0
 40
45.0
  1
300
 50
90.0
  7
K
 72
     1
 11
6747.153564
 21
2383.469253
 31
0.0
  0
LINE
  8
SUNPOU
 10
6822.153564
 20
1933.469253
 30
0.0
 11
6822.153564
 21
1933.469253
 31
0.0
  0
LINE
  8
SUNPOU
 10
6822.153564
 20
2233.469253
 30
0.0
 11
6822.153564
 21
2233.469253
 31
0.0
  0
LINE
  8
SUNPOU
 10
6792.153564
 20
1933.469253
 30
0.0
 11
6792.153564
 21
2233.469253
 31
0.0
  0
INSERT
  8
SUNPOU
  2
ARROWANG
 10
6792.153564
 20
1933.469253
 30
0.0
 41
30.0
 42
30.0
 50
270.0
 43
30.0
  0
INSERT
  8
SUNPOU
  2
ARROWANG
 10
6792.153564
 20
2233.469253
 30
0.0
 41
30.0
 42
30.0
 50
90.0
 43
30.0
  0
TEXT
  8
SUNPOU
 10
6747.153564
 20
2019.183539
 30
0.0
 40
45.0
  1
300
 50
90.0
  7
K
 72
     1
 11
6747.153564
 21
2083.469253
 31
0.0
  0
LINE
  8
SUNPOU
 10
6057.153564
 20
1798.469253
 30
0.0
 11
6057.153564
 21
1798.469253
 31
0.0
  0
LINE
  8
SUNPOU
 10
6057.153564
 20
2698.469253
 30
0.0
 11
6057.153564
 21
2698.469253
 31
0.0
  0
LINE
  8
SUNPOU
 10
6087.153564
 20
1798.469253
 30
0.0
 11
6087.153564
 21
2698.469253
 31
0.0
  0
INSERT
  8
SUNPOU
  2
ARROWANG
 10
6087.153564
 20
1798.469253
 30
0.0
 41
30.0
 42
30.0
 50
270.0
 43
30.0
  0
INSERT
  8
SUNPOU
  2
ARROWANG
 10
6087.153564
 20
2698.469253
 30
0.0
 41
30.0
 42
30.0
 50
90.0
 43
30.0
  0
TEXT
  8
SUNPOU
 10
6042.153564
 20
2184.183539
 30
0.0
 40
45.0
  1
900
 50
90.0
  7
K
 72
     1
 11
6042.153564
 21
2248.469253
 31
0.0
  0
LINE
  8
SUNPOU
 10
6912.153564
 20
1783.469253
 30
0.0
 11
6912.153564
 21
1783.469253
 31
0.0
  0
LINE
  8
SUNPOU
 10
6912.153564
 20
2675.469253
 30
0.0
 11
6912.153564
 21
2675.469253
 31
0.0
  0
LINE
  8
SUNPOU
 10
6942.153564
 20
1783.469253
 30
0.0
 11
6942.153564
 21
2675.469253
 31
0.0
  0
INSERT
  8
SUNPOU
  2
ARROWANG
 10
6942.153564
 20
1783.469253
 30
0.0
 41
30.0
 42
30.0
 50
270.0
 43
30.0
  0
INSERT
  8
SUNPOU
  2
ARROWANG
 10
6942.153564
 20
2675.469253
 30
0.0
 41
30.0
 42
30.0
 50
90.0
 43
30.0
  0
TEXT
  8
SUNPOU
 10
6897.153564
 20
2165.183539
 30
0.0
 40
45.0
  1
892
 50
90.0
  7
K
 72
     1
 11
6897.153564
 21
2229.469253
 31
0.0
  0
LINE
  8
SUNPOU
 10
9412.153564
 20
2675.469253
 30
0.0
 11
9412.153564
 21
2675.469253
 31
0.0
  0
LINE
  8
SUNPOU
 10
9412.153564
 20
2083.469253
 30
0.0
 11
9412.153564
 21
2083.469253
 31
0.0
  0
LINE
  8
SUNPOU
 10
8557.153564
 20
2698.469253
 30
0.0
 11
8557.153564
 21
2698.469253
 31
0.0
  0
LINE
  8
SUNPOU
 10
8557.153564
 20
2098.469253
 30
0.0
 11
8557.153564
 21
2098.469253
 31
0.0
  0
TEXT
  8
SUNPOU
 10
9247.153564
 20
2319.183539
 30
0.0
 40
45.0
  1
300
 50
90.0
  7
K
 72
     1
 11
9247.153564
 21
2383.469253
 31
0.0
  0
INSERT
  8
SUNPOU
  2
ARROWANG
 10
9292.153564
 20
2233.469253
 30
0.0
 41
30.0
 42
30.0
 50
90.0
 43
30.0
  0
LINE
  8
SUNPOU
 10
9292.153564
 20
2233.469253
 30
0.0
 11
9292.153564
 21
2233.469253
 31
0.0
  0
LINE
  8
SUNPOU
 10
9322.153564
 20
2233.469253
 30
0.0
 11
9322.153564
 21
2233.469253
 31
0.0
  0
LINE
  8
SUNPOU
 10
9322.153564
 20
2233.469253
 30
0.0
 11
9322.153564
 21
2233.469253
 31
0.0
  0
LINE
  8
SUNPOU
 10
9262.153564
 20
2533.469253
 30
0.0
 11
9262.153564
 21
2533.469253
 31
0.0
  0
LINE
  8
SUNPOU
 10
9262.153564
 20
2233.469253
 30
0.0
 11
9262.153564
 21
2233.469253
 31
0.0
  0
ARC
  8
JISSEN
 10
9132.153564
 20
2533.469253
 30
0.0
 40
10.0
 50
270.0
 51
90.0
  0
LINE
  8
ITTEN
 10
8956.03771
 20
2533.469253
 30
0.0
 11
9312.153564
 21
2533.469253
 31
0.0
  0
LINE
  8
JISSEN
 10
9132.153564
 20
2523.469253
 30
0.0
 11
9012.153564
 21
2523.469253
 31
0.0
  0
LINE
  8
JISSEN
 10
9012.153564
 20
2543.469253
 30
0.0
 11
9132.153564
 21
2543.469253
 31
0.0
  0
LINE
  8
SUNPOU
 10
9412.153564
 20
2675.469253
 30
0.0
 11
9412.153564
 21
2675.469253
 31
0.0
  0
LINE
  8
SUNPOU
 10
9412.153564
 20
2083.469253
 30
0.0
 11
9412.153564
 21
2083.469253
 31
0.0
  0
LINE
  8
SUNPOU
 10
8557.153564
 20
2698.469253
 30
0.0
 11
8557.153564
 21
2698.469253
 31
0.0
  0
LINE
  8
SUNPOU
 10
8557.153564
 20
2098.469253
 30
0.0
 11
8557.153564
 21
2098.469253
 31
0.0
  0
LINE
  8
SUNPOU
 10
9292.153564
 20
2233.469253
 30
0.0
 11
9292.153564
 21
2233.469253
 31
0.0
  0
LINE
  8
SUNPOU
 10
9262.153564
 20
2233.469253
 30
0.0
 11
9262.153564
 21
2233.469253
 31
0.0
  0
LINE
  8
SUNPOU
 10
9262.153564
 20
2233.469253
 30
0.0
 11
9262.153564
 21
2233.469253
 31
0.0
  0
LINE
  8
SUNPOU
 10
9412.153564
 20
2675.469253
 30
0.0
 11
9412.153564
 21
2675.469253
 31
0.0
  0
LINE
  8
SUNPOU
 10
9412.153564
 20
2083.469253
 30
0.0
 11
9412.153564
 21
2083.469253
 31
0.0
  0
LINE
  8
SUNPOU
 10
8557.153564
 20
2698.469253
 30
0.0
 11
8557.153564
 21
2698.469253
 31
0.0
  0
LINE
  8
SUNPOU
 10
8557.153564
 20
2098.469253
 30
0.0
 11
8557.153564
 21
2098.469253
 31
0.0
  0
LINE
  8
SUNPOU
 10
9262.153564
 20
2233.469253
 30
0.0
 11
9262.153564
 21
2233.469253
 31
0.0
  0
LINE
  8
SUNPOU
 10
9262.153564
 20
2233.469253
 30
0.0
 11
9262.153564
 21
2233.469253
 31
0.0
  0
LINE
  8
ITTEN
 10
8956.03771
 20
2233.469253
 30
0.0
 11
9312.153564
 21
2233.469253
 31
0.0
  0
LINE
  8
SUNPOU
 10
9412.153564
 20
2675.469253
 30
0.0
 11
9412.153564
 21
2675.469253
 31
0.0
  0
LINE
  8
SUNPOU
 10
9412.153564
 20
2083.469253
 30
0.0
 11
9412.153564
 21
2083.469253
 31
0.0
  0
LINE
  8
SUNPOU
 10
9262.153564
 20
2533.469253
 30
0.0
 11
9262.153564
 21
2533.469253
 31
0.0
  0
LINE
  8
SUNPOU
 10
9262.153564
 20
2233.469253
 30
0.0
 11
9262.153564
 21
2233.469253
 31
0.0
  0
INSERT
  8
SUNPOU
  2
ARROWANG
 10
9292.153564
 20
2233.469253
 30
0.0
 41
30.0
 42
30.0
 50
90.0
 43
30.0
  0
LINE
  8
SUNPOU
 10
9292.153564
 20
2233.469253
 30
0.0
 11
9292.153564
 21
2233.469253
 31
0.0
  0
LINE
  8
SUNPOU
 10
9262.153564
 20
2233.469253
 30
0.0
 11
9262.153564
 21
2233.469253
 31
0.0
  0
LINE
  8
SUNPOU
 10
9262.153564
 20
2233.469253
 30
0.0
 11
9262.153564
 21
2233.469253
 31
0.0
  0
LINE
  8
SUNPOU
 10
9292.153564
 20
2233.469253
 30
0.0
 11
9292.153564
 21
2233.469253
 31
0.0
  0
LINE
  8
SUNPOU
 10
9262.153564
 20
2233.469253
 30
0.0
 11
9262.153564
 21
2233.469253
 31
0.0
  0
LINE
  8
SUNPOU
 10
9262.153564
 20
2233.469253
 30
0.0
 11
9262.153564
 21
2233.469253
 31
0.0
  0
LINE
  8
SUNPOU
 10
9262.153564
 20
2233.469253
 30
0.0
 11
9262.153564
 21
2233.469253
 31
0.0
  0
LINE
  8
SUNPOU
 10
9262.153564
 20
2233.469253
 30
0.0
 11
9262.153564
 21
2233.469253
 31
0.0
  0
LINE
  8
SUNPOU
 10
9292.153564
 20
2233.469253
 30
0.0
 11
9292.153564
 21
2233.469253
 31
0.0
  0
LINE
  8
SUNPOU
 10
9322.153564
 20
2233.469253
 30
0.0
 11
9322.153564
 21
2233.469253
 31
0.0
  0
LINE
  8
SUNPOU
 10
9322.153564
 20
2233.469253
 30
0.0
 11
9322.153564
 21
2233.469253
 31
0.0
  0
LINE
  8
SUNPOU
 10
9292.153564
 20
2233.469253
 30
0.0
 11
9292.153564
 21
2233.469253
 31
0.0
  0
LINE
  8
SUNPOU
 10
9262.153564
 20
2233.469253
 30
0.0
 11
9262.153564
 21
2233.469253
 31
0.0
  0
LINE
  8
SUNPOU
 10
9262.153564
 20
2233.469253
 30
0.0
 11
9262.153564
 21
2233.469253
 31
0.0
  0
LINE
  8
SUNPOU
 10
9322.153564
 20
2233.469253
 30
0.0
 11
9322.153564
 21
2233.469253
 31
0.0
  0
LINE
  8
SUNPOU
 10
9322.153564
 20
2233.469253
 30
0.0
 11
9322.153564
 21
2233.469253
 31
0.0
  0
TEXT
  8
SUNPOU
 10
9247.153564
 20
2090.969253
 30
0.0
 40
45.0
  1
150
 50
90.0
  7
K
 72
     1
 11
9247.153564
 21
2158.469253
 31
0.0
  0
INSERT
  8
SUNPOU
  2
ARROWANG
 10
9292.153564
 20
2233.469253
 30
0.0
 41
30.0
 42
30.0
 50
90.0
 43
30.0
  0
INSERT
  8
SUNPOU
  2
ARROWANG
 10
9292.153564
 20
2083.469253
 30
0.0
 41
30.0
 42
30.0
 50
270.0
 43
30.0
  0
LINE
  8
SUNPOU
 10
9292.153564
 20
2083.469253
 30
0.0
 11
9292.153564
 21
2233.469253
 31
0.0
  0
LINE
  8
SUNPOU
 10
9262.153564
 20
2233.469253
 30
0.0
 11
9262.153564
 21
2233.469253
 31
0.0
  0
LINE
  8
SUNPOU
 10
9262.153564
 20
2083.469253
 30
0.0
 11
9262.153564
 21
2083.469253
 31
0.0
  0
TEXT
  8
SUNPOU
 10
9673.225007
 20
1978.469253
 30
0.0
 40
45.0
  1
1556
  7
K
 72
     1
 11
9762.153579
 21
1978.469253
 31
0.0
  0
INSERT
  8
SUNPOU
  2
ARROWANG
 10
10540.153564
 20
1933.469253
 30
0.0
 41
30.0
 42
30.0
 43
30.0
  0
INSERT
  8
SUNPOU
  2
ARROWANG
 10
8984.153564
 20
1933.469253
 30
0.0
 41
30.0
 42
30.0
 50
180.0
 43
30.0
  0
LINE
  8
SUNPOU
 10
8984.153564
 20
1933.469253
 30
0.0
 11
10540.153564
 21
1933.469253
 31
0.0
  0
LINE
  8
SUNPOU
 10
10540.153564
 20
2053.469253
 30
0.0
 11
10540.153564
 21
1903.469253
 31
0.0
  0
LINE
  8
SUNPOU
 10
8984.153564
 20
2053.469253
 30
0.0
 11
8984.153564
 21
1903.469253
 31
0.0
  0
TEXT
  8
SUNPOU
 10
9673.225007
 20
1828.469253
 30
0.0
 40
45.0
  1
1578
  7
K
 72
     1
 11
9762.153579
 21
1828.469253
 31
0.0
  0
INSERT
  8
SUNPOU
  2
ARROWANG
 10
10551.153564
 20
1783.469253
 30
0.0
 41
30.0
 42
30.0
 43
30.0
  0
INSERT
  8
SUNPOU
  2
ARROWANG
 10
8973.153564
 20
1783.469253
 30
0.0
 41
30.0
 42
30.0
 50
180.0
 43
30.0
  0
LINE
  8
SUNPOU
 10
8973.153564
 20
1783.469253
 30
0.0
 11
10551.153564
 21
1783.469253
 31
0.0
  0
LINE
  8
SUNPOU
 10
10551.153564
 20
2068.469253
 30
0.0
 11
10551.153564
 21
1753.469253
 31
0.0
  0
LINE
  8
SUNPOU
 10
8973.153564
 20
2068.469253
 30
0.0
 11
8973.153564
 21
1753.469253
 31
0.0
  0
TEXT
  8
SUNPOU
 10
10742.153564
 20
2205.219253
 30
0.0
 40
45.0
  1
100
 50
90.0
  7
K
 72
     1
 11
10742.153564
 21
2272.719253
 31
0.0
  0
LINE
  8
SUNPOU
 10
10787.153564
 20
2098.469253
 30
0.0
 11
10787.153565
 21
2038.469253
 31
0.0
  0
LINE
  8
SUNPOU
 10
10787.153564
 20
2198.469253
 30
0.0
 11
10787.153564
 21
2340.219253
 31
0.0
  0
INSERT
  8
SUNPOU
  2
ARROWANG
 10
10787.153564
 20
2198.469253
 30
0.0
 41
30.0
 42
30.0
 50
270.0
 43
30.0
  0
INSERT
  8
SUNPOU
  2
ARROWANG
 10
10787.153564
 20
2098.469253
 30
0.0
 41
30.0
 42
30.0
 50
90.0
 43
30.0
  0
LINE
  8
SUNPOU
 10
10787.153564
 20
2098.469253
 30
0.0
 11
10787.153564
 21
2198.469253
 31
0.0
  0
LINE
  8
SUNPOU
 10
10475.871997
 20
2198.469253
 30
0.0
 11
10817.153564
 21
2198.469253
 31
0.0
  0
LINE
  8
SUNPOU
 10
10667.153564
 20
2098.469253
 30
0.0
 11
10817.153564
 21
2098.469253
 31
0.0
  0
LINE
  8
SUNPOU
 10
8587.153564
 20
2083.469253
 30
0.0
 11
8587.153564
 21
2023.469253
 31
0.0
  0
TEXT
  8
SUNPOU
 10
8542.153564
 20
2044.897824
 30
0.0
 40
45.0
  1
15
 50
90.0
  7
K
 72
     1
 11
8542.153564
 21
2090.969253
 31
0.0
  0
INSERT
  8
SUNPOU
  2
ARROWANG
 10
8587.153564
 20
2083.469253
 30
0.0
 41
30.0
 42
30.0
 50
90.0
 43
30.0
  0
LINE
  8
SUNPOU
 10
8587.153564
 20
2083.469253
 30
0.0
 11
8587.153564
 21
2098.469253
 31
0.0
  0
LINE
  8
SUNPOU
 10
8617.153564
 20
2098.469253
 30
0.0
 11
8617.153564
 21
2098.469253
 31
0.0
  0
LINE
  8
SUNPOU
 10
8954.153564
 20
2083.469253
 30
0.0
 11
8557.153564
 21
2083.469253
 31
0.0
  0
TEXT
  8
SUNPOU
 10
8692.153564
 20
2705.11211
 30
0.0
 40
45.0
  1
23
 50
90.0
  7
K
 72
     1
 11
8692.153564
 21
2747.969253
 31
0.0
  0
LINE
  8
SUNPOU
 10
8737.153564
 20
2675.469253
 30
0.0
 11
8737.153565
 21
2615.469253
 31
0.0
  0
LINE
  8
SUNPOU
 10
8737.153564
 20
2698.469253
 30
0.0
 11
8737.153564
 21
2797.469253
 31
0.0
  0
INSERT
  8
SUNPOU
  2
ARROWANG
 10
8737.153564
 20
2698.469253
 30
0.0
 41
30.0
 42
30.0
 50
270.0
 43
30.0
  0
INSERT
  8
SUNPOU
  2
ARROWANG
 10
8737.153564
 20
2675.469253
 30
0.0
 41
30.0
 42
30.0
 50
90.0
 43
30.0
  0
LINE
  8
SUNPOU
 10
8737.153564
 20
2675.469253
 30
0.0
 11
8737.153564
 21
2698.469253
 31
0.0
  0
LINE
  8
SUNPOU
 10
8767.153564
 20
2698.469253
 30
0.0
 11
8767.153564
 21
2698.469253
 31
0.0
  0
LINE
  8
SUNPOU
 10
8949.153564
 20
2675.469253
 30
0.0
 11
8707.153564
 21
2675.469253
 31
0.0
  0
LINE
  8
SUNPOU
 10
8767.153564
 20
2698.469253
 30
0.0
 11
8767.153564
 21
2698.469253
 31
0.0
  0
LINE
  8
SUNPOU
 10
8857.153564
 20
2698.469253
 30
0.0
 11
8557.153564
 21
2698.469253
 31
0.0
  0
LINE
  8
SUNPOU
 10
8857.153564
 20
2098.469253
 30
0.0
 11
8557.153564
 21
2098.469253
 31
0.0
  0
TEXT
  8
SUNPOU
 10
9673.225007
 20
2843.469253
 30
0.0
 40
45.0
  1
1566
  7
K
 72
     1
 11
9762.153579
 21
2843.469253
 31
0.0
  0
INSERT
  8
SUNPOU
  2
ARROWANG
 10
10545.153564
 20
2798.469253
 30
0.0
 41
30.0
 42
30.0
 43
30.0
  0
INSERT
  8
SUNPOU
  2
ARROWANG
 10
8979.153564
 20
2798.469253
 30
0.0
 41
30.0
 42
30.0
 50
180.0
 43
30.0
  0
LINE
  8
SUNPOU
 10
8979.153564
 20
2798.469253
 30
0.0
 11
10545.153564
 21
2798.469253
 31
0.0
  0
LINE
  8
SUNPOU
 10
10545.153564
 20
2705.469253
 30
0.0
 11
10545.153564
 21
2828.469253
 31
0.0
  0
LINE
  8
SUNPOU
 10
8979.153564
 20
2705.469253
 30
0.0
 11
8979.153564
 21
2828.469253
 31
0.0
  0
TEXT
  8
SUNPOU
 10
9673.225007
 20
2943.469253
 30
0.0
 40
45.0
  1
1580
  7
K
 72
     1
 11
9762.153579
 21
2943.469253
 31
0.0
  0
INSERT
  8
SUNPOU
  2
ARROWANG
 10
10552.153564
 20
2898.469253
 30
0.0
 41
30.0
 42
30.0
 43
30.0
  0
INSERT
  8
SUNPOU
  2
ARROWANG
 10
8972.153564
 20
2898.469253
 30
0.0
 41
30.0
 42
30.0
 50
180.0
 43
30.0
  0
LINE
  8
SUNPOU
 10
8972.153564
 20
2898.469253
 30
0.0
 11
10552.153564
 21
2898.469253
 31
0.0
  0
LINE
  8
SUNPOU
 10
10552.153564
 20
2728.469253
 30
0.0
 11
10552.153564
 21
2928.469253
 31
0.0
  0
LINE
  8
SUNPOU
 10
8972.153564
 20
2728.469253
 30
0.0
 11
8972.153564
 21
2928.469253
 31
0.0
  0
TEXT
  8
SUNPOU
 10
10507.153579
 20
3043.469253
 30
0.0
 40
45.0
  1
125
  7
K
 72
     1
 11
10574.653579
 21
3043.469253
 31
0.0
  0
INSERT
  8
SUNPOU
  2
ARROWANG
 10
10637.153564
 20
2998.469253
 30
0.0
 41
30.0
 42
30.0
 43
30.0
  0
INSERT
  8
SUNPOU
  2
ARROWANG
 10
10512.153564
 20
2998.469253
 30
0.0
 41
30.0
 42
30.0
 50
180.0
 43
30.0
  0
LINE
  8
SUNPOU
 10
10512.153564
 20
2998.469253
 30
0.0
 11
10637.153564
 21
2998.469253
 31
0.0
  0
LINE
  8
SUNPOU
 10
10637.153564
 20
2728.469253
 30
0.0
 11
10637.153564
 21
3028.469253
 31
0.0
  0
LINE
  8
SUNPOU
 10
10512.153564
 20
2705.469253
 30
0.0
 11
10512.153564
 21
3028.469253
 31
0.0
  0
TEXT
  8
SUNPOU
 10
9673.225007
 20
3043.469253
 30
0.0
 40
45.0
  1
1500
  7
K
 72
     1
 11
9762.153579
 21
3043.469253
 31
0.0
  0
INSERT
  8
SUNPOU
  2
ARROWANG
 10
10512.153564
 20
2998.469253
 30
0.0
 41
30.0
 42
30.0
 43
30.0
  0
INSERT
  8
SUNPOU
  2
ARROWANG
 10
9012.153564
 20
2998.469253
 30
0.0
 41
30.0
 42
30.0
 50
180.0
 43
30.0
  0
LINE
  8
SUNPOU
 10
9012.153564
 20
2998.469253
 30
0.0
 11
10512.153564
 21
2998.469253
 31
0.0
  0
LINE
  8
SUNPOU
 10
9012.153564
 20
2968.469253
 30
0.0
 11
9012.153564
 21
2968.469253
 31
0.0
  0
TEXT
  8
SUNPOU
 10
8886.051445
 20
3043.469253
 30
0.0
 40
45.0
  1
125
  7
K
 72
     1
 11
8953.551445
 21
3043.469253
 31
0.0
  0
INSERT
  8
SUNPOU
  2
ARROWANG
 10
8887.153564
 20
2998.469253
 30
0.0
 41
30.0
 42
30.0
 50
180.0
 43
30.0
  0
INSERT
  8
SUNPOU
  2
ARROWANG
 10
9012.153564
 20
2998.469253
 30
0.0
 41
30.0
 42
30.0
 43
30.0
  0
LINE
  8
SUNPOU
 10
8887.153564
 20
2998.469253
 30
0.0
 11
9012.153564
 21
2998.469253
 31
0.0
  0
LINE
  8
SUNPOU
 10
9012.153564
 20
3025.896105
 30
0.0
 11
9012.153564
 21
3028.469253
 31
0.0
  0
LINE
  8
SUNPOU
 10
8887.153564
 20
3025.896105
 30
0.0
 11
8887.153564
 21
3028.469253
 31
0.0
  0
LINE
  8
SUNPOU
 10
9012.153564
 20
2705.469253
 30
0.0
 11
9012.153564
 21
3028.469253
 31
0.0
  0
LINE
  8
SUNPOU
 10
8887.153564
 20
2728.469253
 30
0.0
 11
8887.153564
 21
3028.469253
 31
0.0
  0
LINE
  8
ITTEN
 10
10445.871997
 20
2598.469253
 30
0.0
 11
10315.871997
 21
2598.469253
 31
0.0
  0
LINE
  8
ITTEN
 10
10380.871997
 20
2663.469253
 30
0.0
 11
10380.871997
 21
2533.469253
 31
0.0
  0
LINE
  8
ITTEN
 10
9208.43513
 20
2598.469253
 30
0.0
 11
9078.43513
 21
2598.469253
 31
0.0
  0
LINE
  8
ITTEN
 10
9143.43513
 20
2663.469253
 30
0.0
 11
9143.43513
 21
2533.469253
 31
0.0
  0
LINE
  8
ITTEN
 10
10445.871997
 20
2198.469253
 30
0.0
 11
10315.871997
 21
2198.469253
 31
0.0
  0
LINE
  8
ITTEN
 10
10380.871997
 20
2263.469253
 30
0.0
 11
10380.871997
 21
2133.469253
 31
0.0
  0
LINE
  8
ITTEN
 10
9208.43513
 20
2198.469253
 30
0.0
 11
9078.43513
 21
2198.469253
 31
0.0
  0
LINE
  8
ITTEN
 10
9143.43513
 20
2263.469253
 30
0.0
 11
9143.43513
 21
2133.469253
 31
0.0
  0
CIRCLE
  8
JISSEN
 10
10380.871997
 20
2598.469253
 30
0.0
 40
15.0
  0
CIRCLE
  8
TENSEN
 10
9143.43513
 20
2598.469253
 30
0.0
 40
15.0
  0
CIRCLE
  8
TENSEN
 10
9143.43513
 20
2198.469253
 30
0.0
 40
15.0
  0
CIRCLE
  8
JISSEN
 10
10380.871997
 20
2198.469253
 30
0.0
 40
15.0
  0
LINE
  8
TENSEN
 10
9762.153564
 20
2675.469253
 30
0.0
 11
10512.153564
 21
2675.469253
 31
0.0
  0
LINE
  8
ITTEN
 10
8956.03771
 20
2533.469253
 30
0.0
 11
9312.153564
 21
2533.469253
 31
0.0
  0
LINE
  8
ITTEN
 10
8956.03771
 20
2233.469253
 30
0.0
 11
9312.153564
 21
2233.469253
 31
0.0
  0
LINE
  8
ITTEN
 10
8956.03771
 20
2233.469253
 30
0.0
 11
9312.153564
 21
2233.469253
 31
0.0
  0
LINE
  8
ITTEN
 10
8956.03771
 20
2233.469253
 30
0.0
 11
9312.153564
 21
2233.469253
 31
0.0
  0
LINE
  8
ITTEN
 10
8956.03771
 20
2233.469253
 30
0.0
 11
9312.153564
 21
2233.469253
 31
0.0
  0
LINE
  8
ITTEN
 10
8956.03771
 20
2233.469253
 30
0.0
 11
9312.153564
 21
2233.469253
 31
0.0
  0
LINE
  8
JISSEN
 10
9132.153564
 20
2223.469253
 30
0.0
 11
9012.153564
 21
2223.469253
 31
0.0
  0
LINE
  8
JISSEN
 10
9012.153564
 20
2243.469253
 30
0.0
 11
9132.153564
 21
2243.469253
 31
0.0
  0
ARC
  8
JISSEN
 10
9132.153564
 20
2233.469253
 30
0.0
 40
10.0
 50
270.0
 51
90.0
  0
LINE
  8
JISSEN
 10
8972.153564
 20
2698.469253
 30
0.0
 11
10552.153564
 21
2698.469253
 31
0.0
  0
LINE
  8
JISSEN
 10
10551.153564
 20
2098.469253
 30
0.0
 11
9762.153564
 21
2098.469253
 31
0.0
  0
LINE
  8
JISSEN
 10
9012.153564
 20
2083.469253
 30
0.0
 11
10512.153564
 21
2083.469253
 31
0.0
  0
LINE
  8
JISSEN
 10
9012.153564
 20
2675.469253
 30
0.0
 11
9762.153564
 21
2675.469253
 31
0.0
  0
LINE
  8
JISSEN
 10
10551.153564
 20
2098.469253
 30
0.0
 11
10540.153564
 21
2083.469253
 31
0.0
  0
LINE
  8
JISSEN
 10
10552.153564
 20
2698.469253
 30
0.0
 11
10545.153564
 21
2675.469253
 31
0.0
  0
LINE
  8
JISSEN
 10
10540.153564
 20
2083.469253
 30
0.0
 11
10512.153564
 21
2083.469253
 31
0.0
  0
LINE
  8
JISSEN
 10
10637.153564
 20
2098.469253
 30
0.0
 11
10551.153564
 21
2098.469253
 31
0.0
  0
LINE
  8
TENSEN
 10
10512.153564
 20
2083.469253
 30
0.0
 11
10512.153564
 21
2675.469253
 31
0.0
  0
LINE
  8
JISSEN
 10
10545.153564
 20
2675.469253
 30
0.0
 11
10512.153564
 21
2675.469253
 31
0.0
  0
LINE
  8
JISSEN
 10
10637.153564
 20
2698.469253
 30
0.0
 11
10637.153564
 21
2098.469253
 31
0.0
  0
LINE
  8
JISSEN
 10
10637.153564
 20
2698.469253
 30
0.0
 11
10552.153564
 21
2698.469253
 31
0.0
  0
LINE
  8
JISSEN
 10
9012.153564
 20
2083.469253
 30
0.0
 11
9012.153564
 21
2675.469253
 31
0.0
  0
LINE
  8
JISSEN
 10
8887.153564
 20
2698.469253
 30
0.0
 11
8887.153564
 21
2098.469253
 31
0.0
  0
LINE
  8
JISSEN
 10
8984.153564
 20
2083.469253
 30
0.0
 11
9012.153564
 21
2083.469253
 31
0.0
  0
LINE
  8
JISSEN
 10
8973.153564
 20
2098.469253
 30
0.0
 11
8984.153564
 21
2083.469253
 31
0.0
  0
LINE
  8
JISSEN
 10
8887.153564
 20
2098.469253
 30
0.0
 11
8973.153564
 21
2098.469253
 31
0.0
  0
LINE
  8
JISSEN
 10
8887.153564
 20
2698.469253
 30
0.0
 11
8887.153564
 21
2698.469253
 31
0.0
  0
LINE
  8
JISSEN
 10
8979.153564
 20
2675.469253
 30
0.0
 11
9012.153564
 21
2675.469253
 31
0.0
  0
LINE
  8
JISSEN
 10
8972.153564
 20
2698.469253
 30
0.0
 11
8979.153564
 21
2675.469253
 31
0.0
  0
LINE
  8
JISSEN
 10
8887.153564
 20
2698.469253
 30
0.0
 11
8972.153564
 21
2698.469253
 31
0.0
  0
LINE
  8
SUNPOU
 10
8557.153564
 20
2098.469253
 30
0.0
 11
8557.153564
 21
2098.469253
 31
0.0
  0
LINE
  8
SUNPOU
 10
8557.153564
 20
2698.469253
 30
0.0
 11
8557.153564
 21
2698.469253
 31
0.0
  0
LINE
  8
SUNPOU
 10
9262.153564
 20
2233.469253
 30
0.0
 11
9262.153564
 21
2233.469253
 31
0.0
  0
LINE
  8
SUNPOU
 10
9262.153564
 20
2233.469253
 30
0.0
 11
9262.153564
 21
2233.469253
 31
0.0
  0
LINE
  8
SUNPOU
 10
9412.153564
 20
2083.469253
 30
0.0
 11
9412.153564
 21
2083.469253
 31
0.0
  0
LINE
  8
SUNPOU
 10
9412.153564
 20
2675.469253
 30
0.0
 11
9412.153564
 21
2675.469253
 31
0.0
  0
LINE
  8
SUNPOU
 10
9262.153564
 20
2233.469253
 30
0.0
 11
9262.153564
 21
2233.469253
 31
0.0
  0
LINE
  8
SUNPOU
 10
9262.153564
 20
2233.469253
 30
0.0
 11
9262.153564
 21
2233.469253
 31
0.0
  0
LINE
  8
SUNPOU
 10
8617.153564
 20
2098.469253
 30
0.0
 11
8617.153564
 21
2098.469253
 31
0.0
  0
LINE
  8
SUNPOU
 10
8617.153564
 20
2698.469253
 30
0.0
 11
8617.153564
 21
2698.469253
 31
0.0
  0
LINE
  8
SUNPOU
 10
9412.153564
 20
2083.469253
 30
0.0
 11
9412.153564
 21
2083.469253
 31
0.0
  0
LINE
  8
SUNPOU
 10
9412.153564
 20
2675.469253
 30
0.0
 11
9412.153564
 21
2675.469253
 31
0.0
  0
LINE
  8
SUNPOU
 10
9262.153564
 20
2233.469253
 30
0.0
 11
9262.153564
 21
2233.469253
 31
0.0
  0
LINE
  8
SUNPOU
 10
9322.153564
 20
2533.469253
 30
0.0
 11
9322.153564
 21
2533.469253
 31
0.0
  0
LINE
  8
SUNPOU
 10
9292.153564
 20
2233.469253
 30
0.0
 11
9292.153564
 21
2533.469253
 31
0.0
  0
INSERT
  8
SUNPOU
  2
ARROWANG
 10
9292.153564
 20
2233.469253
 30
0.0
 41
30.0
 42
30.0
 50
270.0
 43
30.0
  0
INSERT
  8
SUNPOU
  2
ARROWANG
 10
9292.153564
 20
2533.469253
 30
0.0
 41
30.0
 42
30.0
 50
90.0
 43
30.0
  0
TEXT
  8
SUNPOU
 10
9247.153564
 20
2319.183539
 30
0.0
 40
45.0
  1
300
 50
90.0
  7
K
 72
     1
 11
9247.153564
 21
2383.469253
 31
0.0
  0
LINE
  8
SUNPOU
 10
8557.153564
 20
2098.469253
 30
0.0
 11
8557.153564
 21
2098.469253
 31
0.0
  0
LINE
  8
SUNPOU
 10
8557.153564
 20
2698.469253
 30
0.0
 11
8557.153564
 21
2698.469253
 31
0.0
  0
LINE
  8
SUNPOU
 10
8587.153564
 20
2098.469253
 30
0.0
 11
8587.153564
 21
2698.469253
 31
0.0
  0
INSERT
  8
SUNPOU
  2
ARROWANG
 10
8587.153564
 20
2098.469253
 30
0.0
 41
30.0
 42
30.0
 50
270.0
 43
30.0
  0
INSERT
  8
SUNPOU
  2
ARROWANG
 10
8587.153564
 20
2698.469253
 30
0.0
 41
30.0
 42
30.0
 50
90.0
 43
30.0
  0
TEXT
  8
SUNPOU
 10
8542.153564
 20
2333.11211
 30
0.0
 40
45.0
  1
600
 50
90.0
  7
K
 72
     1
 11
8542.153564
 21
2398.469253
 31
0.0
  0
LINE
  8
SUNPOU
 10
9412.153564
 20
2083.469253
 30
0.0
 11
9412.153564
 21
2083.469253
 31
0.0
  0
LINE
  8
SUNPOU
 10
9412.153564
 20
2675.469253
 30
0.0
 11
9412.153564
 21
2675.469253
 31
0.0
  0
LINE
  8
SUNPOU
 10
9442.153564
 20
2083.469253
 30
0.0
 11
9442.153564
 21
2675.469253
 31
0.0
  0
INSERT
  8
SUNPOU
  2
ARROWANG
 10
9442.153564
 20
2083.469253
 30
0.0
 41
30.0
 42
30.0
 50
270.0
 43
30.0
  0
INSERT
  8
SUNPOU
  2
ARROWANG
 10
9442.153564
 20
2675.469253
 30
0.0
 41
30.0
 42
30.0
 50
90.0
 43
30.0
  0
TEXT
  8
SUNPOU
 10
9397.153564
 20
2315.183539
 30
0.0
 40
45.0
  1
592
 50
90.0
  7
K
 72
     1
 11
9397.153564
 21
2379.469253
 31
0.0
  0
LINE
  8
SUNPOU
 10
10475.871997
 20
2598.469253
 30
0.0
 11
10817.153564
 21
2598.469253
 31
0.0
  0
LINE
  8
SUNPOU
 10
10667.153564
 20
2698.469253
 30
0.0
 11
10817.153564
 21
2698.469253
 31
0.0
  0
LINE
  8
SUNPOU
 10
10787.153564
 20
2598.469253
 30
0.0
 11
10787.153564
 21
2698.469253
 31
0.0
  0
INSERT
  8
SUNPOU
  2
ARROWANG
 10
10787.153564
 20
2598.469253
 30
0.0
 41
30.0
 42
30.0
 50
90.0
 43
30.0
  0
INSERT
  8
SUNPOU
  2
ARROWANG
 10
10787.153564
 20
2698.469253
 30
0.0
 41
30.0
 42
30.0
 50
270.0
 43
30.0
  0
LINE
  8
SUNPOU
 10
10787.153564
 20
2598.469253
 30
0.0
 11
10787.153564
 21
2449.969253
 31
0.0
  0
LINE
  8
SUNPOU
 10
10787.153564
 20
2698.469253
 30
0.0
 11
10787.153564
 21
2758.469253
 31
0.0
  0
TEXT
  8
SUNPOU
 10
10742.153564
 20
2456.719253
 30
0.0
 40
45.0
  1
100
 50
90.0
  7
K
 72
     1
 11
10742.153564
 21
2524.219253
 31
0.0
  0
LINE
  8
ITTEN
 10
4762.153564
 20
6065.028814
 30
0.0
 11
4762.153564
 21
3818.177487
 31
0.0
  0
LINE
  8
ITTEN
 10
9762.153564
 20
2771.453938
 30
0.0
 11
9762.153564
 21
2040.102853
 31
0.0
  0
LINE
  8
ITTEN
 10
4762.153564
 20
2798.469253
 30
0.0
 11
4762.153564
 21
1433.258659
 31
0.0
  0
LINE
  8
ITTEN
 10
7262.153564
 20
6079.557407
 30
0.0
 11
7262.153564
 21
4118.34431
 31
0.0
  0
LINE
  8
ITTEN
 10
9762.153564
 20
6050.362683
 30
0.0
 11
9762.153564
 21
4416.555647
 31
0.0
  0
LINE
  8
ITTEN
 10
7262.153564
 20
2763.798823
 30
0.0
 11
7262.153564
 21
1740.102853
 31
0.0
  0
LINE
  8
ITTEN
 10
2262.49926
 20
2991.028059
 30
0.0
 11
2262.49926
 21
1101.382813
 31
0.0
  0
TEXT
  8
TEXT
 10
3049.296152
 20
7653.53337
 30
0.0
 40
300.0
  1
組立マンホール構造図 (内径1500mm)
  7
K
  0
TEXT
  8
TEXT
 10
5785.977915
 20
6704.042444
 30
0.0
 40
150.0
  1
直壁
  7
K
  0
TEXT
  8
TEXT
 10
1976.351887
 20
6422.271565
 30
0.0
 40
90.0
  1
M3S240
  7
K
  0
TEXT
  8
TEXT
 10
4489.247461
 20
6422.271565
 30
0.0
 40
90.0
  1
M3S210
  7
K
  0
TEXT
  8
TEXT
 10
6981.225116
 20
6422.271565
 30
0.0
 40
90.0
  1
M3S180
  7
K
  0
TEXT
  8
TEXT
 10
9475.08209
 20
6422.271565
 30
0.0
 40
90.0
  1
M3S150
  7
K
  0
TEXT
  8
TEXT
 10
4479.850864
 20
3123.827155
 30
0.0
 40
90.0
  1
M3S120
  7
K
  0
TEXT
  8
TEXT
 10
7018.811506
 20
3123.827155
 30
0.0
 40
90.0
  1
M3S90
  7
K
  0
TEXT
  8
TEXT
 10
9535.220314
 20
3123.827155
 30
0.0
 40
90.0
  1
M3S60
  7
K
  0
POLYLINE
  8
WAKU
 66
     1
 10
0.0
 20
0.0
 30
0.0
 70
     1
  0
VERTEX
  8
WAKU
 10
0.0
 20
0.0
 30
0.0
  0
VERTEX
  8
WAKU
 10
11850.0
 20
0.0
 30
0.0
  0
VERTEX
  8
WAKU
 10
11850.0
 20
8190.0
 30
0.0
  0
VERTEX
  8
WAKU
 10
0.0
 20
8190.0
 30
0.0
  0
SEQEND
  8
WAKU
  0
TEXT
  8
TEXT
 10
11139.718338
 20
644.126677
 30
0.0
 40
150.0
  1
1/30
  7
K
  0
ENDSEC
  0
EOF
