  0
SECTION
  2
HEADER
  9
$ACADVER
  1
AC1009
  9
$INSBASE
 10
0.0
 20
0.0
 30
0.0
  9
$EXTMIN
 10
0.0
 20
0.0
 30
0.0
  9
$EXTMAX
 10
9875.0
 20
6825.0
 30
0.0
  9
$LIMMIN
 10
0.0
 20
0.0
  9
$LIMMAX
 10
9875.0
 20
6825.0
  9
$ORTHOMODE
 70
     0
  9
$REGENMODE
 70
     1
  9
$FILLMODE
 70
     1
  9
$QTEXTMODE
 70
     0
  9
$MIRRTEXT
 70
     0
  9
$DRAGMODE
 70
     2
  9
$LTSCALE
 40
125.0
  9
$OSMODE
 70
    33
  9
$ATTMODE
 70
     1
  9
$TEXTSIZE
 40
60.0
  9
$TRACEWID
 40
0.05
  9
$TEXTSTYLE
  7
K
  9
$CLAYER
  8
SUNPOU
  9
$CELTYPE
  6
BYLAYER
  9
$CECOLOR
 62
   256
  9
$DIMSCALE
 40
25.0
  9
$DIMASZ
 40
1.5
  9
$DIMEXO
 40
1.0
  9
$DIMDLI
 40
6.0
  9
$DIMRND
 40
0.0
  9
$DIMDLE
 40
0.0
  9
$DIMEXE
 40
1.0
  9
$DIMTP
 40
495.0
  9
$DIMTM
 40
0.0
  9
$DIMTXT
 40
3.0
  9
$DIMCEN
 40
0.0
  9
$DIMTSZ
 40
0.0
  9
$DIMTOL
 70
     0
  9
$DIMLIM
 70
     0
  9
$DIMTIH
 70
     0
  9
$DIMTOH
 70
     0
  9
$DIMSE1
 70
     0
  9
$DIMSE2
 70
     0
  9
$DIMTAD
 70
     1
  9
$DIMZIN
 70
     8
  9
$DIMBLK
  1
ARROW
  9
$DIMASO
 70
     0
  9
$DIMSHO
 70
     0
  9
$DIMPOST
  1

  9
$DIMAPOST
  1

  9
$DIMALT
 70
     0
  9
$DIMALTD
 70
     2
  9
$DIMALTF
 40
25.4
  9
$DIMLFAC
 40
1.0
  9
$DIMTOFL
 70
     1
  9
$DIMTVP
 40
0.0
  9
$DIMTIX
 70
     1
  9
$DIMSOXD
 70
     0
  9
$DIMSAH
 70
     0
  9
$DIMBLK1
  1

  9
$DIMBLK2
  1

  9
$DIMSTYLE
  2
*UNNAMED
  9
$DIMCLRD
 70
     0
  9
$DIMCLRE
 70
     0
  9
$DIMCLRT
 70
     0
  9
$DIMTFAC
 40
1.0
  9
$DIMGAP
 40
0.09
  9
$LUNITS
 70
     2
  9
$LUPREC
 70
     2
  9
$AXISMODE
 70
     1
  9
$AXISUNIT
 10
100.0
 20
100.0
  9
$SKETCHINC
 40
0.1
  9
$FILLETRAD
 40
10.0
  9
$AUNITS
 70
     0
  9
$AUPREC
 70
     2
  9
$MENU
  1
d:stdgx5
  9
$ELEVATION
 40
0.0
  9
$PELEVATION
 40
0.0
  9
$THICKNESS
 40
0.0
  9
$LIMCHECK
 70
     0
  9
$BLIPMODE
 70
     1
  9
$CHAMFERA
 40
0.0
  9
$CHAMFERB
 40
0.0
  9
$SKPOLY
 70
     0
  9
$TDCREATE
 40
2450248.666006944
  9
$TDUPDATE
 40
2450248.670810185
  9
$TDINDWG
 40
0.0028819444
  9
$TDUSRTIMER
 40
0.0028819444
  9
$USRTIMER
 70
     1
  9
$ANGBASE
 50
0.0
  9
$ANGDIR
 70
     0
  9
$PDMODE
 70
     0
  9
$PDSIZE
 40
0.0
  9
$PLINEWID
 40
0.0
  9
$COORDS
 70
     2
  9
$SPLFRAME
 70
     0
  9
$SPLINETYPE
 70
     6
  9
$SPLINESEGS
 70
     8
  9
$ATTDIA
 70
     0
  9
$ATTREQ
 70
     1
  9
$HANDLING
 70
     0
  9
$HANDSEED
  5
0
  9
$SURFTAB1
 70
     6
  9
$SURFTAB2
 70
     6
  9
$SURFTYPE
 70
     6
  9
$SURFU
 70
     6
  9
$SURFV
 70
     6
  9
$UCSNAME
  2

  9
$UCSORG
 10
0.0
 20
0.0
 30
0.0
  9
$UCSXDIR
 10
1.0
 20
0.0
 30
0.0
  9
$UCSYDIR
 10
0.0
 20
1.0
 30
0.0
  9
$PUCSNAME
  2

  9
$PUCSORG
 10
0.0
 20
0.0
 30
0.0
  9
$PUCSXDIR
 10
1.0
 20
0.0
 30
0.0
  9
$PUCSYDIR
 10
0.0
 20
1.0
 30
0.0
  9
$USERI1
 70
     3
  9
$USERI2
 70
    33
  9
$USERI3
 70
     0
  9
$USERI4
 70
     1
  9
$USERI5
 70
     0
  9
$USERR1
 40
25.0
  9
$USERR2
 40
3.0
  9
$USERR3
 40
3.0
  9
$USERR4
 40
1.5
  9
$USERR5
 40
10.0
  9
$WORLDVIEW
 70
     1
  9
$SHADEDGE
 70
     3
  9
$SHADEDIF
 70
    70
  9
$TILEMODE
 70
     1
  9
$MAXACTVP
 70
    16
  9
$PINSBASE
 10
0.0
 20
0.0
 30
0.0
  9
$PLIMCHECK
 70
     0
  9
$PEXTMIN
 10
1.000000E+20
 20
1.000000E+20
 30
1.000000E+20
  9
$PEXTMAX
 10
-1.000000E+20
 20
-1.000000E+20
 30
-1.000000E+20
  9
$PLIMMIN
 10
0.0
 20
0.0
  9
$PLIMMAX
 10
12.0
 20
9.0
  9
$UNITMODE
 70
     0
  9
$VISRETAIN
 70
     0
  0
ENDSEC
  0
SECTION
  2
TABLES
  0
TABLE
  2
VPORT
 70
    10
  0
VPORT
  2
*ACTIVE
 70
     0
 10
0.0
 20
0.0
 11
1.0
 21
1.0
 12
5576.263114
 22
3412.5
 13
0.0
 23
0.0
 14
1.0
 24
1.0
 15
10.0
 25
10.0
 16
0.0
 26
0.0
 36
1.0
 17
0.0
 27
0.0
 37
0.0
 40
6825.0
 41
1.63407
 42
50.0
 43
0.0
 44
0.0
 50
0.0
 51
0.0
 71
     0
 72
   500
 73
     1
 74
     0
 75
     0
 76
     0
 77
     0
 78
     0
  0
VPORT
  2
2
 70
     0
 10
0.5
 20
0.0
 11
1.0
 21
1.0
 12
0.924031
 22
1.052651
 13
0.0
 23
0.0
 14
1.0
 24
1.0
 15
10.0
 25
10.0
 16
0.0
 26
0.0
 36
1.0
 17
0.0
 27
0.0
 37
0.0
 40
2.105302
 41
0.877814
 42
50.0
 43
0.0
 44
0.0
 50
0.0
 51
0.0
 71
     0
 72
   500
 73
     1
 74
     1
 75
     0
 76
     0
 77
     0
 78
     0
  0
VPORT
  2
2
 70
     0
 10
0.0
 20
0.0
 11
0.5
 21
1.0
 12
0.924031
 22
1.052651
 13
0.0
 23
0.0
 14
1.0
 24
1.0
 15
10.0
 25
10.0
 16
0.0
 26
0.0
 36
1.0
 17
0.0
 27
0.0
 37
0.0
 40
2.105302
 41
0.877814
 42
50.0
 43
0.0
 44
0.0
 50
0.0
 51
0.0
 71
     0
 72
   500
 73
     1
 74
     1
 75
     0
 76
     0
 77
     0
 78
     0
  0
VPORT
  2
3
 70
     0
 10
0.0
 20
0.5
 11
1.0
 21
1.0
 12
2.83217
 22
1.052651
 13
0.0
 23
0.0
 14
1.0
 24
1.0
 15
10.0
 25
10.0
 16
0.0
 26
0.0
 36
1.0
 17
0.0
 27
0.0
 37
0.0
 40
2.105302
 41
3.571429
 42
50.0
 43
0.0
 44
0.0
 50
0.0
 51
0.0
 71
     0
 72
   500
 73
     1
 74
     1
 75
     0
 76
     0
 77
     0
 78
     0
  0
VPORT
  2
3
 70
     0
 10
0.0
 20
0.0
 11
1.0
 21
0.5
 12
2.856742
 22
1.052651
 13
0.0
 23
0.0
 14
1.0
 24
1.0
 15
10.0
 25
10.0
 16
0.0
 26
0.0
 36
1.0
 17
0.0
 27
0.0
 37
0.0
 40
2.105302
 41
3.594771
 42
50.0
 43
0.0
 44
0.0
 50
0.0
 51
0.0
 71
     0
 72
   500
 73
     1
 74
     1
 75
     0
 76
     0
 77
     0
 78
     0
  0
VPORT
  2
4
 70
     0
 10
0.5
 20
0.0
 11
1.0
 21
0.5
 12
2.886858
 22
1.052651
 13
0.0
 23
0.0
 14
1.0
 24
1.0
 15
10.0
 25
10.0
 16
0.0
 26
0.0
 36
1.0
 17
0.0
 27
0.0
 37
0.0
 40
4.275207
 41
1.784314
 42
50.0
 43
0.0
 44
0.0
 50
0.0
 51
0.0
 71
     0
 72
   500
 73
     1
 74
     1
 75
     0
 76
     0
 77
     0
 78
     0
  0
VPORT
  2
4
 70
     0
 10
0.5
 20
0.5
 11
1.0
 21
1.0
 12
2.86209
 22
1.052651
 13
0.0
 23
0.0
 14
1.0
 24
1.0
 15
10.0
 25
10.0
 16
0.0
 26
0.0
 36
1.0
 17
0.0
 27
0.0
 37
0.0
 40
4.275207
 41
1.772727
 42
50.0
 43
0.0
 44
0.0
 50
0.0
 51
0.0
 71
     0
 72
   500
 73
     1
 74
     1
 75
     0
 76
     0
 77
     0
 78
     0
  0
VPORT
  2
4
 70
     0
 10
0.0
 20
0.5
 11
0.5
 21
1.0
 12
2.86209
 22
1.052651
 13
0.0
 23
0.0
 14
1.0
 24
1.0
 15
10.0
 25
10.0
 16
0.0
 26
0.0
 36
1.0
 17
0.0
 27
0.0
 37
0.0
 40
4.275207
 41
1.772727
 42
50.0
 43
0.0
 44
0.0
 50
0.0
 51
0.0
 71
     0
 72
   500
 73
     1
 74
     1
 75
     0
 76
     0
 77
     0
 78
     0
  0
VPORT
  2
4
 70
     0
 10
0.0
 20
0.0
 11
0.5
 21
0.5
 12
2.886858
 22
1.052651
 13
0.0
 23
0.0
 14
1.0
 24
1.0
 15
10.0
 25
10.0
 16
0.0
 26
0.0
 36
1.0
 17
0.0
 27
0.0
 37
0.0
 40
4.275207
 41
1.784314
 42
50.0
 43
0.0
 44
0.0
 50
0.0
 51
0.0
 71
     0
 72
   500
 73
     1
 74
     1
 75
     0
 76
     0
 77
     0
 78
     0
  0
ENDTAB
  0
TABLE
  2
LTYPE
 70
     5
  0
LTYPE
  2
CONTINUOUS
 70
    64
  3
実線
 72
    65
 73
     0
 40
0.0
  0
LTYPE
  2
DASHED
 70
    64
  3
__ __ __ __ __ __ __ __ __ __ __ __ __ __ __
 72
    65
 73
     2
 40
0.75
 49
0.5
 49
-0.25
  0
LTYPE
  2
CENTER
 70
    64
  3
____ _ ____ _ ____ _ ____ _ ____ _ ____ _ ____
 72
    65
 73
     4
 40
2.0
 49
1.25
 49
-0.25
 49
0.25
 49
-0.25
  0
LTYPE
  2
PHANTOM
 70
    64
  3
_____ _ _ _____ _ _ _____ _ _ _____ _ _ ____
 72
    65
 73
     6
 40
2.5
 49
1.25
 49
-0.25
 49
0.25
 49
-0.25
 49
0.25
 49
-0.25
  0
LTYPE
  2
HIDDEN
 70
    64
  3
_ _ _ _ _ _ _ _ _ _ _ _ _ _ _ _ _ _ _ _ _ _ _
 72
    65
 73
     2
 40
0.375
 49
0.25
 49
-0.125
  0
ENDTAB
  0
TABLE
  2
LAYER
 70
    14
  0
LAYER
  2
0
 70
     0
 62
     7
  6
CONTINUOUS
  0
LAYER
  2
HASEN
 70
    64
 62
     2
  6
DASHED
  0
LAYER
  2
ITTEN
 70
    64
 62
     1
  6
CENTER
  0
LAYER
  2
SUNPOU
 70
    64
 62
     3
  6
CONTINUOUS
  0
LAYER
  2
TEXT
 70
    64
 62
     3
  6
CONTINUOUS
  0
LAYER
  2
JISSEN
 70
    64
 62
     7
  6
CONTINUOUS
  0
LAYER
  2
WAKU
 70
    64
 62
    -5
  6
CONTINUOUS
  0
ENDTAB
  0
TABLE
  2
STYLE
 70
     2
  0
STYLE
  2
STANDARD
 70
     0
 40
0.0
 41
1.0
 50
0.0
 71
     0
 42
0.2
  3
ROMANS
  4
EXTFONT
  0
STYLE
  2
K
 70
    64
 40
0.0
 41
1.0
 50
0.0
 71
     0
 42
60.0
  3
ROMANS
  4
EXTFONT
  0
ENDTAB
  0
TABLE
  2
VIEW
 70
     0
  0
ENDTAB
  0
TABLE
  2
UCS
 70
     0
  0
ENDTAB
  0
TABLE
  2
APPID
 70
     1
  0
APPID
  2
ACAD
 70
    64
  0
ENDTAB
  0
TABLE
  2
DIMSTYLE
 70
     0
  0
ENDTAB
  0
ENDSEC
  0
SECTION
  2
BLOCKS
  0
BLOCK
  8
SUNPOU
  2
ARROWANG
 70
    64
 10
0.0
 20
0.0
 30
0.0
  3
ARROWANG
  0
LINE
  8
SUNPOU
 10
0.0
 20
0.0
 30
0.0
 11
-1.5
 21
0.401924
 31
0.0
  0
LINE
  8
SUNPOU
 10
0.0
 20
0.0
 30
0.0
 11
-1.5
 21
-0.401924
 31
0.0
  0
ENDBLK
  8
SUNPOU
  0
ENDSEC
  0
SECTION
  2
ENTITIES
  0
TEXT
  8
TEXT
 10
4665.813273
 20
6013.765951
 30
0.0
 40
120.0
  1
直  壁
  7
K
  0
TEXT
  8
JISSEN
 10
2753.862356
 20
6452.209602
 30
0.0
 40
250.0
  1
４号マンホール（内径１８００ｍｍ）
  7
K
  0
LINE
  8
HASEN
 10
1042.817215
 20
2441.313775
 30
0.0
 11
1113.527893
 21
2370.603097
 31
0.0
  0
LINE
  8
HASEN
 10
1113.527893
 20
2370.603097
 30
0.0
 11
1092.314689
 21
2349.389894
 31
0.0
  0
LINE
  8
HASEN
 10
1021.604011
 20
2420.100572
 30
0.0
 11
1092.314689
 21
2349.389894
 31
0.0
  0
LINE
  8
HASEN
 10
2206.499557
 20
2509.248588
 30
0.0
 11
2206.828202
 21
2474.460347
 31
0.0
  0
LINE
  8
HASEN
 10
2231.856653
 20
2563.627056
 30
0.0
 11
2206.499557
 21
2509.248588
 31
0.0
  0
LINE
  8
HASEN
 10
2274.5359
 20
2619.659973
 30
0.0
 11
2231.856653
 21
2563.627056
 31
0.0
  0
LINE
  8
HASEN
 10
2143.058012
 20
2538.831867
 30
0.0
 11
2116.197424
 21
2516.722174
 31
0.0
  0
LINE
  8
HASEN
 10
2168.415108
 20
2593.210334
 30
0.0
 11
2143.058012
 21
2538.831867
 31
0.0
  0
LINE
  8
HASEN
 10
2183.905121
 20
2661.921799
 30
0.0
 11
2168.415108
 21
2593.210334
 31
0.0
  0
TEXT
  8
SUNPOU
 10
5639.301707
 20
4542.178279
 30
0.0
 40
60.0
  1
620
 50
90.0
  7
K
 72
     1
 11
5639.301707
 21
4629.321136
 31
0.0
  0
INSERT
  8
SUNPOU
  2
ARROWANG
 10
5669.301707
 20
4939.321136
 30
0.0
 41
30.0
 42
30.0
 50
90.0
 43
30.0
  0
INSERT
  8
SUNPOU
  2
ARROWANG
 10
5669.301707
 20
4319.321136
 30
0.0
 41
30.0
 42
30.0
 50
270.0
 43
30.0
  0
LINE
  8
SUNPOU
 10
5669.301707
 20
4319.321136
 30
0.0
 11
5669.301707
 21
4939.321136
 31
0.0
  0
LINE
  8
SUNPOU
 10
5003.554132
 20
4939.321136
 30
0.0
 11
5689.301707
 21
4939.321136
 31
0.0
  0
LINE
  8
ITTEN
 10
4983.554132
 20
4379.321136
 30
0.0
 11
4983.554132
 21
4259.321136
 31
0.0
  0
TEXT
  8
SUNPOU
 10
2395.064065
 20
4522.63548
 30
0.0
 40
60.0
  1
620
 50
90.0
  7
K
 72
     1
 11
2395.064065
 21
4609.778337
 31
0.0
  0
INSERT
  8
SUNPOU
  2
ARROWANG
 10
2425.064065
 20
4919.778337
 30
0.0
 41
30.0
 42
30.0
 50
90.0
 43
30.0
  0
INSERT
  8
SUNPOU
  2
ARROWANG
 10
2425.064065
 20
4299.778337
 30
0.0
 41
30.0
 42
30.0
 50
270.0
 43
30.0
  0
LINE
  8
SUNPOU
 10
2425.064065
 20
4299.778337
 30
0.0
 11
2425.064065
 21
4919.778337
 31
0.0
  0
LINE
  8
SUNPOU
 10
1801.743801
 20
4919.778337
 30
0.0
 11
2445.064065
 21
4919.778337
 31
0.0
  0
LINE
  8
ITTEN
 10
1781.743801
 20
4344.778337
 30
0.0
 11
1781.743801
 21
4254.778337
 31
0.0
  0
LINE
  8
SUNPOU
 10
2516.010626
 20
2385.416553
 30
0.0
 11
3037.455727
 21
2064.64197
 31
0.0
  0
INSERT
  8
SUNPOU
  2
ARROWANG
 10
2516.010626
 20
2385.416553
 30
0.0
 41
30.0
 42
30.0
 50
148.401641
 43
30.0
  0
TEXT
  8
SUNPOU
 10
4329.932873
 20
3131.386746
 30
0.0
 40
60.0
  1
埋込みアンカー
  7
K
  0
LINE
  8
SUNPOU
 10
4317.951889
 20
3111.386746
 30
0.0
 11
4786.844037
 21
3111.386746
 31
0.0
  0
LINE
  8
SUNPOU
 10
4234.020944
 20
2989.321136
 30
0.0
 11
4317.951889
 21
3111.386746
 31
0.0
  0
INSERT
  8
SUNPOU
  2
ARROWANG
 10
4234.020944
 20
2989.321136
 30
0.0
 41
30.0
 42
30.0
 50
235.488023
 43
30.0
  0
INSERT
  8
SUNPOU
  2
ARROWANG
 10
4004.241827
 20
4789.321136
 30
0.0
 41
30.0
 42
30.0
 50
144.138909
 43
30.0
  0
INSERT
  8
SUNPOU
  2
ARROWANG
 10
4234.020944
 20
4789.321136
 30
0.0
 41
30.0
 42
30.0
 50
97.385172
 43
30.0
  0
LINE
  8
SUNPOU
 10
4234.020944
 20
4789.321136
 30
0.0
 11
4257.774674
 21
4606.056221
 31
0.0
  0
LINE
  8
SUNPOU
 10
4004.241827
 20
4789.321136
 30
0.0
 11
4257.774674
 21
4606.056221
 31
0.0
  0
TEXT
  8
SUNPOU
 10
4257.774674
 20
4626.056221
 30
0.0
 40
60.0
  1
埋込みアンカー
  7
K
  0
LINE
  8
SUNPOU
 10
4257.774674
 20
4606.056221
 30
0.0
 11
4770.778627
 21
4606.056221
 31
0.0
  0
TEXT
  8
SUNPOU
 10
1128.122542
 20
3711.843947
 30
0.0
 40
60.0
  1
埋込みアンカー
  7
K
  0
LINE
  8
SUNPOU
 10
1116.141558
 20
3691.843947
 30
0.0
 11
1585.033706
 21
3691.843947
 31
0.0
  0
LINE
  8
SUNPOU
 10
1032.210613
 20
3569.778337
 30
0.0
 11
1116.141558
 21
3691.843947
 31
0.0
  0
INSERT
  8
SUNPOU
  2
ARROWANG
 10
1032.210613
 20
3569.778337
 30
0.0
 41
30.0
 42
30.0
 50
235.488023
 43
30.0
  0
LINE
  8
SUNPOU
 10
802.431497
 20
4769.778337
 30
0.0
 11
1055.964343
 21
4586.513422
 31
0.0
  0
INSERT
  8
SUNPOU
  2
ARROWANG
 10
802.431497
 20
4769.778337
 30
0.0
 41
30.0
 42
30.0
 50
144.138909
 43
30.0
  0
LINE
  8
SUNPOU
 10
1055.964343
 20
4586.513422
 30
0.0
 11
1568.968296
 21
4586.513422
 31
0.0
  0
TEXT
  8
SUNPOU
 10
1055.964343
 20
4606.513422
 30
0.0
 40
60.0
  1
埋込みアンカー
  7
K
  0
LINE
  8
SUNPOU
 10
1032.210613
 20
4769.778337
 30
0.0
 11
1055.964343
 21
4586.513422
 31
0.0
  0
INSERT
  8
SUNPOU
  2
ARROWANG
 10
1032.210613
 20
4769.778337
 30
0.0
 41
30.0
 42
30.0
 50
97.385172
 43
30.0
  0
TEXT
  8
SUNPOU
 10
6310.939782
 20
2824.321136
 30
0.0
 40
60.0
  1
150
 50
90.0
  7
K
 72
     1
 11
6310.939782
 21
2914.321136
 31
0.0
  0
INSERT
  8
SUNPOU
  2
ARROWANG
 10
6340.939782
 20
2989.321136
 30
0.0
 41
30.0
 42
30.0
 50
90.0
 43
30.0
  0
INSERT
  8
SUNPOU
  2
ARROWANG
 10
6340.939782
 20
2839.321136
 30
0.0
 41
30.0
 42
30.0
 50
270.0
 43
30.0
  0
LINE
  8
SUNPOU
 10
6340.939782
 20
2839.321136
 30
0.0
 11
6340.939782
 21
2989.321136
 31
0.0
  0
LINE
  8
SUNPOU
 10
5753.08732
 20
2989.321136
 30
0.0
 11
6360.939782
 21
2989.321136
 31
0.0
  0
LINE
  8
SUNPOU
 10
6063.554132
 20
2839.321136
 30
0.0
 11
6360.939782
 21
2839.321136
 31
0.0
  0
TEXT
  8
SUNPOU
 10
6274.45224
 20
4774.321136
 30
0.0
 40
60.0
  1
150
 50
90.0
  7
K
 72
     1
 11
6274.45224
 21
4864.321136
 31
0.0
  0
INSERT
  8
SUNPOU
  2
ARROWANG
 10
6304.45224
 20
4939.321136
 30
0.0
 41
30.0
 42
30.0
 50
90.0
 43
30.0
  0
INSERT
  8
SUNPOU
  2
ARROWANG
 10
6304.45224
 20
4789.321136
 30
0.0
 41
30.0
 42
30.0
 50
270.0
 43
30.0
  0
LINE
  8
SUNPOU
 10
6304.45224
 20
4789.321136
 30
0.0
 11
6304.45224
 21
4939.321136
 31
0.0
  0
LINE
  8
SUNPOU
 10
6063.554132
 20
4939.321136
 30
0.0
 11
6324.45224
 21
4939.321136
 31
0.0
  0
LINE
  8
SUNPOU
 10
5982.866436
 20
4789.321136
 30
0.0
 11
6324.45224
 21
4789.321136
 31
0.0
  0
LINE
  8
ITTEN
 10
5708.08732
 20
2989.321136
 30
0.0
 11
5758.08732
 21
2989.321136
 31
0.0
  0
LINE
  8
ITTEN
 10
5733.08732
 20
3014.321136
 30
0.0
 11
5733.08732
 21
2964.321136
 31
0.0
  0
CIRCLE
  8
HASEN
 10
5733.08732
 20
2989.321136
 30
0.0
 40
15.0
  0
CIRCLE
  8
HASEN
 10
4234.020944
 20
2989.321136
 30
0.0
 40
15.0
  0
LINE
  8
ITTEN
 10
4234.020944
 20
3014.321136
 30
0.0
 11
4234.020944
 21
2964.321136
 31
0.0
  0
LINE
  8
ITTEN
 10
4259.020944
 20
2989.321136
 30
0.0
 11
4209.020944
 21
2989.321136
 31
0.0
  0
CIRCLE
  8
HASEN
 10
5733.08732
 20
4789.321136
 30
0.0
 40
15.0
  0
LINE
  8
ITTEN
 10
5733.08732
 20
4814.321136
 30
0.0
 11
5733.08732
 21
4764.321136
 31
0.0
  0
LINE
  8
ITTEN
 10
5708.08732
 20
4789.321136
 30
0.0
 11
5758.08732
 21
4789.321136
 31
0.0
  0
CIRCLE
  8
HASEN
 10
5962.866436
 20
4789.321136
 30
0.0
 40
15.0
  0
LINE
  8
ITTEN
 10
5937.866436
 20
4789.321136
 30
0.0
 11
5987.866436
 21
4789.321136
 31
0.0
  0
LINE
  8
ITTEN
 10
5962.866436
 20
4814.321136
 30
0.0
 11
5962.866436
 21
4764.321136
 31
0.0
  0
LINE
  8
ITTEN
 10
4004.241827
 20
4814.321136
 30
0.0
 11
4004.241827
 21
4764.321136
 31
0.0
  0
LINE
  8
ITTEN
 10
4029.241827
 20
4789.321136
 30
0.0
 11
3979.241827
 21
4789.321136
 31
0.0
  0
CIRCLE
  8
HASEN
 10
4004.241827
 20
4789.321136
 30
0.0
 40
15.0
  0
LINE
  8
ITTEN
 10
4259.020944
 20
4789.321136
 30
0.0
 11
4209.020944
 21
4789.321136
 31
0.0
  0
LINE
  8
ITTEN
 10
4234.020944
 20
4814.321136
 30
0.0
 11
4234.020944
 21
4764.321136
 31
0.0
  0
CIRCLE
  8
HASEN
 10
4234.020944
 20
4789.321136
 30
0.0
 40
15.0
  0
TEXT
  8
SUNPOU
 10
3056.468843
 20
4754.778337
 30
0.0
 40
60.0
  1
150
 50
90.0
  7
K
 72
     1
 11
3056.468843
 21
4844.778337
 31
0.0
  0
INSERT
  8
SUNPOU
  2
ARROWANG
 10
3086.468843
 20
4919.778337
 30
0.0
 41
30.0
 42
30.0
 50
90.0
 43
30.0
  0
INSERT
  8
SUNPOU
  2
ARROWANG
 10
3086.468843
 20
4769.778337
 30
0.0
 41
30.0
 42
30.0
 50
270.0
 43
30.0
  0
LINE
  8
SUNPOU
 10
3086.468843
 20
4769.778337
 30
0.0
 11
3086.468843
 21
4919.778337
 31
0.0
  0
LINE
  8
SUNPOU
 10
2861.743801
 20
4919.778337
 30
0.0
 11
3106.468843
 21
4919.778337
 31
0.0
  0
LINE
  8
SUNPOU
 10
2781.056105
 20
4769.778337
 30
0.0
 11
3106.468843
 21
4769.778337
 31
0.0
  0
TEXT
  8
SUNPOU
 10
3056.468843
 20
3404.778337
 30
0.0
 40
60.0
  1
150
 50
90.0
  7
K
 72
     1
 11
3056.468843
 21
3494.778337
 31
0.0
  0
INSERT
  8
SUNPOU
  2
ARROWANG
 10
3086.468843
 20
3569.778337
 30
0.0
 41
30.0
 42
30.0
 50
90.0
 43
30.0
  0
INSERT
  8
SUNPOU
  2
ARROWANG
 10
3086.468843
 20
3419.778337
 30
0.0
 41
30.0
 42
30.0
 50
270.0
 43
30.0
  0
LINE
  8
SUNPOU
 10
3086.468843
 20
3419.778337
 30
0.0
 11
3086.468843
 21
3569.778337
 31
0.0
  0
LINE
  8
SUNPOU
 10
2551.276989
 20
3569.778337
 30
0.0
 11
3106.468843
 21
3569.778337
 31
0.0
  0
LINE
  8
SUNPOU
 10
2861.743801
 20
3419.778337
 30
0.0
 11
3106.468843
 21
3419.778337
 31
0.0
  0
LINE
  8
ITTEN
 10
2761.056105
 20
4794.778337
 30
0.0
 11
2761.056105
 21
4744.778337
 31
0.0
  0
LINE
  8
ITTEN
 10
2736.056105
 20
4769.778337
 30
0.0
 11
2786.056105
 21
4769.778337
 31
0.0
  0
CIRCLE
  8
HASEN
 10
2761.056105
 20
4769.778337
 30
0.0
 40
15.0
  0
LINE
  8
ITTEN
 10
2506.276989
 20
4769.778337
 30
0.0
 11
2556.276989
 21
4769.778337
 31
0.0
  0
LINE
  8
ITTEN
 10
2531.276989
 20
4794.778337
 30
0.0
 11
2531.276989
 21
4744.778337
 31
0.0
  0
CIRCLE
  8
HASEN
 10
2531.276989
 20
4769.778337
 30
0.0
 40
15.0
  0
CIRCLE
  8
HASEN
 10
2531.276989
 20
3569.778337
 30
0.0
 40
15.0
  0
LINE
  8
ITTEN
 10
2531.276989
 20
3594.778337
 30
0.0
 11
2531.276989
 21
3544.778337
 31
0.0
  0
LINE
  8
ITTEN
 10
2506.276989
 20
3569.778337
 30
0.0
 11
2556.276989
 21
3569.778337
 31
0.0
  0
CIRCLE
  8
HASEN
 10
1032.210613
 20
4769.778337
 30
0.0
 40
15.0
  0
LINE
  8
ITTEN
 10
1032.210613
 20
4794.778337
 30
0.0
 11
1032.210613
 21
4744.778337
 31
0.0
  0
LINE
  8
ITTEN
 10
1057.210613
 20
4769.778337
 30
0.0
 11
1007.210613
 21
4769.778337
 31
0.0
  0
CIRCLE
  8
HASEN
 10
802.431497
 20
4769.778337
 30
0.0
 40
15.0
  0
LINE
  8
ITTEN
 10
827.431497
 20
4769.778337
 30
0.0
 11
777.431497
 21
4769.778337
 31
0.0
  0
LINE
  8
ITTEN
 10
802.431497
 20
4794.778337
 30
0.0
 11
802.431497
 21
4744.778337
 31
0.0
  0
LINE
  8
ITTEN
 10
1057.210613
 20
3569.778337
 30
0.0
 11
1007.210613
 21
3569.778337
 31
0.0
  0
LINE
  8
ITTEN
 10
1032.210613
 20
3594.778337
 30
0.0
 11
1032.210613
 21
3544.778337
 31
0.0
  0
CIRCLE
  8
HASEN
 10
1032.210613
 20
3569.778337
 30
0.0
 40
15.0
  0
LINE
  8
JISSEN
 10
6043.554132
 20
4939.321136
 30
0.0
 11
6043.554132
 21
2839.321136
 31
0.0
  0
LINE
  8
SUNPOU
 10
6043.554132
 20
4959.321136
 30
0.0
 11
6043.554132
 21
5394.81035
 31
0.0
  0
LINE
  8
JISSEN
 10
721.743801
 20
3419.778337
 30
0.0
 11
721.743801
 21
4919.778337
 31
0.0
  0
LINE
  8
JISSEN
 10
721.743801
 20
4919.778337
 30
0.0
 11
2841.743801
 21
4919.778337
 31
0.0
  0
LINE
  8
JISSEN
 10
2841.743801
 20
4919.778337
 30
0.0
 11
2841.743801
 21
3419.778337
 31
0.0
  0
LINE
  8
JISSEN
 10
721.743801
 20
4919.778337
 30
0.0
 11
821.743801
 21
4919.778337
 31
0.0
  0
LINE
  8
JISSEN
 10
821.743801
 20
3419.778337
 30
0.0
 11
833.743801
 21
3399.778337
 31
0.0
  0
LINE
  8
JISSEN
 10
833.743801
 20
3399.778337
 30
0.0
 11
1781.743801
 21
3399.778337
 31
0.0
  0
LINE
  8
JISSEN
 10
819.743801
 20
4919.778337
 30
0.0
 11
828.743801
 21
4887.778337
 31
0.0
  0
LINE
  8
JISSEN
 10
828.743801
 20
4887.778337
 30
0.0
 11
881.743801
 21
4887.778337
 31
0.0
  0
LINE
  8
JISSEN
 10
881.743801
 20
4887.778337
 30
0.0
 11
1781.743801
 21
4887.778337
 31
0.0
  0
LINE
  8
JISSEN
 10
2734.743801
 20
4887.778337
 30
0.0
 11
2681.743801
 21
4887.778337
 31
0.0
  0
LINE
  8
JISSEN
 10
2743.743801
 20
4919.778337
 30
0.0
 11
2734.743801
 21
4887.778337
 31
0.0
  0
LINE
  8
JISSEN
 10
2729.743801
 20
3399.778337
 30
0.0
 11
1781.743801
 21
3399.778337
 31
0.0
  0
LINE
  8
JISSEN
 10
2841.743801
 20
4919.778337
 30
0.0
 11
2741.743801
 21
4919.778337
 31
0.0
  0
LINE
  8
JISSEN
 10
2681.743801
 20
4887.778337
 30
0.0
 11
1781.743801
 21
4887.778337
 31
0.0
  0
LINE
  8
JISSEN
 10
721.743801
 20
3419.778337
 30
0.0
 11
821.743801
 21
3419.778337
 31
0.0
  0
LINE
  8
JISSEN
 10
2741.743801
 20
3419.778337
 30
0.0
 11
2729.743801
 21
3399.778337
 31
0.0
  0
LINE
  8
JISSEN
 10
2841.743801
 20
3419.778337
 30
0.0
 11
2741.743801
 21
3419.778337
 31
0.0
  0
LINE
  8
JISSEN
 10
2681.743801
 20
4887.778337
 30
0.0
 11
2681.743801
 21
3399.778337
 31
0.0
  0
LINE
  8
JISSEN
 10
881.743801
 20
3399.778337
 30
0.0
 11
881.743801
 21
4887.778337
 31
0.0
  0
LINE
  8
ITTEN
 10
1781.743801
 20
3299.778337
 30
0.0
 11
1781.743801
 21
5019.778337
 31
0.0
  0
LINE
  8
JISSEN
 10
1781.743801
 20
4759.778337
 30
0.0
 11
1971.743801
 21
4759.778337
 31
0.0
  0
ARC
  8
JISSEN
 10
1971.743801
 20
4749.778337
 30
0.0
 40
10.0
 50
270.0
 51
90.0
  0
LINE
  8
JISSEN
 10
1781.743801
 20
4739.778337
 30
0.0
 11
1971.743801
 21
4739.778337
 31
0.0
  0
LINE
  8
JISSEN
 10
1781.743801
 20
4759.778337
 30
0.0
 11
1591.743801
 21
4759.778337
 31
0.0
  0
LINE
  8
JISSEN
 10
1781.743801
 20
4739.778337
 30
0.0
 11
1591.743801
 21
4739.778337
 31
0.0
  0
ARC
  8
JISSEN
 10
1591.743801
 20
4749.778337
 30
0.0
 40
10.0
 50
90.0
 51
270.0
  0
LINE
  8
ITTEN
 10
1531.743801
 20
4749.778337
 30
0.0
 11
2031.743801
 21
4749.778337
 31
0.0
  0
LINE
  8
JISSEN
 10
1781.743801
 20
4459.778337
 30
0.0
 11
1971.743801
 21
4459.778337
 31
0.0
  0
ARC
  8
JISSEN
 10
1971.743801
 20
4449.778337
 30
0.0
 40
10.0
 50
270.0
 51
90.0
  0
LINE
  8
JISSEN
 10
1781.743801
 20
4439.778337
 30
0.0
 11
1971.743801
 21
4439.778337
 31
0.0
  0
LINE
  8
JISSEN
 10
1781.743801
 20
4459.778337
 30
0.0
 11
1591.743801
 21
4459.778337
 31
0.0
  0
LINE
  8
JISSEN
 10
1781.743801
 20
4439.778337
 30
0.0
 11
1591.743801
 21
4439.778337
 31
0.0
  0
ARC
  8
JISSEN
 10
1591.743801
 20
4449.778337
 30
0.0
 40
10.0
 50
90.0
 51
270.0
  0
LINE
  8
ITTEN
 10
1531.743801
 20
4449.778337
 30
0.0
 11
2031.743801
 21
4449.778337
 31
0.0
  0
LINE
  8
JISSEN
 10
1781.743801
 20
4159.778337
 30
0.0
 11
1971.743801
 21
4159.778337
 31
0.0
  0
ARC
  8
JISSEN
 10
1971.743801
 20
4149.778337
 30
0.0
 40
10.0
 50
270.0
 51
90.0
  0
LINE
  8
JISSEN
 10
1781.743801
 20
4139.778337
 30
0.0
 11
1971.743801
 21
4139.778337
 31
0.0
  0
LINE
  8
JISSEN
 10
1781.743801
 20
4159.778337
 30
0.0
 11
1591.743801
 21
4159.778337
 31
0.0
  0
LINE
  8
JISSEN
 10
1781.743801
 20
4139.778337
 30
0.0
 11
1591.743801
 21
4139.778337
 31
0.0
  0
ARC
  8
JISSEN
 10
1591.743801
 20
4149.778337
 30
0.0
 40
10.0
 50
90.0
 51
270.0
  0
LINE
  8
ITTEN
 10
1531.743801
 20
4149.778337
 30
0.0
 11
2031.743801
 21
4149.778337
 31
0.0
  0
LINE
  8
JISSEN
 10
1781.743801
 20
3859.778337
 30
0.0
 11
1971.743801
 21
3859.778337
 31
0.0
  0
ARC
  8
JISSEN
 10
1971.743801
 20
3849.778337
 30
0.0
 40
10.0
 50
270.0
 51
90.0
  0
LINE
  8
JISSEN
 10
1781.743801
 20
3839.778337
 30
0.0
 11
1971.743801
 21
3839.778337
 31
0.0
  0
LINE
  8
JISSEN
 10
1781.743801
 20
3859.778337
 30
0.0
 11
1591.743801
 21
3859.778337
 31
0.0
  0
LINE
  8
JISSEN
 10
1781.743801
 20
3839.778337
 30
0.0
 11
1591.743801
 21
3839.778337
 31
0.0
  0
ARC
  8
JISSEN
 10
1591.743801
 20
3849.778337
 30
0.0
 40
10.0
 50
90.0
 51
270.0
  0
LINE
  8
ITTEN
 10
1531.743801
 20
3849.778337
 30
0.0
 11
2031.743801
 21
3849.778337
 31
0.0
  0
LINE
  8
JISSEN
 10
1781.743801
 20
3559.778337
 30
0.0
 11
1971.743801
 21
3559.778337
 31
0.0
  0
ARC
  8
JISSEN
 10
1971.743801
 20
3549.778337
 30
0.0
 40
10.0
 50
270.0
 51
90.0
  0
LINE
  8
JISSEN
 10
1781.743801
 20
3539.778337
 30
0.0
 11
1971.743801
 21
3539.778337
 31
0.0
  0
LINE
  8
JISSEN
 10
1781.743801
 20
3559.778337
 30
0.0
 11
1591.743801
 21
3559.778337
 31
0.0
  0
LINE
  8
JISSEN
 10
1781.743801
 20
3539.778337
 30
0.0
 11
1591.743801
 21
3539.778337
 31
0.0
  0
ARC
  8
JISSEN
 10
1591.743801
 20
3549.778337
 30
0.0
 40
10.0
 50
90.0
 51
270.0
  0
LINE
  8
ITTEN
 10
1531.743801
 20
3549.778337
 30
0.0
 11
2031.743801
 21
3549.778337
 31
0.0
  0
LINE
  8
ITTEN
 10
4733.554132
 20
3569.321136
 30
0.0
 11
5233.554132
 21
3569.321136
 31
0.0
  0
ARC
  8
JISSEN
 10
4793.554132
 20
3569.321136
 30
0.0
 40
10.0
 50
90.0
 51
270.0
  0
LINE
  8
JISSEN
 10
4983.554132
 20
3559.321136
 30
0.0
 11
4793.554132
 21
3559.321136
 31
0.0
  0
LINE
  8
JISSEN
 10
4983.554132
 20
3579.321136
 30
0.0
 11
4793.554132
 21
3579.321136
 31
0.0
  0
LINE
  8
JISSEN
 10
4983.554132
 20
3559.321136
 30
0.0
 11
5173.554132
 21
3559.321136
 31
0.0
  0
ARC
  8
JISSEN
 10
5173.554132
 20
3569.321136
 30
0.0
 40
10.0
 50
270.0
 51
90.0
  0
LINE
  8
JISSEN
 10
4983.554132
 20
3579.321136
 30
0.0
 11
5173.554132
 21
3579.321136
 31
0.0
  0
LINE
  8
ITTEN
 10
4733.554132
 20
3869.321136
 30
0.0
 11
5233.554132
 21
3869.321136
 31
0.0
  0
ARC
  8
JISSEN
 10
4793.554132
 20
3869.321136
 30
0.0
 40
10.0
 50
90.0
 51
270.0
  0
LINE
  8
JISSEN
 10
4983.554132
 20
3859.321136
 30
0.0
 11
4793.554132
 21
3859.321136
 31
0.0
  0
LINE
  8
JISSEN
 10
4983.554132
 20
3879.321136
 30
0.0
 11
4793.554132
 21
3879.321136
 31
0.0
  0
LINE
  8
JISSEN
 10
4983.554132
 20
3859.321136
 30
0.0
 11
5173.554132
 21
3859.321136
 31
0.0
  0
ARC
  8
JISSEN
 10
5173.554132
 20
3869.321136
 30
0.0
 40
10.0
 50
270.0
 51
90.0
  0
LINE
  8
JISSEN
 10
4983.554132
 20
3879.321136
 30
0.0
 11
5173.554132
 21
3879.321136
 31
0.0
  0
LINE
  8
ITTEN
 10
4733.554132
 20
4169.321136
 30
0.0
 11
5233.554132
 21
4169.321136
 31
0.0
  0
ARC
  8
JISSEN
 10
4793.554132
 20
4169.321136
 30
0.0
 40
10.0
 50
90.0
 51
270.0
  0
LINE
  8
JISSEN
 10
4983.554132
 20
4159.321136
 30
0.0
 11
4793.554132
 21
4159.321136
 31
0.0
  0
LINE
  8
JISSEN
 10
4983.554132
 20
4179.321136
 30
0.0
 11
4793.554132
 21
4179.321136
 31
0.0
  0
LINE
  8
JISSEN
 10
4983.554132
 20
4159.321136
 30
0.0
 11
5173.554132
 21
4159.321136
 31
0.0
  0
ARC
  8
JISSEN
 10
5173.554132
 20
4169.321136
 30
0.0
 40
10.0
 50
270.0
 51
90.0
  0
LINE
  8
JISSEN
 10
4983.554132
 20
4179.321136
 30
0.0
 11
5173.554132
 21
4179.321136
 31
0.0
  0
LINE
  8
ITTEN
 10
4733.554132
 20
4469.321136
 30
0.0
 11
5233.554132
 21
4469.321136
 31
0.0
  0
ARC
  8
JISSEN
 10
4793.554132
 20
4469.321136
 30
0.0
 40
10.0
 50
90.0
 51
270.0
  0
LINE
  8
JISSEN
 10
4983.554132
 20
4459.321136
 30
0.0
 11
4793.554132
 21
4459.321136
 31
0.0
  0
LINE
  8
JISSEN
 10
4983.554132
 20
4479.321136
 30
0.0
 11
4793.554132
 21
4479.321136
 31
0.0
  0
LINE
  8
JISSEN
 10
4983.554132
 20
4459.321136
 30
0.0
 11
5173.554132
 21
4459.321136
 31
0.0
  0
ARC
  8
JISSEN
 10
5173.554132
 20
4469.321136
 30
0.0
 40
10.0
 50
270.0
 51
90.0
  0
LINE
  8
JISSEN
 10
4983.554132
 20
4479.321136
 30
0.0
 11
5173.554132
 21
4479.321136
 31
0.0
  0
LINE
  8
ITTEN
 10
4733.554132
 20
4769.321136
 30
0.0
 11
5233.554132
 21
4769.321136
 31
0.0
  0
ARC
  8
JISSEN
 10
4793.554132
 20
4769.321136
 30
0.0
 40
10.0
 50
90.0
 51
270.0
  0
LINE
  8
JISSEN
 10
4983.554132
 20
4759.321136
 30
0.0
 11
4793.554132
 21
4759.321136
 31
0.0
  0
LINE
  8
JISSEN
 10
4983.554132
 20
4779.321136
 30
0.0
 11
4793.554132
 21
4779.321136
 31
0.0
  0
LINE
  8
JISSEN
 10
4983.554132
 20
4759.321136
 30
0.0
 11
5173.554132
 21
4759.321136
 31
0.0
  0
ARC
  8
JISSEN
 10
5173.554132
 20
4769.321136
 30
0.0
 40
10.0
 50
270.0
 51
90.0
  0
LINE
  8
JISSEN
 10
4983.554132
 20
4779.321136
 30
0.0
 11
5173.554132
 21
4779.321136
 31
0.0
  0
LINE
  8
ITTEN
 10
4983.554132
 20
2692.742174
 30
0.0
 11
4983.554132
 21
5039.321136
 31
0.0
  0
LINE
  8
JISSEN
 10
4083.554132
 20
2819.321136
 30
0.0
 11
4083.554132
 21
4907.321136
 31
0.0
  0
LINE
  8
JISSEN
 10
5883.554132
 20
4907.321136
 30
0.0
 11
5883.554132
 21
2819.321136
 31
0.0
  0
LINE
  8
JISSEN
 10
6043.554132
 20
2839.321136
 30
0.0
 11
5943.554132
 21
2839.321136
 31
0.0
  0
LINE
  8
JISSEN
 10
5943.554132
 20
2839.321136
 30
0.0
 11
5931.554132
 21
2819.321136
 31
0.0
  0
LINE
  8
JISSEN
 10
3923.554132
 20
2839.321136
 30
0.0
 11
4023.554132
 21
2839.321136
 31
0.0
  0
LINE
  8
JISSEN
 10
5883.554132
 20
4907.321136
 30
0.0
 11
4983.554132
 21
4907.321136
 31
0.0
  0
LINE
  8
JISSEN
 10
6043.554132
 20
4939.321136
 30
0.0
 11
5943.554132
 21
4939.321136
 31
0.0
  0
LINE
  8
JISSEN
 10
5931.554132
 20
2819.321136
 30
0.0
 11
4983.554132
 21
2819.321136
 31
0.0
  0
LINE
  8
JISSEN
 10
5945.554132
 20
4939.321136
 30
0.0
 11
5936.554132
 21
4907.321136
 31
0.0
  0
LINE
  8
JISSEN
 10
5936.554132
 20
4907.321136
 30
0.0
 11
5883.554132
 21
4907.321136
 31
0.0
  0
LINE
  8
JISSEN
 10
4083.554132
 20
4907.321136
 30
0.0
 11
4983.554132
 21
4907.321136
 31
0.0
  0
LINE
  8
JISSEN
 10
4030.554132
 20
4907.321136
 30
0.0
 11
4083.554132
 21
4907.321136
 31
0.0
  0
LINE
  8
JISSEN
 10
4021.554132
 20
4939.321136
 30
0.0
 11
4030.554132
 21
4907.321136
 31
0.0
  0
LINE
  8
JISSEN
 10
4035.554132
 20
2819.321136
 30
0.0
 11
4983.554132
 21
2819.321136
 31
0.0
  0
LINE
  8
JISSEN
 10
4023.554132
 20
2839.321136
 30
0.0
 11
4035.554132
 21
2819.321136
 31
0.0
  0
LINE
  8
JISSEN
 10
3923.554132
 20
4939.321136
 30
0.0
 11
4023.554132
 21
4939.321136
 31
0.0
  0
LINE
  8
JISSEN
 10
3923.554132
 20
4939.321136
 30
0.0
 11
6043.554132
 21
4939.321136
 31
0.0
  0
LINE
  8
JISSEN
 10
3923.554132
 20
2839.321136
 30
0.0
 11
3923.554132
 21
4939.321136
 31
0.0
  0
LINE
  8
SUNPOU
 10
721.743801
 20
4939.778337
 30
0.0
 11
721.743801
 21
5375.267552
 31
0.0
  0
LINE
  8
SUNPOU
 10
881.743801
 20
4907.778337
 30
0.0
 11
881.743801
 21
5375.267552
 31
0.0
  0
LINE
  8
SUNPOU
 10
721.743801
 20
5355.267552
 30
0.0
 11
881.743801
 21
5355.267552
 31
0.0
  0
INSERT
  8
SUNPOU
  2
ARROWANG
 10
721.743801
 20
5355.267552
 30
0.0
 41
30.0
 42
30.0
 50
180.0
 43
30.0
  0
INSERT
  8
SUNPOU
  2
ARROWANG
 10
881.743801
 20
5355.267552
 30
0.0
 41
30.0
 42
30.0
 43
30.0
  0
TEXT
  8
SUNPOU
 10
711.743811
 20
5385.267552
 30
0.0
 40
60.0
  1
160
  7
K
 72
     1
 11
801.743811
 21
5385.267552
 31
0.0
  0
LINE
  8
SUNPOU
 10
881.743801
 20
5355.267552
 30
0.0
 11
2681.743801
 21
5355.267552
 31
0.0
  0
LINE
  8
SUNPOU
 10
2681.743801
 20
4907.778337
 30
0.0
 11
2681.743801
 21
5375.267552
 31
0.0
  0
INSERT
  8
SUNPOU
  2
ARROWANG
 10
881.743801
 20
5355.267552
 30
0.0
 41
30.0
 42
30.0
 50
180.0
 43
30.0
  0
INSERT
  8
SUNPOU
  2
ARROWANG
 10
2681.743801
 20
5355.267552
 30
0.0
 41
30.0
 42
30.0
 43
30.0
  0
TEXT
  8
SUNPOU
 10
1663.172372
 20
5385.267552
 30
0.0
 40
60.0
  1
1800
  7
K
 72
     1
 11
1781.743801
 21
5385.267552
 31
0.0
  0
LINE
  8
SUNPOU
 10
2681.743801
 20
5355.267552
 30
0.0
 11
2841.743801
 21
5355.267552
 31
0.0
  0
LINE
  8
SUNPOU
 10
2841.743801
 20
4939.778337
 30
0.0
 11
2841.743801
 21
5375.267552
 31
0.0
  0
INSERT
  8
SUNPOU
  2
ARROWANG
 10
2681.743801
 20
5355.267552
 30
0.0
 41
30.0
 42
30.0
 50
180.0
 43
30.0
  0
INSERT
  8
SUNPOU
  2
ARROWANG
 10
2841.743801
 20
5355.267552
 30
0.0
 41
30.0
 42
30.0
 43
30.0
  0
TEXT
  8
SUNPOU
 10
2671.743801
 20
5385.267552
 30
0.0
 40
60.0
  1
160
  7
K
 72
     1
 11
2761.743801
 21
5385.267552
 31
0.0
  0
LINE
  8
SUNPOU
 10
819.743801
 20
4939.778337
 30
0.0
 11
819.743801
 21
5196.12523
 31
0.0
  0
LINE
  8
SUNPOU
 10
2743.743801
 20
4939.778337
 30
0.0
 11
2743.743801
 21
5196.12523
 31
0.0
  0
LINE
  8
SUNPOU
 10
819.743801
 20
5176.12523
 30
0.0
 11
2743.743801
 21
5176.12523
 31
0.0
  0
INSERT
  8
SUNPOU
  2
ARROWANG
 10
819.743801
 20
5176.12523
 30
0.0
 41
30.0
 42
30.0
 50
180.0
 43
30.0
  0
INSERT
  8
SUNPOU
  2
ARROWANG
 10
2743.743801
 20
5176.12523
 30
0.0
 41
30.0
 42
30.0
 43
30.0
  0
TEXT
  8
SUNPOU
 10
1661.743811
 20
5206.12523
 30
0.0
 40
60.0
  1
1924
  7
K
 72
     1
 11
1781.743811
 21
5206.12523
 31
0.0
  0
LINE
  8
SUNPOU
 10
828.743801
 20
4907.778337
 30
0.0
 11
828.743801
 21
5016.982908
 31
0.0
  0
LINE
  8
SUNPOU
 10
2734.743801
 20
4907.778337
 30
0.0
 11
2734.743801
 21
5016.982908
 31
0.0
  0
LINE
  8
SUNPOU
 10
828.743801
 20
4996.982908
 30
0.0
 11
2734.743801
 21
4996.982908
 31
0.0
  0
INSERT
  8
SUNPOU
  2
ARROWANG
 10
828.743801
 20
4996.982908
 30
0.0
 41
30.0
 42
30.0
 50
180.0
 43
30.0
  0
INSERT
  8
SUNPOU
  2
ARROWANG
 10
2734.743801
 20
4996.982908
 30
0.0
 41
30.0
 42
30.0
 43
30.0
  0
TEXT
  8
SUNPOU
 10
1663.172382
 20
5026.982908
 30
0.0
 40
60.0
  1
1906
  7
K
 72
     1
 11
1781.743811
 21
5026.982908
 31
0.0
  0
LINE
  8
SUNPOU
 10
821.743801
 20
3399.778337
 30
0.0
 11
821.743801
 21
3032.112529
 31
0.0
  0
LINE
  8
SUNPOU
 10
2741.743801
 20
3399.778337
 30
0.0
 11
2741.743801
 21
3032.112529
 31
0.0
  0
LINE
  8
SUNPOU
 10
821.743801
 20
3052.112529
 30
0.0
 11
2741.743801
 21
3052.112529
 31
0.0
  0
INSERT
  8
SUNPOU
  2
ARROWANG
 10
821.743801
 20
3052.112529
 30
0.0
 41
30.0
 42
30.0
 50
180.0
 43
30.0
  0
INSERT
  8
SUNPOU
  2
ARROWANG
 10
2741.743801
 20
3052.112529
 30
0.0
 41
30.0
 42
30.0
 43
30.0
  0
TEXT
  8
SUNPOU
 10
1663.172382
 20
3082.112529
 30
0.0
 40
60.0
  1
1920
  7
K
 72
     1
 11
1781.743811
 21
3082.112529
 31
0.0
  0
LINE
  8
SUNPOU
 10
833.743801
 20
3379.778337
 30
0.0
 11
833.743801
 21
3200.39774
 31
0.0
  0
LINE
  8
SUNPOU
 10
2729.743801
 20
3379.778337
 30
0.0
 11
2729.743801
 21
3200.39774
 31
0.0
  0
LINE
  8
SUNPOU
 10
833.743801
 20
3220.39774
 30
0.0
 11
2729.743801
 21
3220.39774
 31
0.0
  0
INSERT
  8
SUNPOU
  2
ARROWANG
 10
833.743801
 20
3220.39774
 30
0.0
 41
30.0
 42
30.0
 50
180.0
 43
30.0
  0
INSERT
  8
SUNPOU
  2
ARROWANG
 10
2729.743801
 20
3220.39774
 30
0.0
 41
30.0
 42
30.0
 43
30.0
  0
TEXT
  8
SUNPOU
 10
1663.172382
 20
3250.39774
 30
0.0
 40
60.0
  1
1896
  7
K
 72
     1
 11
1781.743811
 21
3250.39774
 31
0.0
  0
LINE
  8
SUNPOU
 10
701.743801
 20
3419.778337
 30
0.0
 11
384.530797
 21
3419.778337
 31
0.0
  0
LINE
  8
SUNPOU
 10
701.743801
 20
4919.778337
 30
0.0
 11
384.530797
 21
4919.778337
 31
0.0
  0
LINE
  8
SUNPOU
 10
404.530797
 20
3419.778337
 30
0.0
 11
404.530797
 21
4919.778337
 31
0.0
  0
INSERT
  8
SUNPOU
  2
ARROWANG
 10
404.530797
 20
3419.778337
 30
0.0
 41
30.0
 42
30.0
 50
270.0
 43
30.0
  0
INSERT
  8
SUNPOU
  2
ARROWANG
 10
404.530797
 20
4919.778337
 30
0.0
 41
30.0
 42
30.0
 50
90.0
 43
30.0
  0
TEXT
  8
SUNPOU
 10
374.530797
 20
4051.206908
 30
0.0
 40
60.0
  1
1500
 50
90.0
  7
K
 72
     1
 11
374.530797
 21
4169.778337
 31
0.0
  0
LINE
  8
SUNPOU
 10
813.743801
 20
3399.778337
 30
0.0
 11
531.192012
 21
3399.778337
 31
0.0
  0
LINE
  8
SUNPOU
 10
701.743801
 20
3419.778337
 30
0.0
 11
531.192012
 21
3419.778337
 31
0.0
  0
LINE
  8
SUNPOU
 10
551.192012
 20
3399.778337
 30
0.0
 11
551.192012
 21
3419.778337
 31
0.0
  0
INSERT
  8
SUNPOU
  2
ARROWANG
 10
551.192012
 20
3399.778337
 30
0.0
 41
30.0
 42
30.0
 50
90.0
 43
30.0
  0
INSERT
  8
SUNPOU
  2
ARROWANG
 10
551.192012
 20
3419.778337
 30
0.0
 41
30.0
 42
30.0
 50
270.0
 43
30.0
  0
LINE
  8
SUNPOU
 10
551.192012
 20
3399.778337
 30
0.0
 11
551.192012
 21
3267.778337
 31
0.0
  0
LINE
  8
SUNPOU
 10
551.192012
 20
3419.778337
 30
0.0
 11
551.192012
 21
3479.778337
 31
0.0
  0
TEXT
  8
SUNPOU
 10
521.192012
 20
3276.63548
 30
0.0
 40
60.0
  1
20
 50
90.0
  7
K
 72
     1
 11
521.192012
 21
3333.778337
 31
0.0
  0
LINE
  8
SUNPOU
 10
808.743801
 20
4887.778337
 30
0.0
 11
531.192012
 21
4887.778337
 31
0.0
  0
LINE
  8
SUNPOU
 10
701.743801
 20
4919.778337
 30
0.0
 11
531.192012
 21
4919.778337
 31
0.0
  0
LINE
  8
SUNPOU
 10
551.192012
 20
4887.778337
 30
0.0
 11
551.192012
 21
4919.778337
 31
0.0
  0
INSERT
  8
SUNPOU
  2
ARROWANG
 10
551.192012
 20
4887.778337
 30
0.0
 41
30.0
 42
30.0
 50
90.0
 43
30.0
  0
INSERT
  8
SUNPOU
  2
ARROWANG
 10
551.192012
 20
4919.778337
 30
0.0
 41
30.0
 42
30.0
 50
270.0
 43
30.0
  0
LINE
  8
SUNPOU
 10
551.192012
 20
4919.778337
 30
0.0
 11
551.192012
 21
5045.778337
 31
0.0
  0
LINE
  8
SUNPOU
 10
551.192012
 20
4887.778337
 30
0.0
 11
551.192013
 21
4827.778337
 31
0.0
  0
TEXT
  8
SUNPOU
 10
521.192012
 20
4928.63548
 30
0.0
 40
60.0
  1
32
 50
90.0
  7
K
 72
     1
 11
521.192012
 21
4985.778337
 31
0.0
  0
LINE
  8
SUNPOU
 10
1801.743801
 20
3399.778337
 30
0.0
 11
2269.623501
 21
3399.778337
 31
0.0
  0
LINE
  8
SUNPOU
 10
2051.743801
 20
3549.778337
 30
0.0
 11
2269.623501
 21
3549.778337
 31
0.0
  0
LINE
  8
SUNPOU
 10
2249.623501
 20
3399.778337
 30
0.0
 11
2249.623501
 21
3549.778337
 31
0.0
  0
INSERT
  8
SUNPOU
  2
ARROWANG
 10
2249.623501
 20
3399.778337
 30
0.0
 41
30.0
 42
30.0
 50
270.0
 43
30.0
  0
INSERT
  8
SUNPOU
  2
ARROWANG
 10
2249.623501
 20
3549.778337
 30
0.0
 41
30.0
 42
30.0
 50
90.0
 43
30.0
  0
TEXT
  8
SUNPOU
 10
2219.623501
 20
3384.778337
 30
0.0
 40
60.0
  1
150
 50
90.0
  7
K
 72
     1
 11
2219.623501
 21
3474.778337
 31
0.0
  0
LINE
  8
SUNPOU
 10
2229.623501
 20
3549.778337
 30
0.0
 11
2229.623501
 21
3549.778337
 31
0.0
  0
LINE
  8
SUNPOU
 10
2051.743801
 20
3849.778337
 30
0.0
 11
2269.623501
 21
3849.778337
 31
0.0
  0
LINE
  8
SUNPOU
 10
2249.623501
 20
3549.778337
 30
0.0
 11
2249.623501
 21
3849.778337
 31
0.0
  0
INSERT
  8
SUNPOU
  2
ARROWANG
 10
2249.623501
 20
3549.778337
 30
0.0
 41
30.0
 42
30.0
 50
270.0
 43
30.0
  0
INSERT
  8
SUNPOU
  2
ARROWANG
 10
2249.623501
 20
3849.778337
 30
0.0
 41
30.0
 42
30.0
 50
90.0
 43
30.0
  0
TEXT
  8
SUNPOU
 10
2219.623501
 20
3614.064051
 30
0.0
 40
60.0
  1
300
 50
90.0
  7
K
 72
     1
 11
2219.623501
 21
3699.778337
 31
0.0
  0
LINE
  8
SUNPOU
 10
2249.623501
 20
3849.778337
 30
0.0
 11
2249.623501
 21
4149.778337
 31
0.0
  0
LINE
  8
SUNPOU
 10
2051.743801
 20
4149.778337
 30
0.0
 11
2269.623501
 21
4149.778337
 31
0.0
  0
INSERT
  8
SUNPOU
  2
ARROWANG
 10
2249.623501
 20
3849.778337
 30
0.0
 41
30.0
 42
30.0
 50
270.0
 43
30.0
  0
INSERT
  8
SUNPOU
  2
ARROWANG
 10
2249.623501
 20
4149.778337
 30
0.0
 41
30.0
 42
30.0
 50
90.0
 43
30.0
  0
TEXT
  8
SUNPOU
 10
2219.623501
 20
3914.064051
 30
0.0
 40
60.0
  1
300
 50
90.0
  7
K
 72
     1
 11
2219.623501
 21
3999.778337
 31
0.0
  0
LINE
  8
SUNPOU
 10
2249.623501
 20
4149.778337
 30
0.0
 11
2249.623501
 21
4449.778337
 31
0.0
  0
LINE
  8
SUNPOU
 10
2051.743801
 20
4449.778337
 30
0.0
 11
2269.623501
 21
4449.778337
 31
0.0
  0
INSERT
  8
SUNPOU
  2
ARROWANG
 10
2249.623501
 20
4149.778337
 30
0.0
 41
30.0
 42
30.0
 50
270.0
 43
30.0
  0
INSERT
  8
SUNPOU
  2
ARROWANG
 10
2249.623501
 20
4449.778337
 30
0.0
 41
30.0
 42
30.0
 50
90.0
 43
30.0
  0
TEXT
  8
SUNPOU
 10
2128.579193
 20
4209.620421
 30
0.0
 40
60.0
  1
300
 50
90.0
  7
K
 72
     1
 11
2128.579193
 21
4295.334706
 31
0.0
  0
LINE
  8
SUNPOU
 10
2249.623501
 20
4449.778337
 30
0.0
 11
2249.623501
 21
4749.778337
 31
0.0
  0
LINE
  8
SUNPOU
 10
2051.743801
 20
4749.778337
 30
0.0
 11
2269.623501
 21
4749.778337
 31
0.0
  0
INSERT
  8
SUNPOU
  2
ARROWANG
 10
2249.623501
 20
4449.778337
 30
0.0
 41
30.0
 42
30.0
 50
270.0
 43
30.0
  0
INSERT
  8
SUNPOU
  2
ARROWANG
 10
2249.623501
 20
4749.778337
 30
0.0
 41
30.0
 42
30.0
 50
90.0
 43
30.0
  0
TEXT
  8
SUNPOU
 10
2219.623501
 20
4514.064051
 30
0.0
 40
60.0
  1
300
 50
90.0
  7
K
 72
     1
 11
2219.623501
 21
4599.778337
 31
0.0
  0
LINE
  8
JISSEN
 10
4982.37138
 20
3279.321136
 30
0.0
 11
5172.37138
 21
3279.321136
 31
0.0
  0
ARC
  8
JISSEN
 10
5172.37138
 20
3269.321136
 30
0.0
 40
10.0
 50
270.0
 51
90.0
  0
LINE
  8
JISSEN
 10
4982.37138
 20
3259.321136
 30
0.0
 11
5172.37138
 21
3259.321136
 31
0.0
  0
LINE
  8
JISSEN
 10
4982.37138
 20
3279.321136
 30
0.0
 11
4792.37138
 21
3279.321136
 31
0.0
  0
LINE
  8
JISSEN
 10
4982.37138
 20
3259.321136
 30
0.0
 11
4792.37138
 21
3259.321136
 31
0.0
  0
ARC
  8
JISSEN
 10
4792.37138
 20
3269.321136
 30
0.0
 40
10.0
 50
90.0
 51
270.0
  0
LINE
  8
ITTEN
 10
4732.37138
 20
3269.321136
 30
0.0
 11
5232.37138
 21
3269.321136
 31
0.0
  0
LINE
  8
ITTEN
 10
4732.37138
 20
2969.321136
 30
0.0
 11
5232.37138
 21
2969.321136
 31
0.0
  0
ARC
  8
JISSEN
 10
4792.37138
 20
2969.321136
 30
0.0
 40
10.0
 50
90.0
 51
270.0
  0
LINE
  8
JISSEN
 10
4982.37138
 20
2959.321136
 30
0.0
 11
4792.37138
 21
2959.321136
 31
0.0
  0
LINE
  8
JISSEN
 10
4982.37138
 20
2979.321136
 30
0.0
 11
4792.37138
 21
2979.321136
 31
0.0
  0
LINE
  8
JISSEN
 10
4982.37138
 20
2959.321136
 30
0.0
 11
5172.37138
 21
2959.321136
 31
0.0
  0
ARC
  8
JISSEN
 10
5172.37138
 20
2969.321136
 30
0.0
 40
10.0
 50
270.0
 51
90.0
  0
LINE
  8
JISSEN
 10
4982.37138
 20
2979.321136
 30
0.0
 11
5172.37138
 21
2979.321136
 31
0.0
  0
TEXT
  8
SUNPOU
 10
4864.982713
 20
5046.525707
 30
0.0
 40
60.0
  1
1906
  7
K
 72
     1
 11
4983.554142
 21
5046.525707
 31
0.0
  0
INSERT
  8
SUNPOU
  2
ARROWANG
 10
4030.554132
 20
5016.525707
 30
0.0
 41
30.0
 42
30.0
 50
180.0
 43
30.0
  0
LINE
  8
SUNPOU
 10
4030.554132
 20
5016.525707
 30
0.0
 11
5936.554132
 21
5016.525707
 31
0.0
  0
LINE
  8
SUNPOU
 10
4030.554132
 20
4927.321136
 30
0.0
 11
4030.554132
 21
5036.525707
 31
0.0
  0
TEXT
  8
SUNPOU
 10
4863.554142
 20
5225.668029
 30
0.0
 40
60.0
  1
1924
  7
K
 72
     1
 11
4983.554142
 21
5225.668029
 31
0.0
  0
INSERT
  8
SUNPOU
  2
ARROWANG
 10
4021.554132
 20
5195.668029
 30
0.0
 41
30.0
 42
30.0
 50
180.0
 43
30.0
  0
LINE
  8
SUNPOU
 10
4021.554132
 20
5195.668029
 30
0.0
 11
5945.554132
 21
5195.668029
 31
0.0
  0
LINE
  8
SUNPOU
 10
4021.554132
 20
4959.321136
 30
0.0
 11
4021.554132
 21
5215.668029
 31
0.0
  0
TEXT
  8
SUNPOU
 10
4864.982703
 20
5404.81035
 30
0.0
 40
60.0
  1
1800
  7
K
 72
     1
 11
4983.554132
 21
5404.81035
 31
0.0
  0
INSERT
  8
SUNPOU
  2
ARROWANG
 10
4083.554132
 20
5374.81035
 30
0.0
 41
30.0
 42
30.0
 50
180.0
 43
30.0
  0
LINE
  8
SUNPOU
 10
4083.554132
 20
5374.81035
 30
0.0
 11
5883.554132
 21
5374.81035
 31
0.0
  0
TEXT
  8
SUNPOU
 10
3913.554142
 20
5404.81035
 30
0.0
 40
60.0
  1
160
  7
K
 72
     1
 11
4003.554142
 21
5404.81035
 31
0.0
  0
INSERT
  8
SUNPOU
  2
ARROWANG
 10
4083.554132
 20
5374.81035
 30
0.0
 41
30.0
 42
30.0
 43
30.0
  0
INSERT
  8
SUNPOU
  2
ARROWANG
 10
3923.554132
 20
5374.81035
 30
0.0
 41
30.0
 42
30.0
 50
180.0
 43
30.0
  0
LINE
  8
SUNPOU
 10
3923.554132
 20
5374.81035
 30
0.0
 11
4083.554132
 21
5374.81035
 31
0.0
  0
LINE
  8
SUNPOU
 10
4083.554132
 20
4927.321136
 30
0.0
 11
4083.554132
 21
5394.81035
 31
0.0
  0
LINE
  8
SUNPOU
 10
3923.554132
 20
4959.321136
 30
0.0
 11
3923.554132
 21
5394.81035
 31
0.0
  0
INSERT
  8
SUNPOU
  2
ARROWANG
 10
5936.554132
 20
5016.525707
 30
0.0
 41
30.0
 42
30.0
 43
30.0
  0
LINE
  8
SUNPOU
 10
5936.554132
 20
4927.321136
 30
0.0
 11
5936.554132
 21
5036.525707
 31
0.0
  0
INSERT
  8
SUNPOU
  2
ARROWANG
 10
5945.554132
 20
5195.668029
 30
0.0
 41
30.0
 42
30.0
 43
30.0
  0
LINE
  8
SUNPOU
 10
5945.554132
 20
4959.321136
 30
0.0
 11
5945.554132
 21
5215.668029
 31
0.0
  0
TEXT
  8
SUNPOU
 10
5873.554132
 20
5404.81035
 30
0.0
 40
60.0
  1
160
  7
K
 72
     1
 11
5963.554132
 21
5404.81035
 31
0.0
  0
INSERT
  8
SUNPOU
  2
ARROWANG
 10
6043.554132
 20
5374.81035
 30
0.0
 41
30.0
 42
30.0
 43
30.0
  0
INSERT
  8
SUNPOU
  2
ARROWANG
 10
5883.554132
 20
5374.81035
 30
0.0
 41
30.0
 42
30.0
 50
180.0
 43
30.0
  0
LINE
  8
SUNPOU
 10
5883.554132
 20
5374.81035
 30
0.0
 11
6043.554132
 21
5374.81035
 31
0.0
  0
INSERT
  8
SUNPOU
  2
ARROWANG
 10
5883.554132
 20
5374.81035
 30
0.0
 41
30.0
 42
30.0
 43
30.0
  0
LINE
  8
SUNPOU
 10
5883.554132
 20
4927.321136
 30
0.0
 11
5883.554132
 21
5394.81035
 31
0.0
  0
TEXT
  8
SUNPOU
 10
4864.982713
 20
2669.940539
 30
0.0
 40
60.0
  1
1896
  7
K
 72
     1
 11
4983.554142
 21
2669.940539
 31
0.0
  0
INSERT
  8
SUNPOU
  2
ARROWANG
 10
5931.554132
 20
2639.940539
 30
0.0
 41
30.0
 42
30.0
 43
30.0
  0
INSERT
  8
SUNPOU
  2
ARROWANG
 10
4035.554132
 20
2639.940539
 30
0.0
 41
30.0
 42
30.0
 50
180.0
 43
30.0
  0
LINE
  8
SUNPOU
 10
4035.554132
 20
2639.940539
 30
0.0
 11
5931.554132
 21
2639.940539
 31
0.0
  0
LINE
  8
SUNPOU
 10
5931.554132
 20
2799.321136
 30
0.0
 11
5931.554132
 21
2619.940539
 31
0.0
  0
LINE
  8
SUNPOU
 10
4035.554132
 20
2799.321136
 30
0.0
 11
4035.554132
 21
2619.940539
 31
0.0
  0
TEXT
  8
SUNPOU
 10
4864.982713
 20
2501.655327
 30
0.0
 40
60.0
  1
1920
  7
K
 72
     1
 11
4983.554142
 21
2501.655327
 31
0.0
  0
INSERT
  8
SUNPOU
  2
ARROWANG
 10
5943.554132
 20
2471.655327
 30
0.0
 41
30.0
 42
30.0
 43
30.0
  0
INSERT
  8
SUNPOU
  2
ARROWANG
 10
4023.554132
 20
2471.655327
 30
0.0
 41
30.0
 42
30.0
 50
180.0
 43
30.0
  0
LINE
  8
SUNPOU
 10
4023.554132
 20
2471.655327
 30
0.0
 11
5943.554132
 21
2471.655327
 31
0.0
  0
LINE
  8
SUNPOU
 10
5943.554132
 20
2819.321136
 30
0.0
 11
5943.554132
 21
2451.655327
 31
0.0
  0
LINE
  8
SUNPOU
 10
4023.554132
 20
2819.321136
 30
0.0
 11
4023.554132
 21
2451.655327
 31
0.0
  0
LINE
  8
SUNPOU
 10
3903.554132
 20
2839.321136
 30
0.0
 11
3503.067493
 21
2839.321136
 31
0.0
  0
LINE
  8
SUNPOU
 10
3903.554132
 20
4939.321136
 30
0.0
 11
3503.067493
 21
4939.321136
 31
0.0
  0
LINE
  8
SUNPOU
 10
3523.067493
 20
2839.321136
 30
0.0
 11
3523.067493
 21
4939.321136
 31
0.0
  0
INSERT
  8
SUNPOU
  2
ARROWANG
 10
3523.067493
 20
2839.321136
 30
0.0
 41
30.0
 42
30.0
 50
270.0
 43
30.0
  0
INSERT
  8
SUNPOU
  2
ARROWANG
 10
3523.067493
 20
4939.321136
 30
0.0
 41
30.0
 42
30.0
 50
90.0
 43
30.0
  0
TEXT
  8
SUNPOU
 10
3493.067493
 20
3775.035421
 30
0.0
 40
60.0
  1
2100
 50
90.0
  7
K
 72
     1
 11
3493.067493
 21
3889.321136
 31
0.0
  0
LINE
  8
SUNPOU
 10
5003.554132
 20
2819.321136
 30
0.0
 11
5517.312946
 21
2819.321136
 31
0.0
  0
LINE
  8
SUNPOU
 10
5252.37138
 20
2969.321136
 30
0.0
 11
5517.312946
 21
2969.321136
 31
0.0
  0
LINE
  8
SUNPOU
 10
5497.312946
 20
2819.321136
 30
0.0
 11
5497.312946
 21
2969.321136
 31
0.0
  0
INSERT
  8
SUNPOU
  2
ARROWANG
 10
5497.312946
 20
2819.321136
 30
0.0
 41
30.0
 42
30.0
 50
270.0
 43
30.0
  0
INSERT
  8
SUNPOU
  2
ARROWANG
 10
5497.312946
 20
2969.321136
 30
0.0
 41
30.0
 42
30.0
 50
90.0
 43
30.0
  0
TEXT
  8
SUNPOU
 10
5467.312946
 20
2804.321136
 30
0.0
 40
60.0
  1
150
 50
90.0
  7
K
 72
     1
 11
5467.312946
 21
2894.321136
 31
0.0
  0
LINE
  8
SUNPOU
 10
5497.312946
 20
2969.321136
 30
0.0
 11
5497.312946
 21
3269.321136
 31
0.0
  0
LINE
  8
SUNPOU
 10
5252.37138
 20
3269.321136
 30
0.0
 11
5517.312946
 21
3269.321136
 31
0.0
  0
INSERT
  8
SUNPOU
  2
ARROWANG
 10
5497.312946
 20
2969.321136
 30
0.0
 41
30.0
 42
30.0
 50
270.0
 43
30.0
  0
INSERT
  8
SUNPOU
  2
ARROWANG
 10
5497.312946
 20
3269.321136
 30
0.0
 41
30.0
 42
30.0
 50
90.0
 43
30.0
  0
TEXT
  8
SUNPOU
 10
5467.312946
 20
3033.60685
 30
0.0
 40
60.0
  1
300
 50
90.0
  7
K
 72
     1
 11
5467.312946
 21
3119.321136
 31
0.0
  0
LINE
  8
SUNPOU
 10
5497.312946
 20
3269.321136
 30
0.0
 11
5497.312946
 21
3569.321136
 31
0.0
  0
LINE
  8
SUNPOU
 10
5253.554132
 20
3569.321136
 30
0.0
 11
5517.312946
 21
3569.321136
 31
0.0
  0
INSERT
  8
SUNPOU
  2
ARROWANG
 10
5497.312946
 20
3269.321136
 30
0.0
 41
30.0
 42
30.0
 50
270.0
 43
30.0
  0
INSERT
  8
SUNPOU
  2
ARROWANG
 10
5497.312946
 20
3569.321136
 30
0.0
 41
30.0
 42
30.0
 50
90.0
 43
30.0
  0
TEXT
  8
SUNPOU
 10
5467.312946
 20
3333.60685
 30
0.0
 40
60.0
  1
300
 50
90.0
  7
K
 72
     1
 11
5467.312946
 21
3419.321136
 31
0.0
  0
LINE
  8
SUNPOU
 10
5497.312946
 20
3569.321136
 30
0.0
 11
5497.312946
 21
3869.321136
 31
0.0
  0
LINE
  8
SUNPOU
 10
5253.554132
 20
3869.321136
 30
0.0
 11
5517.312946
 21
3869.321136
 31
0.0
  0
INSERT
  8
SUNPOU
  2
ARROWANG
 10
5497.312946
 20
3569.321136
 30
0.0
 41
30.0
 42
30.0
 50
270.0
 43
30.0
  0
INSERT
  8
SUNPOU
  2
ARROWANG
 10
5497.312946
 20
3869.321136
 30
0.0
 41
30.0
 42
30.0
 50
90.0
 43
30.0
  0
TEXT
  8
SUNPOU
 10
5467.312946
 20
3633.60685
 30
0.0
 40
60.0
  1
300
 50
90.0
  7
K
 72
     1
 11
5467.312946
 21
3719.321136
 31
0.0
  0
LINE
  8
SUNPOU
 10
5497.312946
 20
3869.321136
 30
0.0
 11
5497.312946
 21
4169.321136
 31
0.0
  0
LINE
  8
SUNPOU
 10
5253.554132
 20
4169.321136
 30
0.0
 11
5517.312946
 21
4169.321136
 31
0.0
  0
INSERT
  8
SUNPOU
  2
ARROWANG
 10
5497.312946
 20
3869.321136
 30
0.0
 41
30.0
 42
30.0
 50
270.0
 43
30.0
  0
INSERT
  8
SUNPOU
  2
ARROWANG
 10
5497.312946
 20
4169.321136
 30
0.0
 41
30.0
 42
30.0
 50
90.0
 43
30.0
  0
TEXT
  8
SUNPOU
 10
5467.312946
 20
3933.60685
 30
0.0
 40
60.0
  1
300
 50
90.0
  7
K
 72
     1
 11
5467.312946
 21
4019.321136
 31
0.0
  0
LINE
  8
SUNPOU
 10
5497.312946
 20
4169.321136
 30
0.0
 11
5497.312946
 21
4469.321136
 31
0.0
  0
LINE
  8
SUNPOU
 10
5253.554132
 20
4469.321136
 30
0.0
 11
5517.312946
 21
4469.321136
 31
0.0
  0
INSERT
  8
SUNPOU
  2
ARROWANG
 10
5497.312946
 20
4169.321136
 30
0.0
 41
30.0
 42
30.0
 50
270.0
 43
30.0
  0
INSERT
  8
SUNPOU
  2
ARROWANG
 10
5497.312946
 20
4469.321136
 30
0.0
 41
30.0
 42
30.0
 50
90.0
 43
30.0
  0
TEXT
  8
SUNPOU
 10
5336.611301
 20
4226.08686
 30
0.0
 40
60.0
  1
300
 50
90.0
  7
K
 72
     1
 11
5336.611301
 21
4311.801146
 31
0.0
  0
LINE
  8
SUNPOU
 10
5497.312946
 20
4469.321136
 30
0.0
 11
5497.312946
 21
4769.321136
 31
0.0
  0
LINE
  8
SUNPOU
 10
5253.554132
 20
4769.321136
 30
0.0
 11
5517.312946
 21
4769.321136
 31
0.0
  0
INSERT
  8
SUNPOU
  2
ARROWANG
 10
5497.312946
 20
4469.321136
 30
0.0
 41
30.0
 42
30.0
 50
270.0
 43
30.0
  0
INSERT
  8
SUNPOU
  2
ARROWANG
 10
5497.312946
 20
4769.321136
 30
0.0
 41
30.0
 42
30.0
 50
90.0
 43
30.0
  0
TEXT
  8
SUNPOU
 10
5467.312946
 20
4533.60685
 30
0.0
 40
60.0
  1
300
 50
90.0
  7
K
 72
     1
 11
5467.312946
 21
4619.321136
 31
0.0
  0
LINE
  8
SUNPOU
 10
4010.554132
 20
4907.321136
 30
0.0
 11
3685.953468
 21
4907.321136
 31
0.0
  0
LINE
  8
SUNPOU
 10
3903.554132
 20
4939.321136
 30
0.0
 11
3685.953468
 21
4939.321136
 31
0.0
  0
LINE
  8
SUNPOU
 10
3705.953468
 20
4907.321136
 30
0.0
 11
3705.953468
 21
4939.321136
 31
0.0
  0
INSERT
  8
SUNPOU
  2
ARROWANG
 10
3705.953468
 20
4907.321136
 30
0.0
 41
30.0
 42
30.0
 50
90.0
 43
30.0
  0
INSERT
  8
SUNPOU
  2
ARROWANG
 10
3705.953468
 20
4939.321136
 30
0.0
 41
30.0
 42
30.0
 50
270.0
 43
30.0
  0
LINE
  8
SUNPOU
 10
3705.953468
 20
4939.321136
 30
0.0
 11
3705.953468
 21
5071.321136
 31
0.0
  0
LINE
  8
SUNPOU
 10
3705.953468
 20
4907.321136
 30
0.0
 11
3705.95347
 21
4847.321136
 31
0.0
  0
TEXT
  8
SUNPOU
 10
3675.953468
 20
4948.178279
 30
0.0
 40
60.0
  1
32
 50
90.0
  7
K
 72
     1
 11
3675.953468
 21
5005.321136
 31
0.0
  0
LINE
  8
SUNPOU
 10
4015.554132
 20
2819.321136
 30
0.0
 11
3703.838217
 21
2819.321136
 31
0.0
  0
LINE
  8
SUNPOU
 10
3903.554132
 20
2839.321136
 30
0.0
 11
3703.838217
 21
2839.321136
 31
0.0
  0
LINE
  8
SUNPOU
 10
3723.838217
 20
2819.321136
 30
0.0
 11
3723.838217
 21
2839.321136
 31
0.0
  0
INSERT
  8
SUNPOU
  2
ARROWANG
 10
3723.838217
 20
2819.321136
 30
0.0
 41
30.0
 42
30.0
 50
90.0
 43
30.0
  0
INSERT
  8
SUNPOU
  2
ARROWANG
 10
3723.838217
 20
2839.321136
 30
0.0
 41
30.0
 42
30.0
 50
270.0
 43
30.0
  0
LINE
  8
SUNPOU
 10
3723.838217
 20
2819.321136
 30
0.0
 11
3723.838217
 21
2687.321136
 31
0.0
  0
LINE
  8
SUNPOU
 10
3723.838217
 20
2839.321136
 30
0.0
 11
3723.838217
 21
2899.321136
 31
0.0
  0
TEXT
  8
SUNPOU
 10
3693.838217
 20
2696.178279
 30
0.0
 40
60.0
  1
20
 50
90.0
  7
K
 72
     1
 11
3693.838217
 21
2753.321136
 31
0.0
  0
CIRCLE
  8
JISSEN
 10
1781.743801
 20
1681.173986
 30
0.0
 40
1060.0
  0
CIRCLE
  8
JISSEN
 10
1781.743801
 20
1681.173986
 30
0.0
 40
900.0
  0
CIRCLE
  8
JISSEN
 10
1781.743801
 20
1681.173986
 30
0.0
 40
962.0
  0
CIRCLE
  8
JISSEN
 10
1781.743801
 20
1681.173986
 30
0.0
 40
953.0
  0
LINE
  8
JISSEN
 10
1581.743801
 20
2558.670424
 30
0.0
 11
1581.743801
 21
2441.173986
 31
0.0
  0
LINE
  8
JISSEN
 10
1591.743801
 20
2431.173986
 30
0.0
 11
1971.743801
 21
2431.173986
 31
0.0
  0
LINE
  8
JISSEN
 10
1981.743801
 20
2441.173986
 30
0.0
 11
1981.743801
 21
2558.670424
 31
0.0
  0
LINE
  8
JISSEN
 10
1601.743801
 20
2562.990293
 30
0.0
 11
1601.743801
 21
2461.173986
 31
0.0
  0
LINE
  8
JISSEN
 10
1611.743801
 20
2451.173986
 30
0.0
 11
1951.743801
 21
2451.173986
 31
0.0
  0
LINE
  8
JISSEN
 10
1961.743801
 20
2461.173986
 30
0.0
 11
1961.743801
 21
2562.990293
 31
0.0
  0
ARC
  8
JISSEN
 10
1591.743801
 20
2441.173986
 30
0.0
 40
10.0
 50
180.0
 51
270.0
  0
ARC
  8
JISSEN
 10
1971.743801
 20
2441.173986
 30
0.0
 40
10.0
 50
270.0
 51
0.0
  0
ARC
  8
JISSEN
 10
1951.743801
 20
2461.173986
 30
0.0
 40
10.0
 50
270.0
 51
0.0
  0
ARC
  8
JISSEN
 10
1611.743801
 20
2461.173986
 30
0.0
 40
10.0
 50
180.0
 51
270.0
  0
LINE
  8
HASEN
 10
2755.315854
 20
1261.671354
 30
0.0
 11
2662.927901
 21
1299.939698
 31
0.0
  0
LINE
  8
HASEN
 10
2662.927901
 20
1299.939698
 30
0.0
 11
2674.408404
 21
1327.656084
 31
0.0
  0
LINE
  8
HASEN
 10
2766.796357
 20
1289.38774
 30
0.0
 11
2674.408404
 21
1327.656084
 31
0.0
  0
LINE
  8
HASEN
 10
2520.670387
 20
921.034196
 30
0.0
 11
2449.959709
 21
991.744874
 31
0.0
  0
LINE
  8
HASEN
 10
2449.959709
 20
991.744874
 30
0.0
 11
2471.172913
 21
1012.958077
 31
0.0
  0
LINE
  8
HASEN
 10
2541.883591
 20
942.247399
 30
0.0
 11
2471.172913
 21
1012.958077
 31
0.0
  0
LINE
  8
HASEN
 10
1021.604011
 20
942.247399
 30
0.0
 11
1092.314689
 21
1012.958077
 31
0.0
  0
LINE
  8
HASEN
 10
1113.527893
 20
991.744874
 30
0.0
 11
1092.314689
 21
1012.958077
 31
0.0
  0
LINE
  8
HASEN
 10
1042.817215
 20
921.034196
 30
0.0
 11
1113.527893
 21
991.744874
 31
0.0
  0
LINE
  8
HASEN
 10
796.691245
 20
1289.38774
 30
0.0
 11
889.079198
 21
1327.656084
 31
0.0
  0
LINE
  8
HASEN
 10
900.559701
 20
1299.939698
 30
0.0
 11
889.079198
 21
1327.656084
 31
0.0
  0
LINE
  8
HASEN
 10
808.171748
 20
1261.671354
 30
0.0
 11
900.559701
 21
1299.939698
 31
0.0
  0
LINE
  8
HASEN
 10
808.171748
 20
2100.676617
 30
0.0
 11
900.559701
 21
2062.408274
 31
0.0
  0
LINE
  8
HASEN
 10
900.559701
 20
2062.408274
 30
0.0
 11
889.079198
 21
2034.691888
 31
0.0
  0
LINE
  8
HASEN
 10
796.691245
 20
2072.960231
 30
0.0
 11
889.079198
 21
2034.691888
 31
0.0
  0
LINE
  8
HASEN
 10
2755.315854
 20
2100.676617
 30
0.0
 11
2662.927901
 21
2062.408274
 31
0.0
  0
LINE
  8
HASEN
 10
2662.927901
 20
2062.408274
 30
0.0
 11
2674.408404
 21
2034.691888
 31
0.0
  0
LINE
  8
HASEN
 10
2766.796357
 20
2072.960231
 30
0.0
 11
2674.408404
 21
2034.691888
 31
0.0
  0
LINE
  8
HASEN
 10
1288.951702
 20
742.687999
 30
0.0
 11
1331.630949
 21
798.720916
 31
0.0
  0
LINE
  8
HASEN
 10
1331.630949
 20
798.720916
 30
0.0
 11
1356.988045
 21
853.099383
 31
0.0
  0
LINE
  8
HASEN
 10
1356.988045
 20
853.099383
 30
0.0
 11
1356.659399
 21
887.887624
 31
0.0
  0
LINE
  8
HASEN
 10
1420.42959
 20
823.516105
 30
0.0
 11
1447.290178
 21
845.625798
 31
0.0
  0
LINE
  8
HASEN
 10
1395.072494
 20
769.137637
 30
0.0
 11
1420.42959
 21
823.516105
 31
0.0
  0
LINE
  8
HASEN
 10
1379.582481
 20
700.426173
 30
0.0
 11
1395.072494
 21
769.137637
 31
0.0
  0
TEXT
  8
SUNPOU
 10
3087.558024
 20
2096.3065
 30
0.0
 40
60.0
  1
埋込みアンカー
  7
K
  0
LINE
  8
SUNPOU
 10
2726.494732
 20
2064.64197
 30
0.0
 11
3037.455727
 21
2064.64197
 31
0.0
  0
INSERT
  8
SUNPOU
  2
ARROWANG
 10
2726.494732
 20
2064.64197
 30
0.0
 41
30.0
 42
30.0
 50
180.0
 43
30.0
  0
LINE
  8
SUNPOU
 10
3037.455727
 20
2064.64197
 30
0.0
 11
3769.657229
 21
2064.64197
 31
0.0
  0
LINE
  8
ITTEN
 10
2941.743801
 20
1681.173986
 30
0.0
 11
621.743801
 21
1681.173986
 31
0.0
  0
LINE
  8
SUNPOU
 10
2705.980568
 20
2200.198455
 30
0.0
 11
857.507034
 21
1162.149517
 31
0.0
  0
INSERT
  8
SUNPOU
  2
ARROWANG
 10
2705.980568
 20
2200.198455
 30
0.0
 41
30.0
 42
30.0
 50
29.317299
 43
30.0
  0
INSERT
  8
SUNPOU
  2
ARROWANG
 10
857.507034
 20
1162.149517
 30
0.0
 41
30.0
 42
30.0
 50
209.317299
 43
30.0
  0
TEXT
  8
SUNPOU
 10
1886.803067
 20
1784.115393
 30
0.0
 40
60.0
  1
%%C2120
 50
29.317299
  7
K
 72
     1
 11
2006.380869
 21
1851.266807
 31
0.0
  0
LINE
  8
SUNPOU
 10
2599.546952
 20
1305.410755
 30
0.0
 11
963.94065
 21
2056.937217
 31
0.0
  0
INSERT
  8
SUNPOU
  2
ARROWANG
 10
2599.546952
 20
1305.410755
 30
0.0
 41
30.0
 42
30.0
 50
335.322221
 43
30.0
  0
INSERT
  8
SUNPOU
  2
ARROWANG
 10
963.94065
 20
2056.937217
 30
0.0
 41
30.0
 42
30.0
 50
155.322221
 43
30.0
  0
TEXT
  8
SUNPOU
 10
2041.738264
 20
1585.813058
 30
0.0
 40
60.0
  1
%%C1800
 50
335.322221
  7
K
 72
     1
 11
2166.355887
 21
1528.553899
 31
0.0
  0
LINE
  8
HASEN
 10
2541.883591
 20
2420.100572
 30
0.0
 11
2471.172913
 21
2349.389894
 31
0.0
  0
LINE
  8
HASEN
 10
2449.959709
 20
2370.603097
 30
0.0
 11
2471.172913
 21
2349.389894
 31
0.0
  0
LINE
  8
HASEN
 10
2520.670387
 20
2441.313775
 30
0.0
 11
2449.959709
 21
2370.603097
 31
0.0
  0
TEXT
  8
TEXT
 10
1081.118348
 20
4497.331727
 30
0.0
 40
60.0
  1
M20 8ケ所
  7
K
  0
TEXT
  8
TEXT
 10
1136.859209
 20
3616.782253
 30
0.0
 40
60.0
  1
M20 4ケ所
  7
K
  0
TEXT
  8
TEXT
 10
4300.426306
 20
4522.748271
 30
0.0
 40
60.0
  1
M20 8ケ所
  7
K
  0
TEXT
  8
TEXT
 10
4340.865754
 20
3029.860746
 30
0.0
 40
60.0
  1
M20 4ケ所
  7
K
  0
LINE
  8
ITTEN
 10
1781.743801
 20
2841.173986
 30
0.0
 11
1781.743801
 21
521.173986
 31
0.0
  0
ARC
  8
JISSEN
 10
2234.096354
 20
4299.778337
 30
0.0
 40
50.191233
 50
95.003141
 51
264.996859
  0
ARC
  8
JISSEN
 10
2224.236166
 20
4299.778337
 30
0.0
 40
50.299734
 50
276.258042
 51
83.741958
  0
ARC
  8
JISSEN
 10
2233.168188
 20
4299.778337
 30
0.0
 40
35.169529
 50
95.627968
 51
264.372032
  0
ARC
  8
JISSEN
 10
2226.270129
 20
4299.778337
 30
0.0
 40
35.169529
 50
275.627968
 51
84.372032
  0
ARC
  8
JISSEN
 10
5428.08046
 20
4319.321136
 30
0.0
 40
35.169529
 50
275.627968
 51
84.372032
  0
ARC
  8
JISSEN
 10
5434.978519
 20
4319.321136
 30
0.0
 40
35.169529
 50
95.627968
 51
264.372032
  0
ARC
  8
JISSEN
 10
5426.046497
 20
4319.321136
 30
0.0
 40
50.299734
 50
276.258042
 51
83.741958
  0
ARC
  8
JISSEN
 10
5435.906685
 20
4319.321136
 30
0.0
 40
50.191233
 50
95.003141
 51
264.996859
  0
LINE
  8
SUNPOU
 10
5431.529489
 20
4394.321136
 30
0.0
 11
5431.529489
 21
4249.778337
 31
0.0
  0
LINE
  8
SUNPOU
 10
5356.523598
 20
4319.321136
 30
0.0
 11
5689.301707
 21
4319.321136
 31
0.0
  0
LINE
  8
SUNPOU
 10
2142.603682
 20
4299.778337
 30
0.0
 11
2445.064065
 21
4299.778337
 31
0.0
  0
LINE
  8
SUNPOU
 10
2229.719158
 20
4374.778337
 30
0.0
 11
2229.719158
 21
4224.778337
 31
0.0
  0
LINE
  8
SUNPOU
 10
8558.333929
 20
4338.863935
 30
0.0
 11
8891.112038
 21
4338.863935
 31
0.0
  0
LINE
  8
SUNPOU
 10
8633.33982
 20
4413.863935
 30
0.0
 11
8633.33982
 21
4269.321136
 31
0.0
  0
ARC
  8
JISSEN
 10
8637.717015
 20
4338.863935
 30
0.0
 40
50.191233
 50
95.003141
 51
264.996859
  0
ARC
  8
JISSEN
 10
8627.856828
 20
4338.863935
 30
0.0
 40
50.299734
 50
276.258042
 51
83.741958
  0
ARC
  8
JISSEN
 10
8636.78885
 20
4338.863935
 30
0.0
 40
35.169529
 50
95.627968
 51
264.372032
  0
ARC
  8
JISSEN
 10
8629.890791
 20
4338.863935
 30
0.0
 40
35.169529
 50
275.627968
 51
84.372032
  0
TEXT
  8
TEXT
 10
7542.676085
 20
2749.403545
 30
0.0
 40
60.0
  1
M20 4ケ所
  7
K
  0
TEXT
  8
TEXT
 10
7502.236637
 20
4542.291069
 30
0.0
 40
60.0
  1
M20 8ケ所
  7
K
  0
TEXT
  8
SUNPOU
 10
6895.648548
 20
2415.721077
 30
0.0
 40
60.0
  1
20
 50
90.0
  7
K
 72
     1
 11
6895.648548
 21
2472.863935
 31
0.0
  0
LINE
  8
SUNPOU
 10
6925.648548
 20
2558.863935
 30
0.0
 11
6925.648548
 21
2618.863935
 31
0.0
  0
LINE
  8
SUNPOU
 10
6925.648548
 20
2538.863935
 30
0.0
 11
6925.648548
 21
2406.863935
 31
0.0
  0
INSERT
  8
SUNPOU
  2
ARROWANG
 10
6925.648548
 20
2558.863935
 30
0.0
 41
30.0
 42
30.0
 50
270.0
 43
30.0
  0
INSERT
  8
SUNPOU
  2
ARROWANG
 10
6925.648548
 20
2538.863935
 30
0.0
 41
30.0
 42
30.0
 50
90.0
 43
30.0
  0
LINE
  8
SUNPOU
 10
6925.648548
 20
2538.863935
 30
0.0
 11
6925.648548
 21
2558.863935
 31
0.0
  0
LINE
  8
SUNPOU
 10
7105.364463
 20
2558.863935
 30
0.0
 11
6905.648548
 21
2558.863935
 31
0.0
  0
LINE
  8
SUNPOU
 10
7217.364463
 20
2538.863935
 30
0.0
 11
6905.648548
 21
2538.863935
 31
0.0
  0
TEXT
  8
SUNPOU
 10
6877.763799
 20
4967.721077
 30
0.0
 40
60.0
  1
32
 50
90.0
  7
K
 72
     1
 11
6877.763799
 21
5024.863935
 31
0.0
  0
LINE
  8
SUNPOU
 10
6907.763799
 20
4926.863935
 30
0.0
 11
6907.7638
 21
4866.863935
 31
0.0
  0
LINE
  8
SUNPOU
 10
6907.763799
 20
4958.863935
 30
0.0
 11
6907.763799
 21
5090.863935
 31
0.0
  0
INSERT
  8
SUNPOU
  2
ARROWANG
 10
6907.763799
 20
4958.863935
 30
0.0
 41
30.0
 42
30.0
 50
270.0
 43
30.0
  0
INSERT
  8
SUNPOU
  2
ARROWANG
 10
6907.763799
 20
4926.863935
 30
0.0
 41
30.0
 42
30.0
 50
90.0
 43
30.0
  0
LINE
  8
SUNPOU
 10
6907.763799
 20
4926.863935
 30
0.0
 11
6907.763799
 21
4958.863935
 31
0.0
  0
LINE
  8
SUNPOU
 10
7105.364463
 20
4958.863935
 30
0.0
 11
6887.763799
 21
4958.863935
 31
0.0
  0
LINE
  8
SUNPOU
 10
7212.364463
 20
4926.863935
 30
0.0
 11
6887.763799
 21
4926.863935
 31
0.0
  0
TEXT
  8
SUNPOU
 10
8669.123276
 20
4553.149649
 30
0.0
 40
60.0
  1
300
 50
90.0
  7
K
 72
     1
 11
8669.123276
 21
4638.863935
 31
0.0
  0
INSERT
  8
SUNPOU
  2
ARROWANG
 10
8699.123276
 20
4788.863935
 30
0.0
 41
30.0
 42
30.0
 50
90.0
 43
30.0
  0
INSERT
  8
SUNPOU
  2
ARROWANG
 10
8699.123276
 20
4488.863935
 30
0.0
 41
30.0
 42
30.0
 50
270.0
 43
30.0
  0
LINE
  8
SUNPOU
 10
8455.364463
 20
4788.863935
 30
0.0
 11
8719.123276
 21
4788.863935
 31
0.0
  0
LINE
  8
SUNPOU
 10
8699.123276
 20
4488.863935
 30
0.0
 11
8699.123276
 21
4788.863935
 31
0.0
  0
TEXT
  8
SUNPOU
 10
8538.421632
 20
4245.629659
 30
0.0
 40
60.0
  1
300
 50
90.0
  7
K
 72
     1
 11
8538.421632
 21
4331.343944
 31
0.0
  0
INSERT
  8
SUNPOU
  2
ARROWANG
 10
8699.123276
 20
4488.863935
 30
0.0
 41
30.0
 42
30.0
 50
90.0
 43
30.0
  0
INSERT
  8
SUNPOU
  2
ARROWANG
 10
8699.123276
 20
4188.863935
 30
0.0
 41
30.0
 42
30.0
 50
270.0
 43
30.0
  0
LINE
  8
SUNPOU
 10
8455.364463
 20
4488.863935
 30
0.0
 11
8719.123276
 21
4488.863935
 31
0.0
  0
LINE
  8
SUNPOU
 10
8699.123276
 20
4188.863935
 30
0.0
 11
8699.123276
 21
4488.863935
 31
0.0
  0
TEXT
  8
SUNPOU
 10
8669.123276
 20
3953.149649
 30
0.0
 40
60.0
  1
300
 50
90.0
  7
K
 72
     1
 11
8669.123276
 21
4038.863935
 31
0.0
  0
INSERT
  8
SUNPOU
  2
ARROWANG
 10
8699.123276
 20
4188.863935
 30
0.0
 41
30.0
 42
30.0
 50
90.0
 43
30.0
  0
INSERT
  8
SUNPOU
  2
ARROWANG
 10
8699.123276
 20
3888.863935
 30
0.0
 41
30.0
 42
30.0
 50
270.0
 43
30.0
  0
LINE
  8
SUNPOU
 10
8455.364463
 20
4188.863935
 30
0.0
 11
8719.123276
 21
4188.863935
 31
0.0
  0
LINE
  8
SUNPOU
 10
8699.123276
 20
3888.863935
 30
0.0
 11
8699.123276
 21
4188.863935
 31
0.0
  0
TEXT
  8
SUNPOU
 10
8669.123276
 20
3653.149649
 30
0.0
 40
60.0
  1
300
 50
90.0
  7
K
 72
     1
 11
8669.123276
 21
3738.863935
 31
0.0
  0
INSERT
  8
SUNPOU
  2
ARROWANG
 10
8699.123276
 20
3888.863935
 30
0.0
 41
30.0
 42
30.0
 50
90.0
 43
30.0
  0
INSERT
  8
SUNPOU
  2
ARROWANG
 10
8699.123276
 20
3588.863935
 30
0.0
 41
30.0
 42
30.0
 50
270.0
 43
30.0
  0
LINE
  8
SUNPOU
 10
8455.364463
 20
3888.863935
 30
0.0
 11
8719.123276
 21
3888.863935
 31
0.0
  0
LINE
  8
SUNPOU
 10
8699.123276
 20
3588.863935
 30
0.0
 11
8699.123276
 21
3888.863935
 31
0.0
  0
TEXT
  8
SUNPOU
 10
8669.123276
 20
3053.149649
 30
0.0
 40
60.0
  1
300
 50
90.0
  7
K
 72
     1
 11
8669.123276
 21
3138.863935
 31
0.0
  0
INSERT
  8
SUNPOU
  2
ARROWANG
 10
8699.123276
 20
3588.863935
 30
0.0
 41
30.0
 42
30.0
 50
90.0
 43
30.0
  0
INSERT
  8
SUNPOU
  2
ARROWANG
 10
8699.123276
 20
2988.863935
 30
0.0
 41
30.0
 42
30.0
 50
270.0
 43
30.0
  0
LINE
  8
SUNPOU
 10
8455.364463
 20
3588.863935
 30
0.0
 11
8719.123276
 21
3588.863935
 31
0.0
  0
LINE
  8
SUNPOU
 10
8699.123276
 20
2988.863935
 30
0.0
 11
8699.123276
 21
3588.863935
 31
0.0
  0
TEXT
  8
SUNPOU
 10
8669.123276
 20
2753.149649
 30
0.0
 40
60.0
  1
300
 50
90.0
  7
K
 72
     1
 11
8669.123276
 21
2838.863935
 31
0.0
  0
INSERT
  8
SUNPOU
  2
ARROWANG
 10
8699.123276
 20
2988.863935
 30
0.0
 41
30.0
 42
30.0
 50
90.0
 43
30.0
  0
INSERT
  8
SUNPOU
  2
ARROWANG
 10
8699.123276
 20
2688.863935
 30
0.0
 41
30.0
 42
30.0
 50
270.0
 43
30.0
  0
LINE
  8
SUNPOU
 10
8454.181711
 20
2988.863935
 30
0.0
 11
8719.123276
 21
2988.863935
 31
0.0
  0
LINE
  8
SUNPOU
 10
8699.123276
 20
2688.863935
 30
0.0
 11
8699.123276
 21
2988.863935
 31
0.0
  0
TEXT
  8
SUNPOU
 10
8669.123276
 20
2523.863935
 30
0.0
 40
60.0
  1
150
 50
90.0
  7
K
 72
     1
 11
8669.123276
 21
2613.863935
 31
0.0
  0
INSERT
  8
SUNPOU
  2
ARROWANG
 10
8699.123276
 20
2688.863935
 30
0.0
 41
30.0
 42
30.0
 50
90.0
 43
30.0
  0
INSERT
  8
SUNPOU
  2
ARROWANG
 10
8699.123276
 20
2538.863935
 30
0.0
 41
30.0
 42
30.0
 50
270.0
 43
30.0
  0
LINE
  8
SUNPOU
 10
8699.123276
 20
2538.863935
 30
0.0
 11
8699.123276
 21
2688.863935
 31
0.0
  0
LINE
  8
SUNPOU
 10
8454.181711
 20
2688.863935
 30
0.0
 11
8719.123276
 21
2688.863935
 31
0.0
  0
LINE
  8
SUNPOU
 10
8205.364463
 20
2538.863935
 30
0.0
 11
8719.123276
 21
2538.863935
 31
0.0
  0
TEXT
  8
SUNPOU
 10
6659.59778
 20
3670.218137
 30
0.0
 40
60.0
  1
2400
 50
90.0
  7
K
 72
     1
 11
6659.59778
 21
3784.503851
 31
0.0
  0
INSERT
  8
SUNPOU
  2
ARROWANG
 10
6724.877824
 20
4958.863935
 30
0.0
 41
30.0
 42
30.0
 50
90.0
 43
30.0
  0
INSERT
  8
SUNPOU
  2
ARROWANG
 10
6724.877824
 20
2558.863935
 30
0.0
 41
30.0
 42
30.0
 50
270.0
 43
30.0
  0
LINE
  8
SUNPOU
 10
6724.877824
 20
2558.863935
 30
0.0
 11
6724.877824
 21
4958.863935
 31
0.0
  0
LINE
  8
SUNPOU
 10
7105.364463
 20
4958.863935
 30
0.0
 11
6704.877824
 21
4958.863935
 31
0.0
  0
LINE
  8
SUNPOU
 10
7105.364463
 20
2558.863935
 30
0.0
 11
6704.877824
 21
2558.863935
 31
0.0
  0
LINE
  8
SUNPOU
 10
7225.364463
 20
2538.863935
 30
0.0
 11
7225.364463
 21
2171.198126
 31
0.0
  0
LINE
  8
SUNPOU
 10
9145.364463
 20
2538.863935
 30
0.0
 11
9145.364463
 21
2171.198126
 31
0.0
  0
LINE
  8
SUNPOU
 10
7225.364463
 20
2191.198126
 30
0.0
 11
9145.364463
 21
2191.198126
 31
0.0
  0
INSERT
  8
SUNPOU
  2
ARROWANG
 10
7225.364463
 20
2191.198126
 30
0.0
 41
30.0
 42
30.0
 50
180.0
 43
30.0
  0
INSERT
  8
SUNPOU
  2
ARROWANG
 10
9145.364463
 20
2191.198126
 30
0.0
 41
30.0
 42
30.0
 43
30.0
  0
TEXT
  8
SUNPOU
 10
8066.793044
 20
2221.198126
 30
0.0
 40
60.0
  1
1920
  7
K
 72
     1
 11
8185.364473
 21
2221.198126
 31
0.0
  0
LINE
  8
SUNPOU
 10
7237.364463
 20
2518.863935
 30
0.0
 11
7237.364463
 21
2339.483338
 31
0.0
  0
LINE
  8
SUNPOU
 10
9133.364463
 20
2518.863935
 30
0.0
 11
9133.364463
 21
2339.483338
 31
0.0
  0
LINE
  8
SUNPOU
 10
7237.364463
 20
2359.483338
 30
0.0
 11
9133.364463
 21
2359.483338
 31
0.0
  0
INSERT
  8
SUNPOU
  2
ARROWANG
 10
7237.364463
 20
2359.483338
 30
0.0
 41
30.0
 42
30.0
 50
180.0
 43
30.0
  0
INSERT
  8
SUNPOU
  2
ARROWANG
 10
9133.364463
 20
2359.483338
 30
0.0
 41
30.0
 42
30.0
 43
30.0
  0
TEXT
  8
SUNPOU
 10
8066.793044
 20
2389.483338
 30
0.0
 40
60.0
  1
1896
  7
K
 72
     1
 11
8185.364473
 21
2389.483338
 31
0.0
  0
LINE
  8
SUNPOU
 10
9085.364463
 20
4946.863935
 30
0.0
 11
9085.364463
 21
5414.353149
 31
0.0
  0
INSERT
  8
SUNPOU
  2
ARROWANG
 10
9085.364463
 20
5394.353149
 30
0.0
 41
30.0
 42
30.0
 43
30.0
  0
LINE
  8
SUNPOU
 10
9085.364463
 20
5394.353149
 30
0.0
 11
9245.364463
 21
5394.353149
 31
0.0
  0
INSERT
  8
SUNPOU
  2
ARROWANG
 10
9085.364463
 20
5394.353149
 30
0.0
 41
30.0
 42
30.0
 50
180.0
 43
30.0
  0
INSERT
  8
SUNPOU
  2
ARROWANG
 10
9245.364463
 20
5394.353149
 30
0.0
 41
30.0
 42
30.0
 43
30.0
  0
TEXT
  8
SUNPOU
 10
9075.364463
 20
5424.353149
 30
0.0
 40
60.0
  1
160
  7
K
 72
     1
 11
9165.364463
 21
5424.353149
 31
0.0
  0
LINE
  8
SUNPOU
 10
9147.364463
 20
4978.863935
 30
0.0
 11
9147.364463
 21
5235.210827
 31
0.0
  0
INSERT
  8
SUNPOU
  2
ARROWANG
 10
9147.364463
 20
5215.210827
 30
0.0
 41
30.0
 42
30.0
 43
30.0
  0
LINE
  8
SUNPOU
 10
9138.364463
 20
4946.863935
 30
0.0
 11
9138.364463
 21
5056.068505
 31
0.0
  0
INSERT
  8
SUNPOU
  2
ARROWANG
 10
9138.364463
 20
5036.068505
 30
0.0
 41
30.0
 42
30.0
 43
30.0
  0
LINE
  8
SUNPOU
 10
7125.364463
 20
4978.863935
 30
0.0
 11
7125.364463
 21
5414.353149
 31
0.0
  0
LINE
  8
SUNPOU
 10
7285.364463
 20
4946.863935
 30
0.0
 11
7285.364463
 21
5414.353149
 31
0.0
  0
LINE
  8
SUNPOU
 10
7125.364463
 20
5394.353149
 30
0.0
 11
7285.364463
 21
5394.353149
 31
0.0
  0
INSERT
  8
SUNPOU
  2
ARROWANG
 10
7125.364463
 20
5394.353149
 30
0.0
 41
30.0
 42
30.0
 50
180.0
 43
30.0
  0
INSERT
  8
SUNPOU
  2
ARROWANG
 10
7285.364463
 20
5394.353149
 30
0.0
 41
30.0
 42
30.0
 43
30.0
  0
TEXT
  8
SUNPOU
 10
7115.364473
 20
5424.353149
 30
0.0
 40
60.0
  1
160
  7
K
 72
     1
 11
7205.364473
 21
5424.353149
 31
0.0
  0
LINE
  8
SUNPOU
 10
7285.364463
 20
5394.353149
 30
0.0
 11
9085.364463
 21
5394.353149
 31
0.0
  0
INSERT
  8
SUNPOU
  2
ARROWANG
 10
7285.364463
 20
5394.353149
 30
0.0
 41
30.0
 42
30.0
 50
180.0
 43
30.0
  0
TEXT
  8
SUNPOU
 10
8066.793034
 20
5424.353149
 30
0.0
 40
60.0
  1
1800
  7
K
 72
     1
 11
8185.364463
 21
5424.353149
 31
0.0
  0
LINE
  8
SUNPOU
 10
7223.364463
 20
4978.863935
 30
0.0
 11
7223.364463
 21
5235.210827
 31
0.0
  0
LINE
  8
SUNPOU
 10
7223.364463
 20
5215.210827
 30
0.0
 11
9147.364463
 21
5215.210827
 31
0.0
  0
INSERT
  8
SUNPOU
  2
ARROWANG
 10
7223.364463
 20
5215.210827
 30
0.0
 41
30.0
 42
30.0
 50
180.0
 43
30.0
  0
TEXT
  8
SUNPOU
 10
8065.364473
 20
5245.210827
 30
0.0
 40
60.0
  1
1924
  7
K
 72
     1
 11
8185.364473
 21
5245.210827
 31
0.0
  0
LINE
  8
SUNPOU
 10
7232.364463
 20
4946.863935
 30
0.0
 11
7232.364463
 21
5056.068505
 31
0.0
  0
LINE
  8
SUNPOU
 10
7232.364463
 20
5036.068505
 30
0.0
 11
9138.364463
 21
5036.068505
 31
0.0
  0
INSERT
  8
SUNPOU
  2
ARROWANG
 10
7232.364463
 20
5036.068505
 30
0.0
 41
30.0
 42
30.0
 50
180.0
 43
30.0
  0
TEXT
  8
SUNPOU
 10
8066.793044
 20
5066.068505
 30
0.0
 40
60.0
  1
1906
  7
K
 72
     1
 11
8185.364473
 21
5066.068505
 31
0.0
  0
LINE
  8
JISSEN
 10
8184.181711
 20
2698.863935
 30
0.0
 11
8374.181711
 21
2698.863935
 31
0.0
  0
ARC
  8
JISSEN
 10
8374.181711
 20
2688.863935
 30
0.0
 40
10.0
 50
270.0
 51
90.0
  0
LINE
  8
JISSEN
 10
8184.181711
 20
2678.863935
 30
0.0
 11
8374.181711
 21
2678.863935
 31
0.0
  0
LINE
  8
JISSEN
 10
8184.181711
 20
2698.863935
 30
0.0
 11
7994.181711
 21
2698.863935
 31
0.0
  0
LINE
  8
JISSEN
 10
8184.181711
 20
2678.863935
 30
0.0
 11
7994.181711
 21
2678.863935
 31
0.0
  0
ARC
  8
JISSEN
 10
7994.181711
 20
2688.863935
 30
0.0
 40
10.0
 50
90.0
 51
270.0
  0
LINE
  8
ITTEN
 10
7934.181711
 20
2688.863935
 30
0.0
 11
8434.181711
 21
2688.863935
 31
0.0
  0
LINE
  8
ITTEN
 10
7934.181711
 20
2988.863935
 30
0.0
 11
8434.181711
 21
2988.863935
 31
0.0
  0
ARC
  8
JISSEN
 10
7994.181711
 20
2988.863935
 30
0.0
 40
10.0
 50
90.0
 51
270.0
  0
LINE
  8
JISSEN
 10
8184.181711
 20
2978.863935
 30
0.0
 11
7994.181711
 21
2978.863935
 31
0.0
  0
LINE
  8
JISSEN
 10
8184.181711
 20
2998.863935
 30
0.0
 11
7994.181711
 21
2998.863935
 31
0.0
  0
LINE
  8
JISSEN
 10
8184.181711
 20
2978.863935
 30
0.0
 11
8374.181711
 21
2978.863935
 31
0.0
  0
ARC
  8
JISSEN
 10
8374.181711
 20
2988.863935
 30
0.0
 40
10.0
 50
270.0
 51
90.0
  0
LINE
  8
JISSEN
 10
8184.181711
 20
2998.863935
 30
0.0
 11
8374.181711
 21
2998.863935
 31
0.0
  0
LINE
  8
JISSEN
 10
7125.364463
 20
2558.863935
 30
0.0
 11
7125.364463
 21
4958.863935
 31
0.0
  0
LINE
  8
JISSEN
 10
7125.364463
 20
4958.863935
 30
0.0
 11
9245.364463
 21
4958.863935
 31
0.0
  0
LINE
  8
JISSEN
 10
7125.364463
 20
4958.863935
 30
0.0
 11
7225.364463
 21
4958.863935
 31
0.0
  0
LINE
  8
JISSEN
 10
7225.364463
 20
2558.863935
 30
0.0
 11
7237.364463
 21
2538.863935
 31
0.0
  0
LINE
  8
JISSEN
 10
7237.364463
 20
2538.863935
 30
0.0
 11
8185.364463
 21
2538.863935
 31
0.0
  0
LINE
  8
JISSEN
 10
7223.364463
 20
4958.863935
 30
0.0
 11
7232.364463
 21
4926.863935
 31
0.0
  0
LINE
  8
JISSEN
 10
7232.364463
 20
4926.863935
 30
0.0
 11
7285.364463
 21
4926.863935
 31
0.0
  0
LINE
  8
JISSEN
 10
7285.364463
 20
4926.863935
 30
0.0
 11
8185.364463
 21
4926.863935
 31
0.0
  0
LINE
  8
JISSEN
 10
9138.364463
 20
4926.863935
 30
0.0
 11
9085.364463
 21
4926.863935
 31
0.0
  0
LINE
  8
JISSEN
 10
9147.364463
 20
4958.863935
 30
0.0
 11
9138.364463
 21
4926.863935
 31
0.0
  0
LINE
  8
JISSEN
 10
9133.364463
 20
2538.863935
 30
0.0
 11
8185.364463
 21
2538.863935
 31
0.0
  0
LINE
  8
JISSEN
 10
9245.364463
 20
4958.863935
 30
0.0
 11
9145.364463
 21
4958.863935
 31
0.0
  0
LINE
  8
JISSEN
 10
9085.364463
 20
4926.863935
 30
0.0
 11
8185.364463
 21
4926.863935
 31
0.0
  0
LINE
  8
JISSEN
 10
7125.364463
 20
2558.863935
 30
0.0
 11
7225.364463
 21
2558.863935
 31
0.0
  0
LINE
  8
JISSEN
 10
9145.364463
 20
2558.863935
 30
0.0
 11
9133.364463
 21
2538.863935
 31
0.0
  0
LINE
  8
JISSEN
 10
9245.364463
 20
2558.863935
 30
0.0
 11
9145.364463
 21
2558.863935
 31
0.0
  0
LINE
  8
JISSEN
 10
9085.364463
 20
4926.863935
 30
0.0
 11
9085.364463
 21
2538.863935
 31
0.0
  0
LINE
  8
JISSEN
 10
7285.364463
 20
2538.863935
 30
0.0
 11
7285.364463
 21
4926.863935
 31
0.0
  0
LINE
  8
ITTEN
 10
8185.364463
 20
2412.284972
 30
0.0
 11
8185.364463
 21
5058.863935
 31
0.0
  0
LINE
  8
JISSEN
 10
8185.364463
 20
4798.863935
 30
0.0
 11
8375.364463
 21
4798.863935
 31
0.0
  0
ARC
  8
JISSEN
 10
8375.364463
 20
4788.863935
 30
0.0
 40
10.0
 50
270.0
 51
90.0
  0
LINE
  8
JISSEN
 10
8185.364463
 20
4778.863935
 30
0.0
 11
8375.364463
 21
4778.863935
 31
0.0
  0
LINE
  8
JISSEN
 10
8185.364463
 20
4798.863935
 30
0.0
 11
7995.364463
 21
4798.863935
 31
0.0
  0
LINE
  8
JISSEN
 10
8185.364463
 20
4778.863935
 30
0.0
 11
7995.364463
 21
4778.863935
 31
0.0
  0
ARC
  8
JISSEN
 10
7995.364463
 20
4788.863935
 30
0.0
 40
10.0
 50
90.0
 51
270.0
  0
LINE
  8
ITTEN
 10
7935.364463
 20
4788.863935
 30
0.0
 11
8435.364463
 21
4788.863935
 31
0.0
  0
LINE
  8
JISSEN
 10
8185.364463
 20
4498.863935
 30
0.0
 11
8375.364463
 21
4498.863935
 31
0.0
  0
ARC
  8
JISSEN
 10
8375.364463
 20
4488.863935
 30
0.0
 40
10.0
 50
270.0
 51
90.0
  0
LINE
  8
JISSEN
 10
8185.364463
 20
4478.863935
 30
0.0
 11
8375.364463
 21
4478.863935
 31
0.0
  0
LINE
  8
JISSEN
 10
8185.364463
 20
4498.863935
 30
0.0
 11
7995.364463
 21
4498.863935
 31
0.0
  0
LINE
  8
JISSEN
 10
8185.364463
 20
4478.863935
 30
0.0
 11
7995.364463
 21
4478.863935
 31
0.0
  0
ARC
  8
JISSEN
 10
7995.364463
 20
4488.863935
 30
0.0
 40
10.0
 50
90.0
 51
270.0
  0
LINE
  8
ITTEN
 10
7935.364463
 20
4488.863935
 30
0.0
 11
8435.364463
 21
4488.863935
 31
0.0
  0
LINE
  8
JISSEN
 10
8185.364463
 20
4198.863935
 30
0.0
 11
8375.364463
 21
4198.863935
 31
0.0
  0
ARC
  8
JISSEN
 10
8375.364463
 20
4188.863935
 30
0.0
 40
10.0
 50
270.0
 51
90.0
  0
LINE
  8
JISSEN
 10
8185.364463
 20
4178.863935
 30
0.0
 11
8375.364463
 21
4178.863935
 31
0.0
  0
LINE
  8
JISSEN
 10
8185.364463
 20
4198.863935
 30
0.0
 11
7995.364463
 21
4198.863935
 31
0.0
  0
LINE
  8
JISSEN
 10
8185.364463
 20
4178.863935
 30
0.0
 11
7995.364463
 21
4178.863935
 31
0.0
  0
ARC
  8
JISSEN
 10
7995.364463
 20
4188.863935
 30
0.0
 40
10.0
 50
90.0
 51
270.0
  0
LINE
  8
ITTEN
 10
7935.364463
 20
4188.863935
 30
0.0
 11
8435.364463
 21
4188.863935
 31
0.0
  0
LINE
  8
JISSEN
 10
8185.364463
 20
3898.863935
 30
0.0
 11
8375.364463
 21
3898.863935
 31
0.0
  0
ARC
  8
JISSEN
 10
8375.364463
 20
3888.863935
 30
0.0
 40
10.0
 50
270.0
 51
90.0
  0
LINE
  8
JISSEN
 10
8185.364463
 20
3878.863935
 30
0.0
 11
8375.364463
 21
3878.863935
 31
0.0
  0
LINE
  8
JISSEN
 10
8185.364463
 20
3898.863935
 30
0.0
 11
7995.364463
 21
3898.863935
 31
0.0
  0
LINE
  8
JISSEN
 10
8185.364463
 20
3878.863935
 30
0.0
 11
7995.364463
 21
3878.863935
 31
0.0
  0
ARC
  8
JISSEN
 10
7995.364463
 20
3888.863935
 30
0.0
 40
10.0
 50
90.0
 51
270.0
  0
LINE
  8
ITTEN
 10
7935.364463
 20
3888.863935
 30
0.0
 11
8435.364463
 21
3888.863935
 31
0.0
  0
LINE
  8
JISSEN
 10
8185.364463
 20
3598.863935
 30
0.0
 11
8375.364463
 21
3598.863935
 31
0.0
  0
ARC
  8
JISSEN
 10
8375.364463
 20
3588.863935
 30
0.0
 40
10.0
 50
270.0
 51
90.0
  0
LINE
  8
JISSEN
 10
8185.364463
 20
3578.863935
 30
0.0
 11
8375.364463
 21
3578.863935
 31
0.0
  0
LINE
  8
JISSEN
 10
8185.364463
 20
3598.863935
 30
0.0
 11
7995.364463
 21
3598.863935
 31
0.0
  0
LINE
  8
JISSEN
 10
8185.364463
 20
3578.863935
 30
0.0
 11
7995.364463
 21
3578.863935
 31
0.0
  0
ARC
  8
JISSEN
 10
7995.364463
 20
3588.863935
 30
0.0
 40
10.0
 50
90.0
 51
270.0
  0
LINE
  8
ITTEN
 10
7935.364463
 20
3588.863935
 30
0.0
 11
8435.364463
 21
3588.863935
 31
0.0
  0
LINE
  8
SUNPOU
 10
9245.364463
 20
4978.863935
 30
0.0
 11
9245.364463
 21
5414.353149
 31
0.0
  0
LINE
  8
JISSEN
 10
9245.364463
 20
4958.863935
 30
0.0
 11
9245.364463
 21
2558.863935
 31
0.0
  0
CIRCLE
  8
HASEN
 10
7435.831275
 20
4808.863935
 30
0.0
 40
15.0
  0
LINE
  8
ITTEN
 10
7435.831275
 20
4833.863935
 30
0.0
 11
7435.831275
 21
4783.863935
 31
0.0
  0
LINE
  8
ITTEN
 10
7460.831275
 20
4808.863935
 30
0.0
 11
7410.831275
 21
4808.863935
 31
0.0
  0
CIRCLE
  8
HASEN
 10
7206.052158
 20
4808.863935
 30
0.0
 40
15.0
  0
LINE
  8
ITTEN
 10
7231.052158
 20
4808.863935
 30
0.0
 11
7181.052158
 21
4808.863935
 31
0.0
  0
LINE
  8
ITTEN
 10
7206.052158
 20
4833.863935
 30
0.0
 11
7206.052158
 21
4783.863935
 31
0.0
  0
LINE
  8
ITTEN
 10
9164.676767
 20
4833.863935
 30
0.0
 11
9164.676767
 21
4783.863935
 31
0.0
  0
LINE
  8
ITTEN
 10
9139.676767
 20
4808.863935
 30
0.0
 11
9189.676767
 21
4808.863935
 31
0.0
  0
CIRCLE
  8
HASEN
 10
9164.676767
 20
4808.863935
 30
0.0
 40
15.0
  0
LINE
  8
ITTEN
 10
8909.897651
 20
4808.863935
 30
0.0
 11
8959.897651
 21
4808.863935
 31
0.0
  0
LINE
  8
ITTEN
 10
8934.897651
 20
4833.863935
 30
0.0
 11
8934.897651
 21
4783.863935
 31
0.0
  0
CIRCLE
  8
HASEN
 10
8934.897651
 20
4808.863935
 30
0.0
 40
15.0
  0
LINE
  8
ITTEN
 10
7460.831275
 20
2708.863935
 30
0.0
 11
7410.831275
 21
2708.863935
 31
0.0
  0
LINE
  8
ITTEN
 10
7435.831275
 20
2733.863935
 30
0.0
 11
7435.831275
 21
2683.863935
 31
0.0
  0
CIRCLE
  8
HASEN
 10
7435.831275
 20
2708.863935
 30
0.0
 40
15.0
  0
CIRCLE
  8
HASEN
 10
8934.897651
 20
2708.863935
 30
0.0
 40
15.0
  0
LINE
  8
ITTEN
 10
8934.897651
 20
2733.863935
 30
0.0
 11
8934.897651
 21
2683.863935
 31
0.0
  0
LINE
  8
ITTEN
 10
8909.897651
 20
2708.863935
 30
0.0
 11
8959.897651
 21
2708.863935
 31
0.0
  0
LINE
  8
SUNPOU
 10
9184.676767
 20
4808.863935
 30
0.0
 11
9526.262571
 21
4808.863935
 31
0.0
  0
LINE
  8
SUNPOU
 10
9265.364463
 20
4958.863935
 30
0.0
 11
9526.262571
 21
4958.863935
 31
0.0
  0
LINE
  8
SUNPOU
 10
9506.262571
 20
4808.863935
 30
0.0
 11
9506.262571
 21
4958.863935
 31
0.0
  0
INSERT
  8
SUNPOU
  2
ARROWANG
 10
9506.262571
 20
4808.863935
 30
0.0
 41
30.0
 42
30.0
 50
270.0
 43
30.0
  0
INSERT
  8
SUNPOU
  2
ARROWANG
 10
9506.262571
 20
4958.863935
 30
0.0
 41
30.0
 42
30.0
 50
90.0
 43
30.0
  0
TEXT
  8
SUNPOU
 10
9476.262571
 20
4793.863935
 30
0.0
 40
60.0
  1
150
 50
90.0
  7
K
 72
     1
 11
9476.262571
 21
4883.863935
 31
0.0
  0
LINE
  8
SUNPOU
 10
9265.364463
 20
2558.863935
 30
0.0
 11
9562.750113
 21
2558.863935
 31
0.0
  0
LINE
  8
SUNPOU
 10
8954.897651
 20
2708.863935
 30
0.0
 11
9562.750113
 21
2708.863935
 31
0.0
  0
LINE
  8
SUNPOU
 10
9542.750113
 20
2558.863935
 30
0.0
 11
9542.750113
 21
2708.863935
 31
0.0
  0
INSERT
  8
SUNPOU
  2
ARROWANG
 10
9542.750113
 20
2558.863935
 30
0.0
 41
30.0
 42
30.0
 50
270.0
 43
30.0
  0
INSERT
  8
SUNPOU
  2
ARROWANG
 10
9542.750113
 20
2708.863935
 30
0.0
 41
30.0
 42
30.0
 50
90.0
 43
30.0
  0
TEXT
  8
SUNPOU
 10
9512.750113
 20
2543.863935
 30
0.0
 40
60.0
  1
150
 50
90.0
  7
K
 72
     1
 11
9512.750113
 21
2633.863935
 31
0.0
  0
LINE
  8
SUNPOU
 10
7459.585004
 20
4625.599019
 30
0.0
 11
7972.588958
 21
4625.599019
 31
0.0
  0
TEXT
  8
SUNPOU
 10
7459.585004
 20
4645.599019
 30
0.0
 40
60.0
  1
埋込みアンカー
  7
K
  0
LINE
  8
SUNPOU
 10
7206.052158
 20
4808.863935
 30
0.0
 11
7459.585004
 21
4625.599019
 31
0.0
  0
LINE
  8
SUNPOU
 10
7435.831275
 20
4808.863935
 30
0.0
 11
7459.585004
 21
4625.599019
 31
0.0
  0
INSERT
  8
SUNPOU
  2
ARROWANG
 10
7435.831275
 20
4808.863935
 30
0.0
 41
30.0
 42
30.0
 50
97.385172
 43
30.0
  0
INSERT
  8
SUNPOU
  2
ARROWANG
 10
7206.052158
 20
4808.863935
 30
0.0
 41
30.0
 42
30.0
 50
144.138909
 43
30.0
  0
INSERT
  8
SUNPOU
  2
ARROWANG
 10
7435.831275
 20
2708.863935
 30
0.0
 41
30.0
 42
30.0
 50
235.488023
 43
30.0
  0
LINE
  8
SUNPOU
 10
7435.831275
 20
2708.863935
 30
0.0
 11
7519.76222
 21
2830.929545
 31
0.0
  0
LINE
  8
SUNPOU
 10
7519.76222
 20
2830.929545
 30
0.0
 11
7988.654368
 21
2830.929545
 31
0.0
  0
TEXT
  8
SUNPOU
 10
7531.743204
 20
2850.929545
 30
0.0
 40
60.0
  1
埋込みアンカー
  7
K
  0
LINE
  8
ITTEN
 10
8185.364463
 20
4398.863935
 30
0.0
 11
8185.364463
 21
4278.863935
 31
0.0
  0
LINE
  8
SUNPOU
 10
8205.364463
 20
4958.863935
 30
0.0
 11
8891.112038
 21
4958.863935
 31
0.0
  0
LINE
  8
SUNPOU
 10
8871.112038
 20
4338.863935
 30
0.0
 11
8871.112038
 21
4958.863935
 31
0.0
  0
INSERT
  8
SUNPOU
  2
ARROWANG
 10
8871.112038
 20
4338.863935
 30
0.0
 41
30.0
 42
30.0
 50
270.0
 43
30.0
  0
INSERT
  8
SUNPOU
  2
ARROWANG
 10
8871.112038
 20
4958.863935
 30
0.0
 41
30.0
 42
30.0
 50
90.0
 43
30.0
  0
TEXT
  8
SUNPOU
 10
8841.112038
 20
4561.721077
 30
0.0
 40
60.0
  1
620
 50
90.0
  7
K
 72
     1
 11
8841.112038
 21
4648.863935
 31
0.0
  0
LINE
  8
ITTEN
 10
7935.364463
 20
3288.863935
 30
0.0
 11
8435.364463
 21
3288.863935
 31
0.0
  0
ARC
  8
JISSEN
 10
7995.364463
 20
3288.863935
 30
0.0
 40
10.0
 50
90.0
 51
270.0
  0
LINE
  8
JISSEN
 10
8185.364463
 20
3278.863935
 30
0.0
 11
7995.364463
 21
3278.863935
 31
0.0
  0
LINE
  8
JISSEN
 10
8185.364463
 20
3298.863935
 30
0.0
 11
7995.364463
 21
3298.863935
 31
0.0
  0
LINE
  8
JISSEN
 10
8185.364463
 20
3278.863935
 30
0.0
 11
8375.364463
 21
3278.863935
 31
0.0
  0
ARC
  8
JISSEN
 10
8375.364463
 20
3288.863935
 30
0.0
 40
10.0
 50
270.0
 51
90.0
  0
LINE
  8
JISSEN
 10
8185.364463
 20
3298.863935
 30
0.0
 11
8375.364463
 21
3298.863935
 31
0.0
  0
LINE
  8
SUNPOU
 10
8455.364463
 20
3288.863935
 30
0.0
 11
8719.123276
 21
3288.863935
 31
0.0
  0
INSERT
  8
SUNPOU
  2
ARROWANG
 10
8699.123276
 20
3288.863935
 30
0.0
 41
30.0
 42
30.0
 50
90.0
 43
30.0
  0
INSERT
  8
SUNPOU
  2
ARROWANG
 10
8699.123276
 20
3288.863935
 30
0.0
 41
30.0
 42
30.0
 50
270.0
 43
30.0
  0
TEXT
  8
SUNPOU
 10
8669.123276
 20
3353.149649
 30
0.0
 40
60.0
  1
300
 50
90.0
  7
K
 72
     1
 11
8669.123276
 21
3438.863935
 31
0.0
  0
TEXT
  8
TEXT
 10
1383.357967
 20
5601.823174
 30
0.0
 40
120.0
  1
M4S150
  7
K
  0
TEXT
  8
TEXT
 10
4610.776404
 20
5601.823174
 30
0.0
 40
120.0
  1
M4S210
  7
K
  0
TEXT
  8
TEXT
 10
7795.153188
 20
5601.823174
 30
0.0
 40
120.0
  1
M4S240
  7
K
  0
POLYLINE
  8
WAKU
 66
     1
 10
0.0
 20
0.0
 30
0.0
 70
     1
  0
VERTEX
  8
WAKU
 10
0.0
 20
0.0
 30
0.0
  0
VERTEX
  8
WAKU
 10
9875.0
 20
0.0
 30
0.0
  0
VERTEX
  8
WAKU
 10
9875.0
 20
6825.0
 30
0.0
  0
VERTEX
  8
WAKU
 10
0.0
 20
6825.0
 30
0.0
  0
SEQEND
  8
WAKU
  0
TEXT
  8
TEXT
 10
9218.394414
 20
688.871513
 30
0.0
 40
120.0
  1
1/25
  7
K
  0
ENDSEC
  0
EOF
