  0
SECTION
  2
HEADER
  9
$ACADVER
  1
AC1009
  9
$INSBASE
 10
0.0
 20
0.0
 30
0.0
  9
$EXTMIN
 10
0.0
 20
0.0
 30
0.0
  9
$EXTMAX
 10
19750.0
 20
13710.79142
 30
0.0
  9
$LIMMIN
 10
0.0
 20
0.0
  9
$LIMMAX
 10
19750.0
 20
13650.0
  9
$ORTHOMODE
 70
     0
  9
$REGENMODE
 70
     1
  9
$FILLMODE
 70
     1
  9
$QTEXTMODE
 70
     0
  9
$MIRRTEXT
 70
     0
  9
$DRAGMODE
 70
     2
  9
$LTSCALE
 40
250.0
  9
$OSMODE
 70
    33
  9
$ATTMODE
 70
     1
  9
$TEXTSIZE
 40
60.0
  9
$TRACEWID
 40
0.05
  9
$TEXTSTYLE
  7
K
  9
$CLAYER
  8
SUNPOU
  9
$CELTYPE
  6
BYLAYER
  9
$CECOLOR
 62
   256
  9
$DIMSCALE
 40
50.0
  9
$DIMASZ
 40
1.5
  9
$DIMEXO
 40
1.0
  9
$DIMDLI
 40
6.0
  9
$DIMRND
 40
0.0
  9
$DIMDLE
 40
0.0
  9
$DIMEXE
 40
1.0
  9
$DIMTP
 40
495.0
  9
$DIMTM
 40
0.0
  9
$DIMTXT
 40
3.0
  9
$DIMCEN
 40
0.0
  9
$DIMTSZ
 40
0.0
  9
$DIMTOL
 70
     0
  9
$DIMLIM
 70
     0
  9
$DIMTIH
 70
     0
  9
$DIMTOH
 70
     0
  9
$DIMSE1
 70
     0
  9
$DIMSE2
 70
     0
  9
$DIMTAD
 70
     1
  9
$DIMZIN
 70
     8
  9
$DIMBLK
  1
ARROW
  9
$DIMASO
 70
     0
  9
$DIMSHO
 70
     0
  9
$DIMPOST
  1

  9
$DIMAPOST
  1

  9
$DIMALT
 70
     0
  9
$DIMALTD
 70
     2
  9
$DIMALTF
 40
25.4
  9
$DIMLFAC
 40
1.0
  9
$DIMTOFL
 70
     1
  9
$DIMTVP
 40
0.0
  9
$DIMTIX
 70
     1
  9
$DIMSOXD
 70
     0
  9
$DIMSAH
 70
     0
  9
$DIMBLK1
  1

  9
$DIMBLK2
  1

  9
$DIMSTYLE
  2
*UNNAMED
  9
$DIMCLRD
 70
     0
  9
$DIMCLRE
 70
     0
  9
$DIMCLRT
 70
     0
  9
$DIMTFAC
 40
1.0
  9
$DIMGAP
 40
0.09
  9
$LUNITS
 70
     2
  9
$LUPREC
 70
     2
  9
$AXISMODE
 70
     1
  9
$AXISUNIT
 10
100.0
 20
100.0
  9
$SKETCHINC
 40
0.1
  9
$FILLETRAD
 40
10.0
  9
$AUNITS
 70
     0
  9
$AUPREC
 70
     2
  9
$MENU
  1
d:stdgx5
  9
$ELEVATION
 40
0.0
  9
$PELEVATION
 40
0.0
  9
$THICKNESS
 40
0.0
  9
$LIMCHECK
 70
     0
  9
$BLIPMODE
 70
     1
  9
$CHAMFERA
 40
0.0
  9
$CHAMFERB
 40
0.0
  9
$SKPOLY
 70
     0
  9
$TDCREATE
 40
2450248.740763888
  9
$TDUPDATE
 40
2450255.715173611
  9
$TDINDWG
 40
0.0066435185
  9
$TDUSRTIMER
 40
0.0066435185
  9
$USRTIMER
 70
     1
  9
$ANGBASE
 50
0.0
  9
$ANGDIR
 70
     0
  9
$PDMODE
 70
     0
  9
$PDSIZE
 40
0.0
  9
$PLINEWID
 40
0.0
  9
$COORDS
 70
     2
  9
$SPLFRAME
 70
     0
  9
$SPLINETYPE
 70
     6
  9
$SPLINESEGS
 70
     8
  9
$ATTDIA
 70
     0
  9
$ATTREQ
 70
     1
  9
$HANDLING
 70
     0
  9
$HANDSEED
  5
0
  9
$SURFTAB1
 70
     6
  9
$SURFTAB2
 70
     6
  9
$SURFTYPE
 70
     6
  9
$SURFU
 70
     6
  9
$SURFV
 70
     6
  9
$UCSNAME
  2

  9
$UCSORG
 10
0.0
 20
0.0
 30
0.0
  9
$UCSXDIR
 10
1.0
 20
0.0
 30
0.0
  9
$UCSYDIR
 10
0.0
 20
1.0
 30
0.0
  9
$PUCSNAME
  2

  9
$PUCSORG
 10
0.0
 20
0.0
 30
0.0
  9
$PUCSXDIR
 10
1.0
 20
0.0
 30
0.0
  9
$PUCSYDIR
 10
0.0
 20
1.0
 30
0.0
  9
$USERI1
 70
     3
  9
$USERI2
 70
    33
  9
$USERI3
 70
     0
  9
$USERI4
 70
     1
  9
$USERI5
 70
     0
  9
$USERR1
 40
50.0
  9
$USERR2
 40
3.0
  9
$USERR3
 40
3.0
  9
$USERR4
 40
1.5
  9
$USERR5
 40
10.0
  9
$WORLDVIEW
 70
     1
  9
$SHADEDGE
 70
     3
  9
$SHADEDIF
 70
    70
  9
$TILEMODE
 70
     1
  9
$MAXACTVP
 70
    16
  9
$PINSBASE
 10
0.0
 20
0.0
 30
0.0
  9
$PLIMCHECK
 70
     0
  9
$PEXTMIN
 10
1.000000E+20
 20
1.000000E+20
 30
1.000000E+20
  9
$PEXTMAX
 10
-1.000000E+20
 20
-1.000000E+20
 30
-1.000000E+20
  9
$PLIMMIN
 10
0.0
 20
0.0
  9
$PLIMMAX
 10
12.0
 20
9.0
  9
$UNITMODE
 70
     0
  9
$VISRETAIN
 70
     0
  0
ENDSEC
  0
SECTION
  2
TABLES
  0
TABLE
  2
VPORT
 70
    10
  0
VPORT
  2
*ACTIVE
 70
     0
 10
0.0
 20
0.0
 11
1.0
 21
1.0
 12
11152.526228
 22
6825.0
 13
0.0
 23
0.0
 14
1.0
 24
1.0
 15
10.0
 25
10.0
 16
0.0
 26
0.0
 36
1.0
 17
0.0
 27
0.0
 37
0.0
 40
13650.0
 41
1.63407
 42
50.0
 43
0.0
 44
0.0
 50
0.0
 51
0.0
 71
     0
 72
   500
 73
     1
 74
     0
 75
     0
 76
     0
 77
     0
 78
     0
  0
VPORT
  2
2
 70
     0
 10
0.5
 20
0.0
 11
1.0
 21
1.0
 12
0.924031
 22
1.052651
 13
0.0
 23
0.0
 14
1.0
 24
1.0
 15
10.0
 25
10.0
 16
0.0
 26
0.0
 36
1.0
 17
0.0
 27
0.0
 37
0.0
 40
2.105302
 41
0.877814
 42
50.0
 43
0.0
 44
0.0
 50
0.0
 51
0.0
 71
     0
 72
   500
 73
     1
 74
     1
 75
     0
 76
     0
 77
     0
 78
     0
  0
VPORT
  2
2
 70
     0
 10
0.0
 20
0.0
 11
0.5
 21
1.0
 12
0.924031
 22
1.052651
 13
0.0
 23
0.0
 14
1.0
 24
1.0
 15
10.0
 25
10.0
 16
0.0
 26
0.0
 36
1.0
 17
0.0
 27
0.0
 37
0.0
 40
2.105302
 41
0.877814
 42
50.0
 43
0.0
 44
0.0
 50
0.0
 51
0.0
 71
     0
 72
   500
 73
     1
 74
     1
 75
     0
 76
     0
 77
     0
 78
     0
  0
VPORT
  2
3
 70
     0
 10
0.0
 20
0.5
 11
1.0
 21
1.0
 12
2.83217
 22
1.052651
 13
0.0
 23
0.0
 14
1.0
 24
1.0
 15
10.0
 25
10.0
 16
0.0
 26
0.0
 36
1.0
 17
0.0
 27
0.0
 37
0.0
 40
2.105302
 41
3.571429
 42
50.0
 43
0.0
 44
0.0
 50
0.0
 51
0.0
 71
     0
 72
   500
 73
     1
 74
     1
 75
     0
 76
     0
 77
     0
 78
     0
  0
VPORT
  2
3
 70
     0
 10
0.0
 20
0.0
 11
1.0
 21
0.5
 12
2.856742
 22
1.052651
 13
0.0
 23
0.0
 14
1.0
 24
1.0
 15
10.0
 25
10.0
 16
0.0
 26
0.0
 36
1.0
 17
0.0
 27
0.0
 37
0.0
 40
2.105302
 41
3.594771
 42
50.0
 43
0.0
 44
0.0
 50
0.0
 51
0.0
 71
     0
 72
   500
 73
     1
 74
     1
 75
     0
 76
     0
 77
     0
 78
     0
  0
VPORT
  2
4
 70
     0
 10
0.5
 20
0.0
 11
1.0
 21
0.5
 12
2.886858
 22
1.052651
 13
0.0
 23
0.0
 14
1.0
 24
1.0
 15
10.0
 25
10.0
 16
0.0
 26
0.0
 36
1.0
 17
0.0
 27
0.0
 37
0.0
 40
4.275207
 41
1.784314
 42
50.0
 43
0.0
 44
0.0
 50
0.0
 51
0.0
 71
     0
 72
   500
 73
     1
 74
     1
 75
     0
 76
     0
 77
     0
 78
     0
  0
VPORT
  2
4
 70
     0
 10
0.5
 20
0.5
 11
1.0
 21
1.0
 12
2.86209
 22
1.052651
 13
0.0
 23
0.0
 14
1.0
 24
1.0
 15
10.0
 25
10.0
 16
0.0
 26
0.0
 36
1.0
 17
0.0
 27
0.0
 37
0.0
 40
4.275207
 41
1.772727
 42
50.0
 43
0.0
 44
0.0
 50
0.0
 51
0.0
 71
     0
 72
   500
 73
     1
 74
     1
 75
     0
 76
     0
 77
     0
 78
     0
  0
VPORT
  2
4
 70
     0
 10
0.0
 20
0.5
 11
0.5
 21
1.0
 12
2.86209
 22
1.052651
 13
0.0
 23
0.0
 14
1.0
 24
1.0
 15
10.0
 25
10.0
 16
0.0
 26
0.0
 36
1.0
 17
0.0
 27
0.0
 37
0.0
 40
4.275207
 41
1.772727
 42
50.0
 43
0.0
 44
0.0
 50
0.0
 51
0.0
 71
     0
 72
   500
 73
     1
 74
     1
 75
     0
 76
     0
 77
     0
 78
     0
  0
VPORT
  2
4
 70
     0
 10
0.0
 20
0.0
 11
0.5
 21
0.5
 12
2.886858
 22
1.052651
 13
0.0
 23
0.0
 14
1.0
 24
1.0
 15
10.0
 25
10.0
 16
0.0
 26
0.0
 36
1.0
 17
0.0
 27
0.0
 37
0.0
 40
4.275207
 41
1.784314
 42
50.0
 43
0.0
 44
0.0
 50
0.0
 51
0.0
 71
     0
 72
   500
 73
     1
 74
     1
 75
     0
 76
     0
 77
     0
 78
     0
  0
ENDTAB
  0
TABLE
  2
LTYPE
 70
     5
  0
LTYPE
  2
CONTINUOUS
 70
    64
  3
実線
 72
    65
 73
     0
 40
0.0
  0
LTYPE
  2
DASHED
 70
    64
  3
__ __ __ __ __ __ __ __ __ __ __ __ __ __ __
 72
    65
 73
     2
 40
0.75
 49
0.5
 49
-0.25
  0
LTYPE
  2
CENTER
 70
    64
  3
____ _ ____ _ ____ _ ____ _ ____ _ ____ _ ____
 72
    65
 73
     4
 40
2.0
 49
1.25
 49
-0.25
 49
0.25
 49
-0.25
  0
LTYPE
  2
PHANTOM
 70
    64
  3
_____ _ _ _____ _ _ _____ _ _ _____ _ _ ____
 72
    65
 73
     6
 40
2.5
 49
1.25
 49
-0.25
 49
0.25
 49
-0.25
 49
0.25
 49
-0.25
  0
LTYPE
  2
HIDDEN
 70
    64
  3
_ _ _ _ _ _ _ _ _ _ _ _ _ _ _ _ _ _ _ _ _ _ _
 72
    65
 73
     2
 40
0.375
 49
0.25
 49
-0.125
  0
ENDTAB
  0
TABLE
  2
LAYER
 70
    14
  0
LAYER
  2
0
 70
    64
 62
     7
  6
CONTINUOUS
  0
LAYER
  2
HASEN
 70
    64
 62
     2
  6
DASHED
  0
LAYER
  2
ITTEN
 70
    64
 62
     1
  6
CENTER
  0
LAYER
  2
NITEN
 70
    64
 62
     2
  6
PHANTOM
  0
LAYER
  2
HATCH
 70
    64
 62
     4
  6
CONTINUOUS
  0
LAYER
  2
SUNPOU
 70
    64
 62
     3
  6
CONTINUOUS
  0
LAYER
  2
TEXT
 70
    64
 62
     3
  6
CONTINUOUS
  0
LAYER
  2
JISSEN
 70
    64
 62
     7
  6
CONTINUOUS
  0
LAYER
  2
WAKU
 70
    64
 62
    -5
  6
CONTINUOUS
  0
ENDTAB
  0
TABLE
  2
STYLE
 70
     2
  0
STYLE
  2
STANDARD
 70
     0
 40
0.0
 41
1.0
 50
0.0
 71
     0
 42
0.2
  3
ROMANS
  4
EXTFONT
  0
STYLE
  2
K
 70
    64
 40
0.0
 41
1.0
 50
0.0
 71
     0
 42
60.0
  3
ROMANS
  4
EXTFONT
  0
ENDTAB
  0
TABLE
  2
VIEW
 70
     0
  0
ENDTAB
  0
TABLE
  2
UCS
 70
     0
  0
ENDTAB
  0
TABLE
  2
APPID
 70
     1
  0
APPID
  2
ACAD
 70
    64
  0
ENDTAB
  0
TABLE
  2
DIMSTYLE
 70
     0
  0
ENDTAB
  0
ENDSEC
  0
SECTION
  2
BLOCKS
  0
BLOCK
  8
SUNPOU
  2
ARROWANG
 70
    64
 10
0.0
 20
0.0
 30
0.0
  3
ARROWANG
  0
LINE
  8
SUNPOU
 10
0.0
 20
0.0
 30
0.0
 11
-1.5
 21
0.401924
 31
0.0
  0
LINE
  8
SUNPOU
 10
0.0
 20
0.0
 30
0.0
 11
-1.5
 21
-0.401924
 31
0.0
  0
ENDBLK
  8
SUNPOU
  0
BLOCK
  8
HATCH
  2
*X1
 70
    65
 10
0.0
 20
0.0
 30
0.0
  3
*X
  0
LINE
  8
0
 62
     0
 10
5941.864318
 20
4969.592494
 30
0.0
 11
6183.208874
 21
5210.93705
 31
0.0
  0
LINE
  8
0
 62
     0
 10
5909.30035
 20
5025.416873
 30
0.0
 11
6183.208874
 21
5299.325397
 31
0.0
  0
LINE
  8
0
 62
     0
 10
5888.291614
 20
5092.796485
 30
0.0
 11
6183.208874
 21
5387.713745
 31
0.0
  0
LINE
  8
0
 62
     0
 10
5884.692628
 20
5177.585847
 30
0.0
 11
6153.408689
 21
5446.301908
 31
0.0
  0
LINE
  8
0
 62
     0
 10
5934.990686
 20
5316.272252
 30
0.0
 11
6014.722284
 21
5396.00385
 31
0.0
  0
LINE
  8
0
 62
     0
 10
5984.070951
 20
4923.41078
 30
0.0
 11
6183.208874
 21
5122.548702
 31
0.0
  0
LINE
  8
0
 62
     0
 10
6035.638744
 20
4886.590224
 30
0.0
 11
6183.208874
 21
5034.160354
 31
0.0
  0
LINE
  8
0
 62
     0
 10
6097.674497
 20
4860.23763
 30
0.0
 11
6183.208874
 21
4945.772007
 31
0.0
  0
LINE
  8
0
 62
     0
 10
6173.759724
 20
4847.93451
 30
0.0
 11
6183.208874
 21
4857.383659
 31
0.0
  0
LINE
  8
0
 62
     0
 10
6183.208874
 20
5130.499625
 30
0.0
 11
5962.609968
 21
5351.098531
 31
0.0
  0
LINE
  8
0
 62
     0
 10
6183.208874
 20
5042.111277
 30
0.0
 11
5924.925263
 21
5300.394889
 31
0.0
  0
LINE
  8
0
 62
     0
 10
6183.208874
 20
4953.72293
 30
0.0
 11
5897.537867
 21
5239.393936
 31
0.0
  0
LINE
  8
0
 62
     0
 10
6183.208874
 20
4865.334582
 30
0.0
 11
5883.694526
 21
5164.848931
 31
0.0
  0
LINE
  8
0
 62
     0
 10
6100.840263
 20
4859.314846
 30
0.0
 11
5894.738057
 21
5065.417051
 31
0.0
  0
LINE
  8
0
 62
     0
 10
6183.208874
 20
5218.887973
 30
0.0
 11
6009.628216
 21
5392.468631
 31
0.0
  0
LINE
  8
0
 62
     0
 10
6183.208874
 20
5307.27632
 30
0.0
 11
6066.381869
 21
5424.103325
 31
0.0
  0
LINE
  8
0
 62
     0
 10
6183.208874
 20
5395.664668
 30
0.0
 11
6134.988569
 21
5443.884973
 31
0.0
  0
ENDBLK
  8
HATCH
  0
ENDSEC
  0
SECTION
  2
ENTITIES
  0
LINE
  8
JISSEN
 10
14637.076152
 20
8743.99676
 30
0.0
 11
14837.076152
 21
8743.99676
 31
0.0
  0
LINE
  8
SUNPOU
 10
13252.178518
 20
7305.348662
 30
0.0
 11
12555.610401
 21
7305.348662
 31
0.0
  0
LINE
  8
SUNPOU
 10
13397.400903
 20
7220.296764
 30
0.0
 11
13252.178518
 21
7305.348662
 31
0.0
  0
INSERT
  8
SUNPOU
  2
ARROWANG
 10
13397.400903
 20
7220.296764
 30
0.0
 41
-59.985
 42
59.985
 50
149.64392
 43
59.985
  0
LINE
  8
JISSEN
 10
8070.18892
 20
8430.516079
 30
0.0
 11
9176.847131
 21
8430.516079
 31
0.0
  0
LINE
  8
HASEN
 10
8070.18892
 20
8318.516079
 30
0.0
 11
9055.515073
 21
8318.516079
 31
0.0
  0
LINE
  8
JISSEN
 10
10819.905545
 20
8430.516079
 30
0.0
 11
11650.18892
 21
8430.516079
 31
0.0
  0
LINE
  8
JISSEN
 10
10909.760261
 20
8318.516079
 30
0.0
 11
11650.18892
 21
8318.516079
 31
0.0
  0
LINE
  8
HASEN
 10
10543.530709
 20
8430.516079
 30
0.0
 11
10819.905545
 21
8430.516079
 31
0.0
  0
LINE
  8
HASEN
 10
10664.862767
 20
8318.516079
 30
0.0
 11
10909.760261
 21
8318.516079
 31
0.0
  0
LINE
  8
JISSEN
 10
9860.18892
 20
8318.516079
 30
0.0
 11
10664.862767
 21
8318.516079
 31
0.0
  0
LINE
  8
HASEN
 10
8070.18892
 20
6818.516079
 30
0.0
 11
9055.515073
 21
6818.516079
 31
0.0
  0
LINE
  8
HASEN
 10
10664.862767
 20
6818.516079
 30
0.0
 11
10909.760261
 21
6818.516079
 31
0.0
  0
LINE
  8
HASEN
 10
10543.530709
 20
6706.516079
 30
0.0
 11
10819.905545
 21
6706.516079
 31
0.0
  0
LINE
  8
JISSEN
 10
10819.905545
 20
6706.516079
 30
0.0
 11
11650.18892
 21
6706.516079
 31
0.0
  0
LINE
  8
JISSEN
 10
10909.760261
 20
6818.516079
 30
0.0
 11
11650.18892
 21
6818.516079
 31
0.0
  0
LINE
  8
JISSEN
 10
9860.18892
 20
6818.516079
 30
0.0
 11
10664.862767
 21
6818.516079
 31
0.0
  0
LINE
  8
JISSEN
 10
8070.18892
 20
6706.516079
 30
0.0
 11
9176.847131
 21
6706.516079
 31
0.0
  0
TEXT
  8
SUNPOU
 10
10724.122078
 20
8113.432565
 30
0.0
 40
119.97
  1
190
 50
30.0
  7
K
 72
     1
 11
10879.96768
 21
8203.410065
 31
0.0
  0
INSERT
  8
SUNPOU
  2
ARROWANG
 10
10977.361691
 20
8213.516079
 30
0.0
 41
59.985
 42
59.985
 50
30.0
 43
59.985
  0
INSERT
  8
SUNPOU
  2
ARROWANG
 10
10812.816864
 20
8118.516079
 30
0.0
 41
59.985
 42
59.985
 50
210.0
 43
59.985
  0
LINE
  8
SUNPOU
 10
10992.361691
 20
8187.535317
 30
0.0
 11
10992.361691
 21
8187.535317
 31
0.0
  0
LINE
  8
SUNPOU
 10
10812.816864
 20
8118.516079
 30
0.0
 11
10977.361691
 21
8213.516079
 31
0.0
  0
TEXT
  8
SUNPOU
 10
9639.2036
 20
7494.611516
 30
0.0
 40
119.97
  1
2200
 50
30.0
  7
K
 72
     1
 11
9837.102777
 21
7608.868659
 31
0.0
  0
INSERT
  8
SUNPOU
  2
ARROWANG
 10
10812.816864
 20
8118.516079
 30
0.0
 41
59.985
 42
59.985
 50
30.0
 43
59.985
  0
INSERT
  8
SUNPOU
  2
ARROWANG
 10
8907.560976
 20
7018.516079
 30
0.0
 41
59.985
 42
59.985
 50
210.0
 43
59.985
  0
LINE
  8
SUNPOU
 10
10827.816864
 20
8092.535317
 30
0.0
 11
10827.816864
 21
8092.535317
 31
0.0
  0
LINE
  8
SUNPOU
 10
8907.560976
 20
7018.516079
 30
0.0
 11
10812.816864
 21
8118.516079
 31
0.0
  0
TEXT
  8
SUNPOU
 10
8646.204209
 20
6914.788428
 30
0.0
 40
119.97
  1
190
 50
30.0
  7
K
 72
     1
 11
8802.04981
 21
7004.765928
 31
0.0
  0
INSERT
  8
SUNPOU
  2
ARROWANG
 10
8907.560976
 20
7018.516079
 30
0.0
 41
59.985
 42
59.985
 50
30.0
 43
59.985
  0
INSERT
  8
SUNPOU
  2
ARROWANG
 10
8743.016149
 20
6923.516079
 30
0.0
 41
59.985
 42
59.985
 50
210.0
 43
59.985
  0
LINE
  8
SUNPOU
 10
8743.016149
 20
6923.516079
 30
0.0
 11
8907.560976
 21
7018.516079
 31
0.0
  0
LINE
  8
SUNPOU
 10
8922.560976
 20
6992.535316
 30
0.0
 11
8922.560976
 21
6992.535316
 31
0.0
  0
LINE
  8
SUNPOU
 10
8758.016149
 20
6897.535316
 30
0.0
 11
8758.016149
 21
6897.535316
 31
0.0
  0
LINE
  8
ITTEN
 10
11200.18892
 20
7568.516079
 30
0.0
 11
8520.18892
 21
7568.516079
 31
0.0
  0
LINE
  8
ITTEN
 10
9860.18892
 20
8908.516079
 30
0.0
 11
9860.18892
 21
6228.516079
 31
0.0
  0
CIRCLE
  8
JISSEN
 10
9860.18892
 20
7568.516079
 30
0.0
 40
1290.0
  0
ARC
  8
HASEN
 10
9860.18892
 20
7568.516079
 30
0.0
 40
1100.0
 50
90.0
 51
270.0
  0
ARC
  8
JISSEN
 10
9860.18892
 20
7568.516079
 30
0.0
 40
1100.0
 50
270.0
 51
90.0
  0
INSERT
  8
SUNPOU
  2
ARROWANG
 10
11650.18892
 20
9629.638584
 30
0.0
 41
45.0
 42
45.0
 43
45.0
  0
INSERT
  8
SUNPOU
  2
ARROWANG
 10
8070.18892
 20
9629.638584
 30
0.0
 41
45.0
 42
45.0
 50
180.0
 43
45.0
  0
LINE
  8
SUNPOU
 10
8070.18892
 20
9629.638584
 30
0.0
 11
11650.18892
 21
9629.638584
 31
0.0
  0
LINE
  8
SUNPOU
 10
11650.18892
 20
9388.516079
 30
0.0
 11
11650.18892
 21
9659.638584
 31
0.0
  0
LINE
  8
SUNPOU
 10
8070.18892
 20
9388.516079
 30
0.0
 11
8070.18892
 21
9659.638584
 31
0.0
  0
INSERT
  8
SUNPOU
  2
ARROWANG
 10
7746.498269
 20
9358.516079
 30
0.0
 41
45.0
 42
45.0
 50
90.0
 43
45.0
  0
INSERT
  8
SUNPOU
  2
ARROWANG
 10
7746.498269
 20
5778.516079
 30
0.0
 41
45.0
 42
45.0
 50
270.0
 43
45.0
  0
LINE
  8
SUNPOU
 10
7746.498269
 20
5778.516079
 30
0.0
 11
7746.498269
 21
9358.516079
 31
0.0
  0
LINE
  8
SUNPOU
 10
8040.18892
 20
9358.516079
 30
0.0
 11
7716.498269
 21
9358.516079
 31
0.0
  0
LINE
  8
SUNPOU
 10
8040.18892
 20
5778.516079
 30
0.0
 11
7716.498269
 21
5778.516079
 31
0.0
  0
LINE
  8
HASEN
 10
11650.18892
 20
5778.516079
 30
0.0
 11
8070.18892
 21
5778.516079
 31
0.0
  0
LINE
  8
HASEN
 10
8070.18892
 20
5778.516079
 30
0.0
 11
8070.18892
 21
9358.516079
 31
0.0
  0
LINE
  8
HASEN
 10
8070.18892
 20
9358.516079
 30
0.0
 11
11650.18892
 21
9358.516079
 31
0.0
  0
LINE
  8
HASEN
 10
11650.18892
 20
9358.516079
 30
0.0
 11
11650.18892
 21
5778.516079
 31
0.0
  0
ARC
  8
JISSEN
 10
14569.654464
 20
1334.739605
 30
0.0
 40
5065.614424
 50
76.675842
 51
101.761642
  0
LINE
  8
JISSEN
 10
13537.076152
 20
6293.99676
 30
0.0
 11
15737.076152
 21
6263.99676
 31
0.0
  0
LINE
  8
JISSEN
 10
13537.076152
 20
5543.99676
 30
0.0
 11
15737.076152
 21
5513.99676
 31
0.0
  0
LINE
  8
NITEN
 10
12932.142382
 20
5431.99676
 30
0.0
 11
12932.142382
 21
7155.99676
 31
0.0
  0
LINE
  8
JISSEN
 10
13537.076152
 20
5431.99676
 30
0.0
 11
12932.142382
 21
5431.99676
 31
0.0
  0
LINE
  8
JISSEN
 10
13537.076152
 20
5543.99676
 30
0.0
 11
12932.142382
 21
5543.99676
 31
0.0
  0
LINE
  8
JISSEN
 10
13537.076152
 20
7043.99676
 30
0.0
 11
12932.142382
 21
7043.99676
 31
0.0
  0
LINE
  8
JISSEN
 10
13537.076152
 20
7155.99676
 30
0.0
 11
12932.142382
 21
7155.99676
 31
0.0
  0
LINE
  8
JISSEN
 10
15737.076152
 20
5401.99676
 30
0.0
 11
16342.009923
 21
5401.99676
 31
0.0
  0
LINE
  8
JISSEN
 10
15737.076152
 20
7013.99676
 30
0.0
 11
16342.009923
 21
7013.99676
 31
0.0
  0
LINE
  8
JISSEN
 10
15737.076152
 20
7125.99676
 30
0.0
 11
16342.009923
 21
7125.99676
 31
0.0
  0
LINE
  8
JISSEN
 10
15927.076152
 20
9058.99676
 30
0.0
 11
15927.076152
 21
4743.99676
 31
0.0
  0
LINE
  8
JISSEN
 10
13347.076152
 20
9058.99676
 30
0.0
 11
13347.076152
 21
4743.99676
 31
0.0
  0
LINE
  8
JISSEN
 10
13475.076152
 20
5163.99676
 30
0.0
 11
13484.076152
 21
5143.99676
 31
0.0
  0
LINE
  8
JISSEN
 10
14237.076152
 20
5143.99676
 30
0.0
 11
14037.076152
 21
5143.99676
 31
0.0
  0
LINE
  8
JISSEN
 10
13484.076152
 20
5143.99676
 30
0.0
 11
14037.076152
 21
5143.99676
 31
0.0
  0
LINE
  8
JISSEN
 10
13347.076152
 20
5163.99676
 30
0.0
 11
13475.076152
 21
5163.99676
 31
0.0
  0
LINE
  8
JISSEN
 10
15037.076152
 20
5143.99676
 30
0.0
 11
15237.076152
 21
5143.99676
 31
0.0
  0
LINE
  8
JISSEN
 10
15737.076152
 20
7243.99676
 30
0.0
 11
15737.076152
 21
8731.99676
 31
0.0
  0
LINE
  8
JISSEN
 10
15737.076152
 20
7231.99676
 30
0.0
 11
14637.076152
 21
7231.99676
 31
0.0
  0
LINE
  8
JISSEN
 10
15737.076152
 20
5143.99676
 30
0.0
 11
15737.076152
 21
7231.99676
 31
0.0
  0
LINE
  8
JISSEN
 10
15790.076152
 20
7231.99676
 30
0.0
 11
15737.076152
 21
7231.99676
 31
0.0
  0
LINE
  8
JISSEN
 10
15799.076152
 20
7263.99676
 30
0.0
 11
15790.076152
 21
7231.99676
 31
0.0
  0
LINE
  8
JISSEN
 10
15785.076152
 20
7243.99676
 30
0.0
 11
14637.076152
 21
7243.99676
 31
0.0
  0
LINE
  8
JISSEN
 10
15797.076152
 20
7263.99676
 30
0.0
 11
15785.076152
 21
7243.99676
 31
0.0
  0
LINE
  8
JISSEN
 10
15927.076152
 20
7263.99676
 30
0.0
 11
15797.076152
 21
7263.99676
 31
0.0
  0
LINE
  8
JISSEN
 10
15927.076152
 20
9058.99676
 30
0.0
 11
15571.076152
 21
9058.99676
 31
0.0
  0
LINE
  8
JISSEN
 10
15737.076152
 20
7243.99676
 30
0.0
 11
15737.076152
 21
8731.99676
 31
0.0
  0
LINE
  8
JISSEN
 10
15927.076152
 20
8763.99676
 30
0.0
 11
15797.076152
 21
8763.99676
 31
0.0
  0
LINE
  8
JISSEN
 10
15797.076152
 20
8763.99676
 30
0.0
 11
15785.076152
 21
8743.99676
 31
0.0
  0
LINE
  8
JISSEN
 10
15785.076152
 20
8743.99676
 30
0.0
 11
14837.076152
 21
8743.99676
 31
0.0
  0
LINE
  8
JISSEN
 10
15799.076152
 20
8763.99676
 30
0.0
 11
15790.076152
 21
8731.99676
 31
0.0
  0
LINE
  8
JISSEN
 10
15790.076152
 20
8731.99676
 30
0.0
 11
15737.076152
 21
8731.99676
 31
0.0
  0
LINE
  8
JISSEN
 10
15537.076152
 20
8731.99676
 30
0.0
 11
14637.076152
 21
8731.99676
 31
0.0
  0
LINE
  8
JISSEN
 10
15571.076152
 20
9058.99676
 30
0.0
 11
15121.076152
 21
9058.99676
 31
0.0
  0
LINE
  8
JISSEN
 10
15737.076152
 20
8731.99676
 30
0.0
 11
15537.076152
 21
8731.99676
 31
0.0
  0
LINE
  8
JISSEN
 10
14437.076152
 20
8743.99676
 30
0.0
 11
14637.076152
 21
8743.99676
 31
0.0
  0
LINE
  8
JISSEN
 10
13537.076152
 20
8731.99676
 30
0.0
 11
13737.076152
 21
8731.99676
 31
0.0
  0
TEXT
  8
SUNPOU
 10
6508.857177
 20
8206.867593
 30
0.0
 40
119.97
  1
190
  7
K
 72
     1
 11
6688.812177
 21
8206.867593
 31
0.0
  0
INSERT
  8
SUNPOU
  2
ARROWANG
 10
6782.864915
 20
8159.336184
 30
0.0
 41
59.985
 42
59.985
 43
59.985
  0
INSERT
  8
SUNPOU
  2
ARROWANG
 10
6592.864915
 20
8159.336184
 30
0.0
 41
59.985
 42
59.985
 50
180.0
 43
59.985
  0
LINE
  8
SUNPOU
 10
6782.864915
 20
8189.336184
 30
0.0
 11
6782.864915
 21
8189.336184
 31
0.0
  0
LINE
  8
SUNPOU
 10
6592.864915
 20
8159.336184
 30
0.0
 11
6782.864915
 21
8159.336184
 31
0.0
  0
TEXT
  8
SUNPOU
 10
5262.423691
 20
8207.778196
 30
0.0
 40
119.97
  1
2200
  7
K
 72
     1
 11
5490.937977
 21
8207.778196
 31
0.0
  0
INSERT
  8
SUNPOU
  2
ARROWANG
 10
6592.864915
 20
8159.336184
 30
0.0
 41
59.985
 42
59.985
 43
59.985
  0
INSERT
  8
SUNPOU
  2
ARROWANG
 10
4392.864915
 20
8159.336184
 30
0.0
 41
59.985
 42
59.985
 50
180.0
 43
59.985
  0
LINE
  8
SUNPOU
 10
6592.864915
 20
8189.336184
 30
0.0
 11
6592.864915
 21
8189.336184
 31
0.0
  0
LINE
  8
SUNPOU
 10
4392.864915
 20
8159.336184
 30
0.0
 11
6592.864915
 21
8159.336184
 31
0.0
  0
TEXT
  8
SUNPOU
 10
4121.664728
 20
8202.769882
 30
0.0
 40
119.97
  1
190
  7
K
 72
     1
 11
4301.619728
 21
8202.769882
 31
0.0
  0
INSERT
  8
SUNPOU
  2
ARROWANG
 10
4392.864915
 20
8159.336184
 30
0.0
 41
59.985
 42
59.985
 43
59.985
  0
INSERT
  8
SUNPOU
  2
ARROWANG
 10
4202.864915
 20
8159.336184
 30
0.0
 41
59.985
 42
59.985
 50
180.0
 43
59.985
  0
LINE
  8
SUNPOU
 10
4202.864915
 20
8159.336184
 30
0.0
 11
4392.864915
 21
8159.336184
 31
0.0
  0
LINE
  8
SUNPOU
 10
4392.864915
 20
8129.336184
 30
0.0
 11
4392.864915
 21
8129.336184
 31
0.0
  0
LINE
  8
SUNPOU
 10
4202.864915
 20
8129.336184
 30
0.0
 11
4202.864915
 21
8129.336184
 31
0.0
  0
INSERT
  8
SUNPOU
  2
ARROWANG
 10
3769.160568
 20
10933.99676
 30
0.0
 41
45.0
 42
45.0
 50
90.0
 43
45.0
  0
INSERT
  8
SUNPOU
  2
ARROWANG
 10
3769.160568
 20
5513.99676
 30
0.0
 41
59.985
 42
59.985
 50
270.0
 43
59.985
  0
LINE
  8
SUNPOU
 10
3769.160568
 20
5513.99676
 30
0.0
 11
3769.160568
 21
10933.99676
 31
0.0
  0
LINE
  8
SUNPOU
 10
4340.511186
 20
10933.99676
 30
0.0
 11
3739.160568
 21
10933.99676
 31
0.0
  0
LINE
  8
SUNPOU
 10
5462.864915
 20
5513.99676
 30
0.0
 11
3739.160568
 21
5513.99676
 31
0.0
  0
INSERT
  8
SUNPOU
  2
ARROWANG
 10
6154.033
 20
6618.054331
 30
0.0
 41
59.985
 42
59.985
 50
28.169188
 43
59.985
  0
INSERT
  8
SUNPOU
  2
ARROWANG
 10
4831.69683
 20
5909.939189
 30
0.0
 41
59.985
 42
59.985
 50
208.169188
 43
59.985
  0
LINE
  8
SUNPOU
 10
4831.69683
 20
5909.939189
 30
0.0
 11
6154.033
 21
6618.054331
 31
0.0
  0
ARC
  8
JISSEN
 10
5492.864915
 20
6263.99676
 30
0.0
 40
862.496124
 50
1.943457
 51
178.056543
  0
LINE
  8
JISSEN
 10
6242.864915
 20
6263.99676
 30
0.0
 11
6592.864915
 21
6355.403096
 31
0.0
  0
CIRCLE
  8
JISSEN
 10
5492.864915
 20
6263.99676
 30
0.0
 40
750.0
  0
LINE
  8
JISSEN
 10
5892.864915
 20
5143.99676
 30
0.0
 11
5892.864915
 21
4943.99676
 31
0.0
  0
LINE
  8
JISSEN
 10
5092.864915
 20
5143.99676
 30
0.0
 11
5092.864915
 21
4943.99676
 31
0.0
  0
LINE
  8
JISSEN
 10
6592.864915
 20
7231.99676
 30
0.0
 11
6592.864915
 21
5143.99676
 31
0.0
  0
LINE
  8
JISSEN
 10
6592.864915
 20
8731.99676
 30
0.0
 11
6592.864915
 21
7243.99676
 31
0.0
  0
LINE
  8
JISSEN
 10
6782.864915
 20
8763.99676
 30
0.0
 11
6782.864915
 21
4743.99676
 31
0.0
  0
LINE
  8
JISSEN
 10
6645.864915
 20
5143.99676
 30
0.0
 11
6245.864915
 21
5143.99676
 31
0.0
  0
LINE
  8
JISSEN
 10
6592.864915
 20
8731.99676
 30
0.0
 11
6192.864915
 21
8731.99676
 31
0.0
  0
LINE
  8
JISSEN
 10
6782.864915
 20
9058.99676
 30
0.0
 11
6782.864915
 21
8763.99676
 31
0.0
  0
LINE
  8
JISSEN
 10
6245.864915
 20
7231.99676
 30
0.0
 11
6645.864915
 21
7231.99676
 31
0.0
  0
LINE
  8
JISSEN
 10
4202.864915
 20
9058.99676
 30
0.0
 11
4202.864915
 21
4743.99676
 31
0.0
  0
ARC
  8
JISSEN
 10
10045.18892
 20
8553.516079
 30
0.0
 40
25.0
 50
270.0
 51
0.0
  0
ARC
  8
JISSEN
 10
10045.18892
 20
8553.516079
 30
0.0
 40
5.0
 50
270.0
 51
0.0
  0
LINE
  8
JISSEN
 10
10045.18892
 20
8528.516079
 30
0.0
 11
9860.18892
 21
8528.516079
 31
0.0
  0
LINE
  8
JISSEN
 10
10070.18892
 20
8643.673207
 30
0.0
 11
10070.18892
 21
8553.516079
 31
0.0
  0
LINE
  8
JISSEN
 10
10050.18892
 20
8553.516079
 30
0.0
 11
10050.18892
 21
8648.231942
 31
0.0
  0
LINE
  8
JISSEN
 10
9860.18892
 20
8548.516079
 30
0.0
 11
10045.18892
 21
8548.516079
 31
0.0
  0
INSERT
  8
SUNPOU
  2
*X1
 10
3676.980046
 20
3185.730417
 30
0.0
  0
ARC
  8
JISSEN
 10
9860.18892
 20
8218.516079
 30
0.0
 40
525.0
 50
90.0
 51
270.0
  0
ARC
  8
JISSEN
 10
9860.18892
 20
8333.516079
 30
0.0
 40
410.0
 50
90.0
 51
270.0
  0
ARC
  8
JISSEN
 10
9860.18892
 20
8333.516079
 30
0.0
 40
300.0
 50
90.0
 51
270.0
  0
LINE
  8
ITTEN
 10
9400.18892
 20
8333.516079
 30
0.0
 11
10320.18892
 21
8333.516079
 31
0.0
  0
LINE
  8
ITTEN
 10
9285.18892
 20
8218.516079
 30
0.0
 11
10435.18892
 21
8218.516079
 31
0.0
  0
TEXT
  8
SUNPOU
 10
5386.309203
 20
6245.915893
 30
0.0
 40
179.955
  1
D
 50
33.989673
  7
K
 72
     1
 11
5464.465561
 21
6298.612528
 31
0.0
  0
LINE
  8
SUNPOU
 10
4392.864915
 20
8088.083467
 30
0.0
 11
4392.864915
 21
8088.083467
 31
0.0
  0
TEXT
  8
SUNPOU
 10
4552.884781
 20
10531.280896
 30
0.0
 40
119.97
  1
600
  7
K
 72
     1
 11
4727.126924
 21
10531.280896
 31
0.0
  0
INSERT
  8
SUNPOU
  2
ARROWANG
 10
5027.864915
 20
10485.785693
 30
0.0
 41
59.985
 42
59.985
 43
59.985
  0
INSERT
  8
SUNPOU
  2
ARROWANG
 10
4427.864915
 20
10485.785693
 30
0.0
 41
59.985
 42
59.985
 50
180.0
 43
59.985
  0
LINE
  8
SUNPOU
 10
4427.864915
 20
10485.785693
 30
0.0
 11
5027.864915
 21
10485.785693
 31
0.0
  0
LINE
  8
SUNPOU
 10
5027.864915
 20
10758.99676
 30
0.0
 11
5027.864915
 21
10455.785693
 31
0.0
  0
LINE
  8
SUNPOU
 10
4427.864915
 20
10758.99676
 30
0.0
 11
4427.864915
 21
10455.785693
 31
0.0
  0
TEXT
  8
SUNPOU
 10
4556.8572
 20
11066.524762
 30
0.0
 40
119.97
  1
820
  7
K
 72
     1
 11
4728.242915
 21
11066.524762
 31
0.0
  0
INSERT
  8
SUNPOU
  2
ARROWANG
 10
5137.864915
 20
11023.089597
 30
0.0
 41
59.985
 42
59.985
 43
59.985
  0
INSERT
  8
SUNPOU
  2
ARROWANG
 10
4317.864915
 20
11023.089597
 30
0.0
 41
59.985
 42
59.985
 50
180.0
 43
59.985
  0
LINE
  8
SUNPOU
 10
4317.864915
 20
11023.089597
 30
0.0
 11
5137.864915
 21
11023.089597
 31
0.0
  0
LINE
  8
SUNPOU
 10
5137.864915
 20
10863.99676
 30
0.0
 11
5137.864915
 21
11053.089597
 31
0.0
  0
LINE
  8
SUNPOU
 10
4317.864915
 20
10863.99676
 30
0.0
 11
4317.864915
 21
11053.089597
 31
0.0
  0
LINE
  8
SUNPOU
 10
5292.864915
 20
9657.166308
 30
0.0
 11
5202.864915
 21
9657.166308
 31
0.0
  0
TEXT
  8
SUNPOU
 10
5475.345049
 20
9705.830908
 30
0.0
 40
119.97
  1
75
  7
K
  0
LINE
  8
SUNPOU
 10
5367.864915
 20
9657.166308
 30
0.0
 11
5565.864915
 21
9657.166308
 31
0.0
  0
INSERT
  8
SUNPOU
  2
ARROWANG
 10
5292.864915
 20
9657.166308
 30
0.0
 41
45.0
 42
45.0
 43
45.0
  0
INSERT
  8
SUNPOU
  2
ARROWANG
 10
5367.864915
 20
9657.166308
 30
0.0
 41
59.985
 42
59.985
 50
180.0
 43
59.985
  0
LINE
  8
SUNPOU
 10
5367.864915
 20
9687.166308
 30
0.0
 11
5367.864915
 21
9687.166308
 31
0.0
  0
LINE
  8
SUNPOU
 10
5292.864915
 20
9657.166308
 30
0.0
 11
5367.864915
 21
9657.166308
 31
0.0
  0
TEXT
  8
SUNPOU
 10
4674.44047
 20
9702.188498
 30
0.0
 40
119.97
  1
900
  7
K
 72
     1
 11
4845.826184
 21
9702.188498
 31
0.0
  0
INSERT
  8
SUNPOU
  2
ARROWANG
 10
5292.864915
 20
9657.166308
 30
0.0
 41
59.985
 42
59.985
 43
59.985
  0
INSERT
  8
SUNPOU
  2
ARROWANG
 10
4392.864915
 20
9657.166308
 30
0.0
 41
45.0
 42
45.0
 50
180.0
 43
45.0
  0
LINE
  8
SUNPOU
 10
5292.864915
 20
9687.166308
 30
0.0
 11
5292.864915
 21
9687.166308
 31
0.0
  0
LINE
  8
SUNPOU
 10
4392.864915
 20
9657.166308
 30
0.0
 11
5292.864915
 21
9657.166308
 31
0.0
  0
TEXT
  8
SUNPOU
 10
4111.443327
 20
9703.554402
 30
0.0
 40
119.97
  1
75
  7
K
 72
     1
 11
4225.70047
 21
9703.554402
 31
0.0
  0
LINE
  8
SUNPOU
 10
4392.864915
 20
9657.166308
 30
0.0
 11
4482.864915
 21
9657.166308
 31
0.0
  0
LINE
  8
SUNPOU
 10
4317.864915
 20
9657.166308
 30
0.0
 11
4119.864915
 21
9657.166308
 31
0.0
  0
INSERT
  8
SUNPOU
  2
ARROWANG
 10
4317.864915
 20
9657.166308
 30
0.0
 41
59.985
 42
59.985
 43
59.985
  0
INSERT
  8
SUNPOU
  2
ARROWANG
 10
4392.864915
 20
9657.166308
 30
0.0
 41
59.985
 42
59.985
 50
180.0
 43
59.985
  0
LINE
  8
SUNPOU
 10
4317.864915
 20
9657.166308
 30
0.0
 11
4392.864915
 21
9657.166308
 31
0.0
  0
LINE
  8
SUNPOU
 10
4392.864915
 20
9687.166308
 30
0.0
 11
4392.864915
 21
9687.166308
 31
0.0
  0
LINE
  8
SUNPOU
 10
4317.864915
 20
9687.166308
 30
0.0
 11
4317.864915
 21
9687.166308
 31
0.0
  0
LINE
  8
SUNPOU
 10
16007.60598
 20
5213.841276
 30
0.0
 11
16558.951712
 21
5213.841276
 31
0.0
  0
LINE
  8
SUNPOU
 10
15880.692435
 20
5086.26343
 30
0.0
 11
16007.60598
 21
5213.841276
 31
0.0
  0
INSERT
  8
SUNPOU
  2
ARROWANG
 10
15880.692435
 20
5086.26343
 30
0.0
 41
59.985
 42
59.985
 50
225.149559
 43
59.985
  0
LINE
  8
SUNPOU
 10
15953.715063
 20
7408.966181
 30
0.0
 11
16480.510305
 21
7408.966181
 31
0.0
  0
LINE
  8
SUNPOU
 10
15826.385407
 20
7512.097973
 30
0.0
 11
15953.715063
 21
7408.966181
 31
0.0
  0
INSERT
  8
SUNPOU
  2
ARROWANG
 10
15826.385407
 20
7512.097973
 30
0.0
 41
59.985
 42
59.985
 50
140.993948
 43
59.985
  0
TEXT
  8
SUNPOU
 10
16128.481743
 20
7451.731565
 30
0.0
 40
133.3
  1
直壁
  7
K
  0
LINE
  8
SUNPOU
 10
15914.001331
 20
9090.41523
 30
0.0
 11
16422.903844
 21
9090.41523
 31
0.0
  0
LINE
  8
SUNPOU
 10
15659.342019
 20
8932.789108
 30
0.0
 11
15914.001331
 21
9090.41523
 31
0.0
  0
INSERT
  8
SUNPOU
  2
ARROWANG
 10
15659.342019
 20
8932.789108
 30
0.0
 41
59.985
 42
59.985
 50
211.756208
 43
59.985
  0
LINE
  8
SUNPOU
 10
15224.486987
 20
9738.39851
 30
0.0
 11
15787.899908
 21
9738.39851
 31
0.0
  0
LINE
  8
SUNPOU
 10
15133.77501
 20
9623.04369
 30
0.0
 11
15224.486987
 21
9738.39851
 31
0.0
  0
INSERT
  8
SUNPOU
  2
ARROWANG
 10
15133.77501
 20
9623.04369
 30
0.0
 41
59.985
 42
59.985
 50
231.819426
 43
59.985
  0
TEXT
  8
SUNPOU
 10
16074.238028
 20
9131.128017
 30
0.0
 40
133.3
  1
斜壁
  7
K
  0
LINE
  8
SUNPOU
 10
15224.486987
 20
10326.631693
 30
0.0
 11
15787.899908
 21
10326.631693
 31
0.0
  0
LINE
  8
SUNPOU
 10
15067.197412
 20
10423.651972
 30
0.0
 11
15224.486987
 21
10326.631693
 31
0.0
  0
INSERT
  8
SUNPOU
  2
ARROWANG
 10
15067.197412
 20
10423.651972
 30
0.0
 41
59.985
 42
59.985
 50
148.332641
 43
59.985
  0
LINE
  8
SUNPOU
 10
14994.53305
 20
10733.052154
 30
0.0
 11
15787.584004
 21
10733.052154
 31
0.0
  0
LINE
  8
SUNPOU
 10
14994.53305
 20
10733.052154
 30
0.0
 11
14994.53305
 21
10733.052154
 31
0.0
  0
INSERT
  8
SUNPOU
  2
ARROWANG
 10
14994.53305
 20
10733.052154
 30
0.0
 41
59.985
 42
59.985
 50
180.0
 43
59.985
  0
LINE
  8
SUNPOU
 10
14091.624265
 20
10648.221692
 30
0.0
 11
13261.79687
 21
10648.221692
 31
0.0
  0
LINE
  8
SUNPOU
 10
14255.23228
 20
10823.941935
 30
0.0
 11
14091.624265
 21
10648.221692
 31
0.0
  0
INSERT
  8
SUNPOU
  2
ARROWANG
 10
14255.23228
 20
10823.941935
 30
0.0
 41
59.985
 42
59.985
 50
47.044289
 43
59.985
  0
LINE
  8
SUNPOU
 10
14061.448723
 20
10999.950717
 30
0.0
 11
13365.053801
 21
10999.950717
 31
0.0
  0
LINE
  8
SUNPOU
 10
14279.749908
 20
10872.416485
 30
0.0
 11
14061.448723
 21
10999.950717
 31
0.0
  0
INSERT
  8
SUNPOU
  2
ARROWANG
 10
14279.749908
 20
10872.416485
 30
0.0
 41
59.985
 42
59.985
 50
329.706003
 43
59.985
  0
TEXT
  8
JISSEN
 10
17023.256877
 20
7533.45512
 30
0.0
 40
199.95
  1
マンホール深さ
 50
90.0
  7
K
  0
TEXT
  8
JISSEN
 10
3735.449811
 20
7243.993877
 30
0.0
 40
199.95
  1
マンホール深さ
 50
90.0
  7
K
  0
TEXT
  8
SUNPOU
 10
14173.17667
 20
4793.02441
 30
0.0
 40
100.0
  1
栗石又は砕石基礎
  7
K
  0
TEXT
  8
SUNPOU
 10
7713.885906
 20
7328.218118
 30
0.0
 40
133.3
  1
掘削幅
 50
90.0
  7
K
  0
TEXT
  8
SUNPOU
 10
5060.701012
 20
4776.981687
 30
0.0
 40
100.0
  1
栗石又は砕石基礎
  7
K
  0
TEXT
  8
SUNPOU
 10
16044.348996
 20
5062.242251
 30
0.0
 40
133.3
  1
Ｍ５Ｐ，Ｍ５ＰＦ
  7
K
  0
TEXT
  8
SUNPOU
 10
12608.151752
 20
7143.618249
 30
0.0
 40
133.3
  1
Ｍ５Ｂ
  7
K
  0
TEXT
  8
SUNPOU
 10
16049.306017
 20
7234.306719
 30
0.0
 40
133.3
  1
Ｍ５Ｓ
  7
K
  0
TEXT
  8
SUNPOU
 10
16026.678755
 20
8930.33591
 30
0.0
 40
133.3
  1
Ｍ５Ｔ
  7
K
  0
TEXT
  8
SUNPOU
 10
15230.793346
 20
9595.127671
 30
0.0
 40
133.3
  1
Ｍ１Ｓ
  7
K
  0
TEXT
  8
SUNPOU
 10
15264.080464
 20
10159.635588
 30
0.0
 40
133.3
  1
Ｍ１Ｔ
  7
K
  0
TEXT
  8
SUNPOU
 10
15227.007295
 20
10578.182236
 30
0.0
 40
133.3
  1
ＭＲ
  7
K
  0
TEXT
  8
SUNPOU
 10
16159.943409
 20
5261.779541
 30
0.0
 40
133.3
  1
底版
  7
K
  0
TEXT
  8
SUNPOU
 10
12538.484845
 20
7335.008891
 30
0.0
 40
133.3
  1
管取付け壁
  7
K
  0
TEXT
  8
SUNPOU
 10
15317.179841
 20
9767.242431
 30
0.0
 40
133.3
  1
直壁
  7
K
  0
TEXT
  8
SUNPOU
 10
15334.936071
 20
10363.997495
 30
0.0
 40
133.3
  1
斜壁
  7
K
  0
TEXT
  8
SUNPOU
 10
15138.388802
 20
10747.586008
 30
0.0
 40
133.3
  1
調整リング
  7
K
  0
TEXT
  8
SUNPOU
 10
13174.110557
 20
11025.233028
 30
0.0
 40
133.3
  1
ふた及び受わく
  7
K
  0
TEXT
  8
SUNPOU
 10
13093.976815
 20
10678.638734
 30
0.0
 40
133.3
  1
調整ワッシャー
  7
K
  0
TEXT
  8
SUNPOU
 10
9625.448893
 20
9670.052643
 30
0.0
 40
133.3
  1
掘削幅
  7
K
  0
TEXT
  8
TEXT
 10
4260.257703
 20
11222.407134
 30
0.0
 40
199.95
  1
横断面図
  7
K
  0
TEXT
  8
TEXT
 10
9525.699702
 20
11262.755885
 30
0.0
 40
199.95
  1
平面図
  7
K
  0
TEXT
  8
TEXT
 10
14069.907228
 20
11209.173696
 30
0.0
 40
199.95
  1
縦断面図
  7
K
  0
LINE
  8
ITTEN
 10
14387.076152
 20
8593.99676
 30
0.0
 11
14887.076152
 21
8593.99676
 31
0.0
  0
ARC
  8
JISSEN
 10
14447.076152
 20
8593.99676
 30
0.0
 40
10.0
 50
90.0
 51
270.0
  0
LINE
  8
JISSEN
 10
14637.076152
 20
8583.99676
 30
0.0
 11
14447.076152
 21
8583.99676
 31
0.0
  0
LINE
  8
JISSEN
 10
14637.076152
 20
8603.99676
 30
0.0
 11
14447.076152
 21
8603.99676
 31
0.0
  0
LINE
  8
JISSEN
 10
14637.076152
 20
8583.99676
 30
0.0
 11
14827.076152
 21
8583.99676
 31
0.0
  0
ARC
  8
JISSEN
 10
14827.076152
 20
8593.99676
 30
0.0
 40
10.0
 50
270.0
 51
90.0
  0
LINE
  8
JISSEN
 10
14637.076152
 20
8603.99676
 30
0.0
 11
14827.076152
 21
8603.99676
 31
0.0
  0
LINE
  8
NITEN
 10
12932.142382
 20
5470.99676
 30
0.0
 11
12932.142382
 21
7026.99676
 31
0.0
  0
LINE
  8
NITEN
 10
16342.009923
 20
5401.99676
 30
0.0
 11
16342.009923
 21
7125.99676
 31
0.0
  0
LINE
  8
JISSEN
 10
15737.076152
 20
5513.99676
 30
0.0
 11
16342.009923
 21
5513.99676
 31
0.0
  0
LINE
  8
JISSEN
 10
14637.076152
 20
6803.99676
 30
0.0
 11
14827.076152
 21
6803.99676
 31
0.0
  0
ARC
  8
JISSEN
 10
14827.076152
 20
6793.99676
 30
0.0
 40
10.0
 50
270.0
 51
90.0
  0
LINE
  8
JISSEN
 10
14637.076152
 20
6783.99676
 30
0.0
 11
14827.076152
 21
6783.99676
 31
0.0
  0
LINE
  8
JISSEN
 10
14637.076152
 20
6803.99676
 30
0.0
 11
14447.076152
 21
6803.99676
 31
0.0
  0
LINE
  8
JISSEN
 10
14637.076152
 20
6783.99676
 30
0.0
 11
14447.076152
 21
6783.99676
 31
0.0
  0
ARC
  8
JISSEN
 10
14447.076152
 20
6793.99676
 30
0.0
 40
10.0
 50
90.0
 51
270.0
  0
LINE
  8
ITTEN
 10
14387.076152
 20
6793.99676
 30
0.0
 11
14887.076152
 21
6793.99676
 31
0.0
  0
LINE
  8
JISSEN
 10
14637.076152
 20
7103.99676
 30
0.0
 11
14827.076152
 21
7103.99676
 31
0.0
  0
ARC
  8
JISSEN
 10
14827.076152
 20
7093.99676
 30
0.0
 40
10.0
 50
270.0
 51
90.0
  0
LINE
  8
JISSEN
 10
14637.076152
 20
7083.99676
 30
0.0
 11
14827.076152
 21
7083.99676
 31
0.0
  0
LINE
  8
JISSEN
 10
14637.076152
 20
7103.99676
 30
0.0
 11
14447.076152
 21
7103.99676
 31
0.0
  0
LINE
  8
JISSEN
 10
14637.076152
 20
7083.99676
 30
0.0
 11
14447.076152
 21
7083.99676
 31
0.0
  0
ARC
  8
JISSEN
 10
14447.076152
 20
7093.99676
 30
0.0
 40
10.0
 50
90.0
 51
270.0
  0
LINE
  8
ITTEN
 10
14387.076152
 20
7093.99676
 30
0.0
 11
14887.076152
 21
7093.99676
 31
0.0
  0
LINE
  8
JISSEN
 10
14637.076152
 20
7403.99676
 30
0.0
 11
14827.076152
 21
7403.99676
 31
0.0
  0
ARC
  8
JISSEN
 10
14827.076152
 20
7393.99676
 30
0.0
 40
10.0
 50
270.0
 51
90.0
  0
LINE
  8
JISSEN
 10
14637.076152
 20
7383.99676
 30
0.0
 11
14827.076152
 21
7383.99676
 31
0.0
  0
LINE
  8
JISSEN
 10
14637.076152
 20
7403.99676
 30
0.0
 11
14447.076152
 21
7403.99676
 31
0.0
  0
LINE
  8
JISSEN
 10
14637.076152
 20
7383.99676
 30
0.0
 11
14447.076152
 21
7383.99676
 31
0.0
  0
ARC
  8
JISSEN
 10
14447.076152
 20
7393.99676
 30
0.0
 40
10.0
 50
90.0
 51
270.0
  0
LINE
  8
ITTEN
 10
14387.076152
 20
7393.99676
 30
0.0
 11
14887.076152
 21
7393.99676
 31
0.0
  0
LINE
  8
JISSEN
 10
14637.076152
 20
7703.99676
 30
0.0
 11
14827.076152
 21
7703.99676
 31
0.0
  0
ARC
  8
JISSEN
 10
14827.076152
 20
7693.99676
 30
0.0
 40
10.0
 50
270.0
 51
90.0
  0
LINE
  8
JISSEN
 10
14637.076152
 20
7683.99676
 30
0.0
 11
14827.076152
 21
7683.99676
 31
0.0
  0
LINE
  8
JISSEN
 10
14637.076152
 20
7703.99676
 30
0.0
 11
14447.076152
 21
7703.99676
 31
0.0
  0
LINE
  8
JISSEN
 10
14637.076152
 20
7683.99676
 30
0.0
 11
14447.076152
 21
7683.99676
 31
0.0
  0
ARC
  8
JISSEN
 10
14447.076152
 20
7693.99676
 30
0.0
 40
10.0
 50
90.0
 51
270.0
  0
LINE
  8
ITTEN
 10
14387.076152
 20
7693.99676
 30
0.0
 11
14887.076152
 21
7693.99676
 31
0.0
  0
LINE
  8
JISSEN
 10
14637.076152
 20
8003.99676
 30
0.0
 11
14827.076152
 21
8003.99676
 31
0.0
  0
ARC
  8
JISSEN
 10
14827.076152
 20
7993.99676
 30
0.0
 40
10.0
 50
270.0
 51
90.0
  0
LINE
  8
JISSEN
 10
14637.076152
 20
7983.99676
 30
0.0
 11
14827.076152
 21
7983.99676
 31
0.0
  0
LINE
  8
JISSEN
 10
14637.076152
 20
8003.99676
 30
0.0
 11
14447.076152
 21
8003.99676
 31
0.0
  0
LINE
  8
JISSEN
 10
14637.076152
 20
7983.99676
 30
0.0
 11
14447.076152
 21
7983.99676
 31
0.0
  0
ARC
  8
JISSEN
 10
14447.076152
 20
7993.99676
 30
0.0
 40
10.0
 50
90.0
 51
270.0
  0
LINE
  8
ITTEN
 10
14387.076152
 20
7993.99676
 30
0.0
 11
14887.076152
 21
7993.99676
 31
0.0
  0
LINE
  8
JISSEN
 10
14637.076152
 20
8303.99676
 30
0.0
 11
14827.076152
 21
8303.99676
 31
0.0
  0
ARC
  8
JISSEN
 10
14827.076152
 20
8293.99676
 30
0.0
 40
10.0
 50
270.0
 51
90.0
  0
LINE
  8
JISSEN
 10
14637.076152
 20
8283.99676
 30
0.0
 11
14827.076152
 21
8283.99676
 31
0.0
  0
LINE
  8
JISSEN
 10
14637.076152
 20
8303.99676
 30
0.0
 11
14447.076152
 21
8303.99676
 31
0.0
  0
LINE
  8
JISSEN
 10
14637.076152
 20
8283.99676
 30
0.0
 11
14447.076152
 21
8283.99676
 31
0.0
  0
ARC
  8
JISSEN
 10
14447.076152
 20
8293.99676
 30
0.0
 40
10.0
 50
90.0
 51
270.0
  0
LINE
  8
ITTEN
 10
14387.076152
 20
8293.99676
 30
0.0
 11
14887.076152
 21
8293.99676
 31
0.0
  0
LINE
  8
ITTEN
 10
14427.076152
 20
10623.99676
 30
0.0
 11
14847.076152
 21
10623.99676
 31
0.0
  0
ARC
  8
JISSEN
 10
14487.076152
 20
10623.99676
 30
0.0
 40
10.0
 50
90.0
 51
270.0
  0
LINE
  8
JISSEN
 10
14637.076152
 20
10633.99676
 30
0.0
 11
14487.076152
 21
10633.99676
 31
0.0
  0
LINE
  8
JISSEN
 10
14637.076152
 20
10613.99676
 30
0.0
 11
14487.076152
 21
10613.99676
 31
0.0
  0
LINE
  8
JISSEN
 10
14637.076152
 20
10613.99676
 30
0.0
 11
14787.076152
 21
10613.99676
 31
0.0
  0
LINE
  8
JISSEN
 10
14637.076152
 20
10633.99676
 30
0.0
 11
14787.076152
 21
10633.99676
 31
0.0
  0
ARC
  8
JISSEN
 10
14787.076152
 20
10623.99676
 30
0.0
 40
10.0
 50
270.0
 51
90.0
  0
ARC
  8
JISSEN
 10
14787.076152
 20
10393.99676
 30
0.0
 40
10.0
 50
270.0
 51
90.0
  0
LINE
  8
JISSEN
 10
14637.076152
 20
10403.99676
 30
0.0
 11
14787.076152
 21
10403.99676
 31
0.0
  0
LINE
  8
JISSEN
 10
14637.076152
 20
10383.99676
 30
0.0
 11
14787.076152
 21
10383.99676
 31
0.0
  0
LINE
  8
JISSEN
 10
14637.076152
 20
10383.99676
 30
0.0
 11
14487.076152
 21
10383.99676
 31
0.0
  0
LINE
  8
JISSEN
 10
14637.076152
 20
10403.99676
 30
0.0
 11
14487.076152
 21
10403.99676
 31
0.0
  0
ARC
  8
JISSEN
 10
14487.076152
 20
10393.99676
 30
0.0
 40
10.0
 50
90.0
 51
270.0
  0
LINE
  8
ITTEN
 10
14427.076152
 20
10393.99676
 30
0.0
 11
14847.076152
 21
10393.99676
 31
0.0
  0
ARC
  8
JISSEN
 10
14790.910757
 20
10096.950547
 30
0.0
 40
10.0
 50
270.0
 51
90.0
  0
LINE
  8
JISSEN
 10
14640.910757
 20
10106.950547
 30
0.0
 11
14790.910757
 21
10106.950547
 31
0.0
  0
LINE
  8
JISSEN
 10
14640.910757
 20
10086.950547
 30
0.0
 11
14790.910757
 21
10086.950547
 31
0.0
  0
LINE
  8
JISSEN
 10
14640.910757
 20
10086.950547
 30
0.0
 11
14490.910757
 21
10086.950547
 31
0.0
  0
LINE
  8
JISSEN
 10
14640.910757
 20
10106.950547
 30
0.0
 11
14490.910757
 21
10106.950547
 31
0.0
  0
ARC
  8
JISSEN
 10
14490.910757
 20
10096.950547
 30
0.0
 40
10.0
 50
90.0
 51
270.0
  0
LINE
  8
ITTEN
 10
14430.910757
 20
10096.950547
 30
0.0
 11
14850.910757
 21
10096.950547
 31
0.0
  0
ARC
  8
JISSEN
 10
14787.076152
 20
9793.99676
 30
0.0
 40
10.0
 50
270.0
 51
90.0
  0
LINE
  8
JISSEN
 10
14637.076152
 20
9803.99676
 30
0.0
 11
14787.076152
 21
9803.99676
 31
0.0
  0
LINE
  8
JISSEN
 10
14637.076152
 20
9783.99676
 30
0.0
 11
14787.076152
 21
9783.99676
 31
0.0
  0
LINE
  8
JISSEN
 10
14637.076152
 20
9783.99676
 30
0.0
 11
14487.076152
 21
9783.99676
 31
0.0
  0
LINE
  8
JISSEN
 10
14637.076152
 20
9803.99676
 30
0.0
 11
14487.076152
 21
9803.99676
 31
0.0
  0
ARC
  8
JISSEN
 10
14487.076152
 20
9793.99676
 30
0.0
 40
10.0
 50
90.0
 51
270.0
  0
LINE
  8
ITTEN
 10
14427.076152
 20
9793.99676
 30
0.0
 11
14847.076152
 21
9793.99676
 31
0.0
  0
ARC
  8
JISSEN
 10
14787.076152
 20
9493.99676
 30
0.0
 40
10.0
 50
270.0
 51
90.0
  0
LINE
  8
JISSEN
 10
14637.076152
 20
9503.99676
 30
0.0
 11
14787.076152
 21
9503.99676
 31
0.0
  0
LINE
  8
JISSEN
 10
14637.076152
 20
9483.99676
 30
0.0
 11
14787.076152
 21
9483.99676
 31
0.0
  0
LINE
  8
JISSEN
 10
14637.076152
 20
9483.99676
 30
0.0
 11
14487.076152
 21
9483.99676
 31
0.0
  0
LINE
  8
JISSEN
 10
14637.076152
 20
9503.99676
 30
0.0
 11
14487.076152
 21
9503.99676
 31
0.0
  0
ARC
  8
JISSEN
 10
14487.076152
 20
9493.99676
 30
0.0
 40
10.0
 50
90.0
 51
270.0
  0
LINE
  8
ITTEN
 10
14427.076152
 20
9493.99676
 30
0.0
 11
14847.076152
 21
9493.99676
 31
0.0
  0
LINE
  8
ITTEN
 10
14427.076152
 20
9193.99676
 30
0.0
 11
14847.076152
 21
9193.99676
 31
0.0
  0
ARC
  8
JISSEN
 10
14487.076152
 20
9193.99676
 30
0.0
 40
10.0
 50
90.0
 51
270.0
  0
LINE
  8
JISSEN
 10
14637.076152
 20
9203.99676
 30
0.0
 11
14487.076152
 21
9203.99676
 31
0.0
  0
LINE
  8
JISSEN
 10
14637.076152
 20
9183.99676
 30
0.0
 11
14487.076152
 21
9183.99676
 31
0.0
  0
LINE
  8
JISSEN
 10
14637.076152
 20
9183.99676
 30
0.0
 11
14787.076152
 21
9183.99676
 31
0.0
  0
LINE
  8
JISSEN
 10
14637.076152
 20
9203.99676
 30
0.0
 11
14787.076152
 21
9203.99676
 31
0.0
  0
ARC
  8
JISSEN
 10
14787.076152
 20
9193.99676
 30
0.0
 40
10.0
 50
270.0
 51
90.0
  0
LINE
  8
JISSEN
 10
15087.076152
 20
10243.99676
 30
0.0
 11
14937.076152
 21
10668.99676
 31
0.0
  0
LINE
  8
JISSEN
 10
14187.076152
 20
10243.99676
 30
0.0
 11
14337.076152
 21
10668.99676
 31
0.0
  0
LINE
  8
JISSEN
 10
15162.076152
 20
10318.99676
 30
0.0
 11
15047.076152
 21
10703.99676
 31
0.0
  0
LINE
  8
JISSEN
 10
15162.076152
 20
10258.99676
 30
0.0
 11
15162.076152
 21
10318.99676
 31
0.0
  0
LINE
  8
JISSEN
 10
14112.076152
 20
10318.99676
 30
0.0
 11
14227.076152
 21
10703.99676
 31
0.0
  0
LINE
  8
JISSEN
 10
14112.076152
 20
10258.99676
 30
0.0
 11
14112.076152
 21
10318.99676
 31
0.0
  0
LINE
  8
JISSEN
 10
15087.076152
 20
9035.99676
 30
0.0
 11
15087.076152
 21
8743.99676
 31
0.0
  0
LINE
  8
JISSEN
 10
14187.076152
 20
9035.99676
 30
0.0
 11
14187.076152
 21
8743.99676
 31
0.0
  0
LINE
  8
JISSEN
 10
13703.076152
 20
9058.99676
 30
0.0
 11
14153.076152
 21
9058.99676
 31
0.0
  0
LINE
  8
JISSEN
 10
4742.864915
 20
6263.99676
 30
0.0
 11
4392.864915
 21
6355.403096
 31
0.0
  0
LINE
  8
ITTEN
 10
14637.076152
 20
10933.99676
 30
0.0
 11
14637.076152
 21
4743.99676
 31
0.0
  0
LINE
  8
JISSEN
 10
13347.076152
 20
4943.99676
 30
0.0
 11
15927.076152
 21
4943.99676
 31
0.0
  0
LINE
  8
JISSEN
 10
14237.076152
 20
5143.99676
 30
0.0
 11
14237.076152
 21
4943.99676
 31
0.0
  0
LINE
  8
JISSEN
 10
13347.076152
 20
7263.99676
 30
0.0
 11
13477.076152
 21
7263.99676
 31
0.0
  0
LINE
  8
JISSEN
 10
13477.076152
 20
7263.99676
 30
0.0
 11
13489.076152
 21
7243.99676
 31
0.0
  0
LINE
  8
JISSEN
 10
13489.076152
 20
7243.99676
 30
0.0
 11
14637.076152
 21
7243.99676
 31
0.0
  0
LINE
  8
JISSEN
 10
13475.076152
 20
7263.99676
 30
0.0
 11
13484.076152
 21
7231.99676
 31
0.0
  0
LINE
  8
JISSEN
 10
13484.076152
 20
7231.99676
 30
0.0
 11
13537.076152
 21
7231.99676
 31
0.0
  0
LINE
  8
JISSEN
 10
13537.076152
 20
5143.99676
 30
0.0
 11
13537.076152
 21
7231.99676
 31
0.0
  0
LINE
  8
JISSEN
 10
13537.076152
 20
7231.99676
 30
0.0
 11
14637.076152
 21
7231.99676
 31
0.0
  0
LINE
  8
JISSEN
 10
15790.076152
 20
5143.99676
 30
0.0
 11
15237.076152
 21
5143.99676
 31
0.0
  0
LINE
  8
JISSEN
 10
15037.076152
 20
5143.99676
 30
0.0
 11
15037.076152
 21
4943.99676
 31
0.0
  0
LINE
  8
JISSEN
 10
15927.076152
 20
5163.99676
 30
0.0
 11
15799.076152
 21
5163.99676
 31
0.0
  0
LINE
  8
JISSEN
 10
15799.076152
 20
5163.99676
 30
0.0
 11
15790.076152
 21
5143.99676
 31
0.0
  0
LINE
  8
JISSEN
 10
13737.076152
 20
8731.99676
 30
0.0
 11
14637.076152
 21
8731.99676
 31
0.0
  0
LINE
  8
JISSEN
 10
13484.076152
 20
8731.99676
 30
0.0
 11
13537.076152
 21
8731.99676
 31
0.0
  0
LINE
  8
JISSEN
 10
13475.076152
 20
8763.99676
 30
0.0
 11
13484.076152
 21
8731.99676
 31
0.0
  0
LINE
  8
JISSEN
 10
13489.076152
 20
8743.99676
 30
0.0
 11
14437.076152
 21
8743.99676
 31
0.0
  0
LINE
  8
JISSEN
 10
13477.076152
 20
8763.99676
 30
0.0
 11
13489.076152
 21
8743.99676
 31
0.0
  0
LINE
  8
JISSEN
 10
13347.076152
 20
8763.99676
 30
0.0
 11
13477.076152
 21
8763.99676
 31
0.0
  0
LINE
  8
JISSEN
 10
13537.076152
 20
7243.99676
 30
0.0
 11
13537.076152
 21
8731.99676
 31
0.0
  0
LINE
  8
JISSEN
 10
13347.076152
 20
9058.99676
 30
0.0
 11
13703.076152
 21
9058.99676
 31
0.0
  0
LINE
  8
JISSEN
 10
14153.076152
 20
9058.99676
 30
0.0
 11
14162.076152
 21
9043.99676
 31
0.0
  0
LINE
  8
JISSEN
 10
14162.076152
 20
9043.99676
 30
0.0
 11
14187.076152
 21
9043.99676
 31
0.0
  0
LINE
  8
JISSEN
 10
14152.076152
 20
9058.99676
 30
0.0
 11
14159.076152
 21
9035.99676
 31
0.0
  0
LINE
  8
JISSEN
 10
14159.076152
 20
9035.99676
 30
0.0
 11
14187.076152
 21
9035.99676
 31
0.0
  0
LINE
  8
JISSEN
 10
14187.076152
 20
9035.99676
 30
0.0
 11
14637.076152
 21
9035.99676
 31
0.0
  0
LINE
  8
JISSEN
 10
14187.076152
 20
9043.99676
 30
0.0
 11
14637.076152
 21
9043.99676
 31
0.0
  0
LINE
  8
JISSEN
 10
15122.076152
 20
9058.99676
 30
0.0
 11
15115.076152
 21
9035.99676
 31
0.0
  0
LINE
  8
JISSEN
 10
15121.076152
 20
9058.99676
 30
0.0
 11
15112.076152
 21
9043.99676
 31
0.0
  0
LINE
  8
JISSEN
 10
15112.076152
 20
9043.99676
 30
0.0
 11
15087.076152
 21
9043.99676
 31
0.0
  0
LINE
  8
JISSEN
 10
15115.076152
 20
9035.99676
 30
0.0
 11
15087.076152
 21
9035.99676
 31
0.0
  0
LINE
  8
JISSEN
 10
15087.076152
 20
9043.99676
 30
0.0
 11
14637.076152
 21
9043.99676
 31
0.0
  0
LINE
  8
JISSEN
 10
15087.076152
 20
9035.99676
 30
0.0
 11
14637.076152
 21
9035.99676
 31
0.0
  0
LINE
  8
JISSEN
 10
14159.076152
 20
10235.99676
 30
0.0
 11
14637.076152
 21
10235.99676
 31
0.0
  0
LINE
  8
JISSEN
 10
14152.076152
 20
10258.99676
 30
0.0
 11
14159.076152
 21
10235.99676
 31
0.0
  0
LINE
  8
JISSEN
 10
14162.076152
 20
10243.99676
 30
0.0
 11
14637.076152
 21
10243.99676
 31
0.0
  0
LINE
  8
JISSEN
 10
14153.076152
 20
10258.99676
 30
0.0
 11
14162.076152
 21
10243.99676
 31
0.0
  0
LINE
  8
JISSEN
 10
14112.076152
 20
10258.99676
 30
0.0
 11
14153.076152
 21
10258.99676
 31
0.0
  0
LINE
  8
JISSEN
 10
14112.076152
 20
10258.99676
 30
0.0
 11
14112.076152
 21
9058.99676
 31
0.0
  0
LINE
  8
JISSEN
 10
14187.076152
 20
10235.99676
 30
0.0
 11
14187.076152
 21
9043.99676
 31
0.0
  0
LINE
  8
JISSEN
 10
15162.076152
 20
10258.99676
 30
0.0
 11
15162.076152
 21
9058.99676
 31
0.0
  0
LINE
  8
JISSEN
 10
15087.076152
 20
10235.99676
 30
0.0
 11
15087.076152
 21
9043.99676
 31
0.0
  0
LINE
  8
JISSEN
 10
15162.076152
 20
10258.99676
 30
0.0
 11
15121.076152
 21
10258.99676
 31
0.0
  0
LINE
  8
JISSEN
 10
15121.076152
 20
10258.99676
 30
0.0
 11
15112.076152
 21
10243.99676
 31
0.0
  0
LINE
  8
JISSEN
 10
15112.076152
 20
10243.99676
 30
0.0
 11
14637.076152
 21
10243.99676
 31
0.0
  0
LINE
  8
JISSEN
 10
15122.076152
 20
10258.99676
 30
0.0
 11
15115.076152
 21
10235.99676
 31
0.0
  0
LINE
  8
JISSEN
 10
15115.076152
 20
10235.99676
 30
0.0
 11
14637.076152
 21
10235.99676
 31
0.0
  0
LINE
  8
JISSEN
 10
14227.076152
 20
10703.99676
 30
0.0
 11
14308.076152
 21
10703.99676
 31
0.0
  0
LINE
  8
JISSEN
 10
14308.076152
 20
10703.99676
 30
0.0
 11
14312.076152
 21
10693.99676
 31
0.0
  0
LINE
  8
JISSEN
 10
14312.076152
 20
10693.99676
 30
0.0
 11
14337.076152
 21
10693.99676
 31
0.0
  0
LINE
  8
JISSEN
 10
14305.076152
 20
10703.99676
 30
0.0
 11
14311.076152
 21
10688.99676
 31
0.0
  0
LINE
  8
JISSEN
 10
14311.076152
 20
10688.99676
 30
0.0
 11
14337.076152
 21
10688.99676
 31
0.0
  0
LINE
  8
JISSEN
 10
14337.076152
 20
10688.99676
 30
0.0
 11
14337.076152
 21
10668.99676
 31
0.0
  0
LINE
  8
JISSEN
 10
14337.076152
 20
10688.99676
 30
0.0
 11
14637.076152
 21
10688.99676
 31
0.0
  0
LINE
  8
JISSEN
 10
14337.076152
 20
10693.99676
 30
0.0
 11
14637.076152
 21
10693.99676
 31
0.0
  0
LINE
  8
JISSEN
 10
14937.076152
 20
10693.99676
 30
0.0
 11
14637.076152
 21
10693.99676
 31
0.0
  0
LINE
  8
JISSEN
 10
14937.076152
 20
10688.99676
 30
0.0
 11
14637.076152
 21
10688.99676
 31
0.0
  0
LINE
  8
JISSEN
 10
14937.076152
 20
10688.99676
 30
0.0
 11
14937.076152
 21
10668.99676
 31
0.0
  0
LINE
  8
JISSEN
 10
14963.076152
 20
10688.99676
 30
0.0
 11
14937.076152
 21
10688.99676
 31
0.0
  0
LINE
  8
JISSEN
 10
14969.076152
 20
10703.99676
 30
0.0
 11
14963.076152
 21
10688.99676
 31
0.0
  0
LINE
  8
JISSEN
 10
14962.076152
 20
10693.99676
 30
0.0
 11
14937.076152
 21
10693.99676
 31
0.0
  0
LINE
  8
JISSEN
 10
14966.076152
 20
10703.99676
 30
0.0
 11
14962.076152
 21
10693.99676
 31
0.0
  0
LINE
  8
JISSEN
 10
15047.076152
 20
10703.99676
 30
0.0
 11
14966.076152
 21
10703.99676
 31
0.0
  0
LINE
  8
JISSEN
 10
15047.076152
 20
10803.99676
 30
0.0
 11
14969.076152
 21
10803.99676
 31
0.0
  0
LINE
  8
JISSEN
 10
14969.076152
 20
10803.99676
 30
0.0
 11
14963.076152
 21
10788.99676
 31
0.0
  0
LINE
  8
JISSEN
 10
14963.076152
 20
10788.99676
 30
0.0
 11
14937.076152
 21
10788.99676
 31
0.0
  0
LINE
  8
JISSEN
 10
14937.076152
 20
10788.99676
 30
0.0
 11
14637.076152
 21
10788.99676
 31
0.0
  0
LINE
  8
JISSEN
 10
14337.076152
 20
10788.99676
 30
0.0
 11
14637.076152
 21
10788.99676
 31
0.0
  0
LINE
  8
JISSEN
 10
14311.076152
 20
10788.99676
 30
0.0
 11
14337.076152
 21
10788.99676
 31
0.0
  0
LINE
  8
JISSEN
 10
14305.076152
 20
10803.99676
 30
0.0
 11
14311.076152
 21
10788.99676
 31
0.0
  0
LINE
  8
JISSEN
 10
14227.076152
 20
10803.99676
 30
0.0
 11
14305.076152
 21
10803.99676
 31
0.0
  0
LINE
  8
JISSEN
 10
14227.076152
 20
10803.99676
 30
0.0
 11
14227.076152
 21
10703.99676
 31
0.0
  0
LINE
  8
JISSEN
 10
14337.076152
 20
10788.99676
 30
0.0
 11
14337.076152
 21
10693.99676
 31
0.0
  0
LINE
  8
JISSEN
 10
15047.076152
 20
10703.99676
 30
0.0
 11
15047.076152
 21
10803.99676
 31
0.0
  0
LINE
  8
JISSEN
 10
14937.076152
 20
10788.99676
 30
0.0
 11
14937.076152
 21
10693.99676
 31
0.0
  0
LINE
  8
JISSEN
 10
14227.076152
 20
10823.99676
 30
0.0
 11
14337.076152
 21
10823.99676
 31
0.0
  0
LINE
  8
JISSEN
 10
14337.076152
 20
10823.99676
 30
0.0
 11
14337.076152
 21
10888.756427
 31
0.0
  0
LINE
  8
JISSEN
 10
14337.076152
 20
10888.756427
 30
0.0
 11
14302.076152
 21
10888.756427
 31
0.0
  0
LINE
  8
JISSEN
 10
14279.722423
 20
10933.99676
 30
0.0
 11
14302.076152
 21
10888.756427
 31
0.0
  0
LINE
  8
JISSEN
 10
14227.076152
 20
10833.99676
 30
0.0
 11
14327.076152
 21
10833.99676
 31
0.0
  0
LINE
  8
JISSEN
 10
14327.076152
 20
10833.99676
 30
0.0
 11
14327.076152
 21
10878.756427
 31
0.0
  0
LINE
  8
JISSEN
 10
14327.076152
 20
10878.756427
 30
0.0
 11
14295.863132
 21
10878.756427
 31
0.0
  0
LINE
  8
JISSEN
 10
14268.568297
 20
10933.99676
 30
0.0
 11
14295.863132
 21
10878.756427
 31
0.0
  0
LINE
  8
JISSEN
 10
14227.076152
 20
10833.99676
 30
0.0
 11
14227.076152
 21
10803.99676
 31
0.0
  0
LINE
  8
JISSEN
 10
14302.076152
 20
10823.99676
 30
0.0
 11
14302.076152
 21
10803.99676
 31
0.0
  0
LINE
  8
JISSEN
 10
14337.076152
 20
10823.99676
 30
0.0
 11
14337.076152
 21
10788.99676
 31
0.0
  0
LINE
  8
JISSEN
 10
14268.568297
 20
10933.99676
 30
0.0
 11
14279.722423
 21
10933.99676
 31
0.0
  0
LINE
  8
JISSEN
 10
14268.568297
 20
10933.99676
 30
0.0
 11
14227.076152
 21
10833.99676
 31
0.0
  0
LINE
  8
JISSEN
 10
14279.722423
 20
10933.99676
 30
0.0
 11
14637.076152
 21
10933.99676
 31
0.0
  0
LINE
  8
JISSEN
 10
14337.076152
 20
10888.756427
 30
0.0
 11
14637.076152
 21
10888.756427
 31
0.0
  0
LINE
  8
JISSEN
 10
14937.076152
 20
10888.756427
 30
0.0
 11
14637.076152
 21
10888.756427
 31
0.0
  0
LINE
  8
JISSEN
 10
14994.429881
 20
10933.99676
 30
0.0
 11
14637.076152
 21
10933.99676
 31
0.0
  0
LINE
  8
JISSEN
 10
15005.584007
 20
10933.99676
 30
0.0
 11
15047.076152
 21
10833.99676
 31
0.0
  0
LINE
  8
JISSEN
 10
15005.584007
 20
10933.99676
 30
0.0
 11
14994.429881
 21
10933.99676
 31
0.0
  0
LINE
  8
JISSEN
 10
14972.076152
 20
10823.99676
 30
0.0
 11
14972.076152
 21
10803.99676
 31
0.0
  0
LINE
  8
JISSEN
 10
15047.076152
 20
10833.99676
 30
0.0
 11
15047.076152
 21
10803.99676
 31
0.0
  0
LINE
  8
JISSEN
 10
15005.584007
 20
10933.99676
 30
0.0
 11
14978.289172
 21
10878.756427
 31
0.0
  0
LINE
  8
JISSEN
 10
14947.076152
 20
10878.756427
 30
0.0
 11
14978.289172
 21
10878.756427
 31
0.0
  0
LINE
  8
JISSEN
 10
14947.076152
 20
10833.99676
 30
0.0
 11
14947.076152
 21
10878.756427
 31
0.0
  0
LINE
  8
JISSEN
 10
15047.076152
 20
10833.99676
 30
0.0
 11
14947.076152
 21
10833.99676
 31
0.0
  0
LINE
  8
JISSEN
 10
14994.429881
 20
10933.99676
 30
0.0
 11
14972.076152
 21
10888.756427
 31
0.0
  0
LINE
  8
JISSEN
 10
14937.076152
 20
10888.756427
 30
0.0
 11
14972.076152
 21
10888.756427
 31
0.0
  0
LINE
  8
JISSEN
 10
14937.076152
 20
10823.99676
 30
0.0
 11
14937.076152
 21
10888.756427
 31
0.0
  0
LINE
  8
JISSEN
 10
15047.076152
 20
10823.99676
 30
0.0
 11
14937.076152
 21
10823.99676
 31
0.0
  0
LINE
  8
JISSEN
 10
14937.076152
 20
10823.99676
 30
0.0
 11
14937.076152
 21
10788.99676
 31
0.0
  0
LINE
  8
JISSEN
 10
13347.076152
 20
4743.99676
 30
0.0
 11
15927.076152
 21
4743.99676
 31
0.0
  0
LINE
  8
JISSEN
 10
4202.864915
 20
4743.99676
 30
0.0
 11
6782.864915
 21
4743.99676
 31
0.0
  0
LINE
  8
ITTEN
 10
4370.615128
 20
6793.657994
 30
0.0
 11
4570.615128
 21
6793.657994
 31
0.0
  0
LINE
  8
JISSEN
 10
4390.615128
 20
6783.657994
 30
0.0
 11
4510.615128
 21
6783.657994
 31
0.0
  0
LINE
  8
JISSEN
 10
4390.615128
 20
6803.657994
 30
0.0
 11
4510.615128
 21
6803.657994
 31
0.0
  0
ARC
  8
JISSEN
 10
4510.615128
 20
6793.657994
 30
0.0
 40
10.0
 50
270.0
 51
90.0
  0
LINE
  8
ITTEN
 10
4372.864915
 20
7093.99676
 30
0.0
 11
4572.864915
 21
7093.99676
 31
0.0
  0
LINE
  8
JISSEN
 10
4392.864915
 20
7083.99676
 30
0.0
 11
4512.864915
 21
7083.99676
 31
0.0
  0
LINE
  8
JISSEN
 10
4392.864915
 20
7103.99676
 30
0.0
 11
4512.864915
 21
7103.99676
 31
0.0
  0
ARC
  8
JISSEN
 10
4512.864915
 20
7093.99676
 30
0.0
 40
10.0
 50
270.0
 51
90.0
  0
LINE
  8
ITTEN
 10
4372.864915
 20
7393.99676
 30
0.0
 11
4572.864915
 21
7393.99676
 31
0.0
  0
LINE
  8
JISSEN
 10
4392.864915
 20
7383.99676
 30
0.0
 11
4512.864915
 21
7383.99676
 31
0.0
  0
LINE
  8
JISSEN
 10
4392.864915
 20
7403.99676
 30
0.0
 11
4512.864915
 21
7403.99676
 31
0.0
  0
ARC
  8
JISSEN
 10
4512.864915
 20
7393.99676
 30
0.0
 40
10.0
 50
270.0
 51
90.0
  0
LINE
  8
ITTEN
 10
4372.864915
 20
7693.99676
 30
0.0
 11
4572.864915
 21
7693.99676
 31
0.0
  0
LINE
  8
JISSEN
 10
4392.864915
 20
7683.99676
 30
0.0
 11
4512.864915
 21
7683.99676
 31
0.0
  0
LINE
  8
JISSEN
 10
4392.864915
 20
7703.99676
 30
0.0
 11
4512.864915
 21
7703.99676
 31
0.0
  0
ARC
  8
JISSEN
 10
4512.864915
 20
7693.99676
 30
0.0
 40
10.0
 50
270.0
 51
90.0
  0
LINE
  8
ITTEN
 10
4372.864915
 20
7993.99676
 30
0.0
 11
4572.864915
 21
7993.99676
 31
0.0
  0
LINE
  8
JISSEN
 10
4392.864915
 20
7983.99676
 30
0.0
 11
4512.864915
 21
7983.99676
 31
0.0
  0
LINE
  8
JISSEN
 10
4392.864915
 20
8003.99676
 30
0.0
 11
4512.864915
 21
8003.99676
 31
0.0
  0
ARC
  8
JISSEN
 10
4512.864915
 20
7993.99676
 30
0.0
 40
10.0
 50
270.0
 51
90.0
  0
LINE
  8
ITTEN
 10
4373.474226
 20
8295.882861
 30
0.0
 11
4573.474226
 21
8295.882861
 31
0.0
  0
LINE
  8
JISSEN
 10
4393.474226
 20
8285.882861
 30
0.0
 11
4513.474226
 21
8285.882861
 31
0.0
  0
LINE
  8
JISSEN
 10
4393.474226
 20
8305.882861
 30
0.0
 11
4513.474226
 21
8305.882861
 31
0.0
  0
ARC
  8
JISSEN
 10
4513.474226
 20
8295.882861
 30
0.0
 40
10.0
 50
270.0
 51
90.0
  0
LINE
  8
ITTEN
 10
4372.864915
 20
8593.99676
 30
0.0
 11
4572.864915
 21
8593.99676
 31
0.0
  0
LINE
  8
JISSEN
 10
4392.864915
 20
8583.99676
 30
0.0
 11
4512.864915
 21
8583.99676
 31
0.0
  0
LINE
  8
JISSEN
 10
4392.864915
 20
8603.99676
 30
0.0
 11
4512.864915
 21
8603.99676
 31
0.0
  0
ARC
  8
JISSEN
 10
4512.864915
 20
8593.99676
 30
0.0
 40
10.0
 50
270.0
 51
90.0
  0
ARC
  8
JISSEN
 10
4512.864915
 20
8893.99676
 30
0.0
 40
10.0
 50
270.0
 51
90.0
  0
LINE
  8
JISSEN
 10
4392.864915
 20
8903.99676
 30
0.0
 11
4512.864915
 21
8903.99676
 31
0.0
  0
LINE
  8
JISSEN
 10
4392.864915
 20
8883.99676
 30
0.0
 11
4512.864915
 21
8883.99676
 31
0.0
  0
LINE
  8
ITTEN
 10
4372.864915
 20
8893.99676
 30
0.0
 11
4572.864915
 21
8893.99676
 31
0.0
  0
ARC
  8
JISSEN
 10
4514.159032
 20
10623.99676
 30
0.0
 40
10.0
 50
270.0
 51
90.0
  0
LINE
  8
JISSEN
 10
4424.159032
 20
10633.99676
 30
0.0
 11
4514.159032
 21
10633.99676
 31
0.0
  0
LINE
  8
JISSEN
 10
4424.159032
 20
10613.99676
 30
0.0
 11
4514.159032
 21
10613.99676
 31
0.0
  0
LINE
  8
ITTEN
 10
4374.159032
 20
10623.99676
 30
0.0
 11
4574.159032
 21
10623.99676
 31
0.0
  0
ARC
  8
JISSEN
 10
4495.217856
 20
10393.99676
 30
0.0
 40
10.0
 50
270.0
 51
90.0
  0
LINE
  8
JISSEN
 10
4405.217856
 20
10403.99676
 30
0.0
 11
4495.217856
 21
10403.99676
 31
0.0
  0
LINE
  8
JISSEN
 10
4405.217856
 20
10383.99676
 30
0.0
 11
4495.217856
 21
10383.99676
 31
0.0
  0
LINE
  8
ITTEN
 10
4355.217856
 20
10393.99676
 30
0.0
 11
4555.217856
 21
10393.99676
 31
0.0
  0
ARC
  8
JISSEN
 10
4489.600866
 20
10090.804121
 30
0.0
 40
10.0
 50
270.0
 51
90.0
  0
LINE
  8
JISSEN
 10
4399.600866
 20
10100.804121
 30
0.0
 11
4489.600866
 21
10100.804121
 31
0.0
  0
LINE
  8
JISSEN
 10
4399.600866
 20
10080.804121
 30
0.0
 11
4489.600866
 21
10080.804121
 31
0.0
  0
LINE
  8
ITTEN
 10
4349.600866
 20
10090.804121
 30
0.0
 11
4549.600866
 21
10090.804121
 31
0.0
  0
ARC
  8
JISSEN
 10
4482.864915
 20
9793.99676
 30
0.0
 40
10.0
 50
270.0
 51
90.0
  0
LINE
  8
JISSEN
 10
4392.864915
 20
9803.99676
 30
0.0
 11
4482.864915
 21
9803.99676
 31
0.0
  0
LINE
  8
JISSEN
 10
4392.864915
 20
9783.99676
 30
0.0
 11
4482.864915
 21
9783.99676
 31
0.0
  0
LINE
  8
ITTEN
 10
4342.864915
 20
9793.99676
 30
0.0
 11
4542.864915
 21
9793.99676
 31
0.0
  0
ARC
  8
JISSEN
 10
4482.864915
 20
9493.99676
 30
0.0
 40
10.0
 50
270.0
 51
90.0
  0
LINE
  8
JISSEN
 10
4392.864915
 20
9503.99676
 30
0.0
 11
4482.864915
 21
9503.99676
 31
0.0
  0
LINE
  8
JISSEN
 10
4392.864915
 20
9483.99676
 30
0.0
 11
4482.864915
 21
9483.99676
 31
0.0
  0
LINE
  8
ITTEN
 10
4342.864915
 20
9493.99676
 30
0.0
 11
4542.864915
 21
9493.99676
 31
0.0
  0
LINE
  8
ITTEN
 10
4342.864915
 20
9193.99676
 30
0.0
 11
4542.864915
 21
9193.99676
 31
0.0
  0
LINE
  8
JISSEN
 10
4392.864915
 20
9183.99676
 30
0.0
 11
4482.864915
 21
9183.99676
 31
0.0
  0
LINE
  8
JISSEN
 10
4392.864915
 20
9203.99676
 30
0.0
 11
4482.864915
 21
9203.99676
 31
0.0
  0
ARC
  8
JISSEN
 10
4482.864915
 20
9193.99676
 30
0.0
 40
10.0
 50
270.0
 51
90.0
  0
LINE
  8
ITTEN
 10
4727.864915
 20
10983.99676
 30
0.0
 11
4727.864915
 21
10193.99676
 31
0.0
  0
LINE
  8
JISSEN
 10
5027.864915
 20
10823.99676
 30
0.0
 11
5027.864915
 21
10788.99676
 31
0.0
  0
LINE
  8
JISSEN
 10
5137.864915
 20
10823.99676
 30
0.0
 11
5027.864915
 21
10823.99676
 31
0.0
  0
LINE
  8
JISSEN
 10
5027.864915
 20
10823.99676
 30
0.0
 11
5027.864915
 21
10888.756427
 31
0.0
  0
LINE
  8
JISSEN
 10
5027.864915
 20
10888.756427
 30
0.0
 11
5062.864915
 21
10888.756427
 31
0.0
  0
LINE
  8
JISSEN
 10
5085.218644
 20
10933.99676
 30
0.0
 11
5062.864915
 21
10888.756427
 31
0.0
  0
LINE
  8
JISSEN
 10
5137.864915
 20
10833.99676
 30
0.0
 11
5037.864915
 21
10833.99676
 31
0.0
  0
LINE
  8
JISSEN
 10
5037.864915
 20
10833.99676
 30
0.0
 11
5037.864915
 21
10878.756427
 31
0.0
  0
LINE
  8
JISSEN
 10
5037.864915
 20
10878.756427
 30
0.0
 11
5069.077935
 21
10878.756427
 31
0.0
  0
LINE
  8
JISSEN
 10
5096.37277
 20
10933.99676
 30
0.0
 11
5069.077935
 21
10878.756427
 31
0.0
  0
LINE
  8
JISSEN
 10
5137.864915
 20
10833.99676
 30
0.0
 11
5137.864915
 21
10803.99676
 31
0.0
  0
LINE
  8
JISSEN
 10
5062.864915
 20
10823.99676
 30
0.0
 11
5062.864915
 21
10803.99676
 31
0.0
  0
LINE
  8
JISSEN
 10
5096.37277
 20
10933.99676
 30
0.0
 11
5085.218644
 21
10933.99676
 31
0.0
  0
LINE
  8
JISSEN
 10
5096.37277
 20
10933.99676
 30
0.0
 11
5137.864915
 21
10833.99676
 31
0.0
  0
LINE
  8
JISSEN
 10
5085.218644
 20
10933.99676
 30
0.0
 11
4727.864915
 21
10933.99676
 31
0.0
  0
LINE
  8
JISSEN
 10
5027.864915
 20
10888.756427
 30
0.0
 11
4727.864915
 21
10888.756427
 31
0.0
  0
LINE
  8
JISSEN
 10
4427.864915
 20
10888.756427
 30
0.0
 11
4727.864915
 21
10888.756427
 31
0.0
  0
LINE
  8
JISSEN
 10
4370.511186
 20
10933.99676
 30
0.0
 11
4727.864915
 21
10933.99676
 31
0.0
  0
LINE
  8
JISSEN
 10
4359.357059
 20
10933.99676
 30
0.0
 11
4317.864915
 21
10833.99676
 31
0.0
  0
LINE
  8
JISSEN
 10
4359.357059
 20
10933.99676
 30
0.0
 11
4370.511186
 21
10933.99676
 31
0.0
  0
LINE
  8
JISSEN
 10
4427.864915
 20
10823.99676
 30
0.0
 11
4427.864915
 21
10788.99676
 31
0.0
  0
LINE
  8
JISSEN
 10
4392.864915
 20
10823.99676
 30
0.0
 11
4392.864915
 21
10803.99676
 31
0.0
  0
LINE
  8
JISSEN
 10
4317.864915
 20
10833.99676
 30
0.0
 11
4317.864915
 21
10803.99676
 31
0.0
  0
LINE
  8
JISSEN
 10
4359.357059
 20
10933.99676
 30
0.0
 11
4386.651895
 21
10878.756427
 31
0.0
  0
LINE
  8
JISSEN
 10
4417.864915
 20
10878.756427
 30
0.0
 11
4386.651895
 21
10878.756427
 31
0.0
  0
LINE
  8
JISSEN
 10
4417.864915
 20
10833.99676
 30
0.0
 11
4417.864915
 21
10878.756427
 31
0.0
  0
LINE
  8
JISSEN
 10
4317.864915
 20
10833.99676
 30
0.0
 11
4417.864915
 21
10833.99676
 31
0.0
  0
LINE
  8
JISSEN
 10
4370.511186
 20
10933.99676
 30
0.0
 11
4392.864915
 21
10888.756427
 31
0.0
  0
LINE
  8
JISSEN
 10
4427.864915
 20
10888.756427
 30
0.0
 11
4392.864915
 21
10888.756427
 31
0.0
  0
LINE
  8
JISSEN
 10
4427.864915
 20
10823.99676
 30
0.0
 11
4427.864915
 21
10888.756427
 31
0.0
  0
LINE
  8
JISSEN
 10
4317.864915
 20
10823.99676
 30
0.0
 11
4427.864915
 21
10823.99676
 31
0.0
  0
LINE
  8
JISSEN
 10
5027.864915
 20
10788.99676
 30
0.0
 11
5027.864915
 21
10693.99676
 31
0.0
  0
LINE
  8
JISSEN
 10
5137.864915
 20
10703.99676
 30
0.0
 11
5137.864915
 21
10803.99676
 31
0.0
  0
LINE
  8
JISSEN
 10
4427.864915
 20
10788.99676
 30
0.0
 11
4427.864915
 21
10693.99676
 31
0.0
  0
LINE
  8
JISSEN
 10
4317.864915
 20
10803.99676
 30
0.0
 11
4317.864915
 21
10703.99676
 31
0.0
  0
LINE
  8
JISSEN
 10
4317.864915
 20
10803.99676
 30
0.0
 11
4395.864915
 21
10803.99676
 31
0.0
  0
LINE
  8
JISSEN
 10
4395.864915
 20
10803.99676
 30
0.0
 11
4401.864915
 21
10788.99676
 31
0.0
  0
LINE
  8
JISSEN
 10
4401.864915
 20
10788.99676
 30
0.0
 11
4427.864915
 21
10788.99676
 31
0.0
  0
LINE
  8
JISSEN
 10
4427.864915
 20
10788.99676
 30
0.0
 11
4727.864915
 21
10788.99676
 31
0.0
  0
LINE
  8
JISSEN
 10
5027.864915
 20
10788.99676
 30
0.0
 11
4727.864915
 21
10788.99676
 31
0.0
  0
LINE
  8
JISSEN
 10
5053.864915
 20
10788.99676
 30
0.0
 11
5027.864915
 21
10788.99676
 31
0.0
  0
LINE
  8
JISSEN
 10
5059.864915
 20
10803.99676
 30
0.0
 11
5053.864915
 21
10788.99676
 31
0.0
  0
LINE
  8
JISSEN
 10
5137.864915
 20
10803.99676
 30
0.0
 11
5059.864915
 21
10803.99676
 31
0.0
  0
LINE
  8
JISSEN
 10
5027.864915
 20
10668.99676
 30
0.0
 11
5292.864915
 21
10243.99676
 31
0.0
  0
LINE
  8
JISSEN
 10
5367.864915
 20
10318.99676
 30
0.0
 11
5137.864915
 21
10703.99676
 31
0.0
  0
LINE
  8
JISSEN
 10
5367.864915
 20
10258.99676
 30
0.0
 11
5367.864915
 21
10318.99676
 31
0.0
  0
LINE
  8
JISSEN
 10
5137.864915
 20
10703.99676
 30
0.0
 11
5056.864915
 21
10703.99676
 31
0.0
  0
LINE
  8
JISSEN
 10
5056.864915
 20
10703.99676
 30
0.0
 11
5052.864915
 21
10693.99676
 31
0.0
  0
LINE
  8
JISSEN
 10
5052.864915
 20
10693.99676
 30
0.0
 11
5027.864915
 21
10693.99676
 31
0.0
  0
LINE
  8
JISSEN
 10
5059.864915
 20
10703.99676
 30
0.0
 11
5053.864915
 21
10688.99676
 31
0.0
  0
LINE
  8
JISSEN
 10
5053.864915
 20
10688.99676
 30
0.0
 11
5027.864915
 21
10688.99676
 31
0.0
  0
LINE
  8
JISSEN
 10
5027.864915
 20
10688.99676
 30
0.0
 11
5027.864915
 21
10668.99676
 31
0.0
  0
LINE
  8
JISSEN
 10
5027.864915
 20
10688.99676
 30
0.0
 11
4727.864915
 21
10688.99676
 31
0.0
  0
LINE
  8
JISSEN
 10
5027.864915
 20
10693.99676
 30
0.0
 11
4727.864915
 21
10693.99676
 31
0.0
  0
LINE
  8
JISSEN
 10
4427.864915
 20
10693.99676
 30
0.0
 11
4727.864915
 21
10693.99676
 31
0.0
  0
LINE
  8
JISSEN
 10
4427.864915
 20
10688.99676
 30
0.0
 11
4727.864915
 21
10688.99676
 31
0.0
  0
LINE
  8
JISSEN
 10
4427.864915
 20
10668.99676
 30
0.0
 11
4392.864915
 21
10243.99676
 31
0.0
  0
LINE
  8
JISSEN
 10
4317.864915
 20
10703.99676
 30
0.0
 11
4317.864915
 21
10258.99676
 31
0.0
  0
LINE
  8
JISSEN
 10
4427.864915
 20
10688.99676
 30
0.0
 11
4427.864915
 21
10668.99676
 31
0.0
  0
LINE
  8
JISSEN
 10
4401.864915
 20
10688.99676
 30
0.0
 11
4427.864915
 21
10688.99676
 31
0.0
  0
LINE
  8
JISSEN
 10
4395.864915
 20
10703.99676
 30
0.0
 11
4401.864915
 21
10688.99676
 31
0.0
  0
LINE
  8
JISSEN
 10
4402.864915
 20
10693.99676
 30
0.0
 11
4427.864915
 21
10693.99676
 31
0.0
  0
LINE
  8
JISSEN
 10
4398.864915
 20
10703.99676
 30
0.0
 11
4402.864915
 21
10693.99676
 31
0.0
  0
LINE
  8
JISSEN
 10
4317.864915
 20
10703.99676
 30
0.0
 11
4398.864915
 21
10703.99676
 31
0.0
  0
LINE
  8
ITTEN
 10
4842.864915
 20
10293.99676
 30
0.0
 11
4842.864915
 21
8693.99676
 31
0.0
  0
LINE
  8
JISSEN
 10
5320.864915
 20
10235.99676
 30
0.0
 11
4842.864915
 21
10235.99676
 31
0.0
  0
LINE
  8
JISSEN
 10
5327.864915
 20
10258.99676
 30
0.0
 11
5320.864915
 21
10235.99676
 31
0.0
  0
LINE
  8
JISSEN
 10
5317.864915
 20
10243.99676
 30
0.0
 11
4842.864915
 21
10243.99676
 31
0.0
  0
LINE
  8
JISSEN
 10
5326.864915
 20
10258.99676
 30
0.0
 11
5317.864915
 21
10243.99676
 31
0.0
  0
LINE
  8
JISSEN
 10
5367.864915
 20
10258.99676
 30
0.0
 11
5326.864915
 21
10258.99676
 31
0.0
  0
LINE
  8
JISSEN
 10
5292.864915
 20
10235.99676
 30
0.0
 11
5292.864915
 21
9043.99676
 31
0.0
  0
LINE
  8
JISSEN
 10
5367.864915
 20
10258.99676
 30
0.0
 11
5367.864915
 21
9058.99676
 31
0.0
  0
LINE
  8
JISSEN
 10
4392.864915
 20
10235.99676
 30
0.0
 11
4392.864915
 21
9043.99676
 31
0.0
  0
LINE
  8
JISSEN
 10
4317.864915
 20
10258.99676
 30
0.0
 11
4317.864915
 21
9058.99676
 31
0.0
  0
LINE
  8
JISSEN
 10
4317.864915
 20
10258.99676
 30
0.0
 11
4358.864915
 21
10258.99676
 31
0.0
  0
LINE
  8
JISSEN
 10
4358.864915
 20
10258.99676
 30
0.0
 11
4367.864915
 21
10243.99676
 31
0.0
  0
LINE
  8
JISSEN
 10
4367.864915
 20
10243.99676
 30
0.0
 11
4842.864915
 21
10243.99676
 31
0.0
  0
LINE
  8
JISSEN
 10
4357.864915
 20
10258.99676
 30
0.0
 11
4364.864915
 21
10235.99676
 31
0.0
  0
LINE
  8
JISSEN
 10
4364.864915
 20
10235.99676
 30
0.0
 11
4842.864915
 21
10235.99676
 31
0.0
  0
LINE
  8
JISSEN
 10
5292.864915
 20
9035.99676
 30
0.0
 11
4842.864915
 21
9035.99676
 31
0.0
  0
LINE
  8
JISSEN
 10
5292.864915
 20
9043.99676
 30
0.0
 11
4842.864915
 21
9043.99676
 31
0.0
  0
LINE
  8
JISSEN
 10
5292.864915
 20
9035.99676
 30
0.0
 11
5292.864915
 21
8743.99676
 31
0.0
  0
LINE
  8
JISSEN
 10
5320.864915
 20
9035.99676
 30
0.0
 11
5292.864915
 21
9035.99676
 31
0.0
  0
LINE
  8
JISSEN
 10
5317.864915
 20
9043.99676
 30
0.0
 11
5292.864915
 21
9043.99676
 31
0.0
  0
LINE
  8
JISSEN
 10
6782.864915
 20
9058.99676
 30
0.0
 11
5326.864915
 21
9058.99676
 31
0.0
  0
LINE
  8
JISSEN
 10
5326.864915
 20
9058.99676
 30
0.0
 11
5317.864915
 21
9043.99676
 31
0.0
  0
LINE
  8
JISSEN
 10
5327.864915
 20
9058.99676
 30
0.0
 11
5320.864915
 21
9035.99676
 31
0.0
  0
LINE
  8
JISSEN
 10
4392.864915
 20
9043.99676
 30
0.0
 11
4842.864915
 21
9043.99676
 31
0.0
  0
LINE
  8
JISSEN
 10
4392.864915
 20
9035.99676
 30
0.0
 11
4842.864915
 21
9035.99676
 31
0.0
  0
LINE
  8
JISSEN
 10
4392.864915
 20
9035.99676
 30
0.0
 11
4392.864915
 21
8743.99676
 31
0.0
  0
LINE
  8
JISSEN
 10
4364.864915
 20
9035.99676
 30
0.0
 11
4392.864915
 21
9035.99676
 31
0.0
  0
LINE
  8
JISSEN
 10
4357.864915
 20
9058.99676
 30
0.0
 11
4364.864915
 21
9035.99676
 31
0.0
  0
LINE
  8
JISSEN
 10
4367.864915
 20
9043.99676
 30
0.0
 11
4392.864915
 21
9043.99676
 31
0.0
  0
LINE
  8
JISSEN
 10
4358.864915
 20
9058.99676
 30
0.0
 11
4367.864915
 21
9043.99676
 31
0.0
  0
LINE
  8
JISSEN
 10
4202.864915
 20
9058.99676
 30
0.0
 11
4358.864915
 21
9058.99676
 31
0.0
  0
LINE
  8
JISSEN
 10
6592.864915
 20
8731.99676
 30
0.0
 11
6592.864915
 21
7243.99676
 31
0.0
  0
LINE
  8
JISSEN
 10
4392.864915
 20
7243.99676
 30
0.0
 11
4392.864915
 21
8731.99676
 31
0.0
  0
LINE
  8
JISSEN
 10
4202.864915
 20
8763.99676
 30
0.0
 11
4332.864915
 21
8763.99676
 31
0.0
  0
LINE
  8
JISSEN
 10
4332.864915
 20
8763.99676
 30
0.0
 11
4344.864915
 21
8743.99676
 31
0.0
  0
LINE
  8
JISSEN
 10
4344.864915
 20
8743.99676
 30
0.0
 11
5492.864915
 21
8743.99676
 31
0.0
  0
LINE
  8
JISSEN
 10
4330.864915
 20
8763.99676
 30
0.0
 11
4339.864915
 21
8731.99676
 31
0.0
  0
LINE
  8
JISSEN
 10
4339.864915
 20
8731.99676
 30
0.0
 11
4392.864915
 21
8731.99676
 31
0.0
  0
LINE
  8
JISSEN
 10
4392.864915
 20
8731.99676
 30
0.0
 11
5292.864915
 21
8731.99676
 31
0.0
  0
LINE
  8
JISSEN
 10
6645.864915
 20
8731.99676
 30
0.0
 11
6592.864915
 21
8731.99676
 31
0.0
  0
LINE
  8
JISSEN
 10
6654.864915
 20
8763.99676
 30
0.0
 11
6645.864915
 21
8731.99676
 31
0.0
  0
LINE
  8
JISSEN
 10
6640.864915
 20
8743.99676
 30
0.0
 11
5492.864915
 21
8743.99676
 31
0.0
  0
LINE
  8
JISSEN
 10
6652.864915
 20
8763.99676
 30
0.0
 11
6640.864915
 21
8743.99676
 31
0.0
  0
LINE
  8
JISSEN
 10
6782.864915
 20
8763.99676
 30
0.0
 11
6652.864915
 21
8763.99676
 31
0.0
  0
LINE
  8
JISSEN
 10
6192.864915
 20
8731.99676
 30
0.0
 11
5292.864915
 21
8731.99676
 31
0.0
  0
LINE
  8
JISSEN
 10
6192.864915
 20
7231.99676
 30
0.0
 11
5292.864915
 21
7231.99676
 31
0.0
  0
LINE
  8
JISSEN
 10
6782.864915
 20
7263.99676
 30
0.0
 11
6652.864915
 21
7263.99676
 31
0.0
  0
LINE
  8
JISSEN
 10
6652.864915
 20
7263.99676
 30
0.0
 11
6640.864915
 21
7243.99676
 31
0.0
  0
LINE
  8
JISSEN
 10
6640.864915
 20
7243.99676
 30
0.0
 11
5492.864915
 21
7243.99676
 31
0.0
  0
LINE
  8
JISSEN
 10
6654.864915
 20
7263.99676
 30
0.0
 11
6645.864915
 21
7231.99676
 31
0.0
  0
LINE
  8
JISSEN
 10
6245.864915
 20
7231.99676
 30
0.0
 11
6192.864915
 21
7231.99676
 31
0.0
  0
LINE
  8
JISSEN
 10
6592.864915
 20
5143.99676
 30
0.0
 11
6592.864915
 21
7231.99676
 31
0.0
  0
LINE
  8
JISSEN
 10
6654.864915
 20
5163.99676
 30
0.0
 11
6645.864915
 21
5143.99676
 31
0.0
  0
LINE
  8
JISSEN
 10
6782.864915
 20
5163.99676
 30
0.0
 11
6654.864915
 21
5163.99676
 31
0.0
  0
LINE
  8
JISSEN
 10
6245.864915
 20
5143.99676
 30
0.0
 11
5892.864915
 21
5143.99676
 31
0.0
  0
LINE
  8
JISSEN
 10
4392.864915
 20
7231.99676
 30
0.0
 11
5292.864915
 21
7231.99676
 31
0.0
  0
LINE
  8
JISSEN
 10
4392.864915
 20
5143.99676
 30
0.0
 11
4392.864915
 21
7231.99676
 31
0.0
  0
LINE
  8
JISSEN
 10
4339.864915
 20
7231.99676
 30
0.0
 11
4392.864915
 21
7231.99676
 31
0.0
  0
LINE
  8
JISSEN
 10
4330.864915
 20
7263.99676
 30
0.0
 11
4339.864915
 21
7231.99676
 31
0.0
  0
LINE
  8
JISSEN
 10
4344.864915
 20
7243.99676
 30
0.0
 11
5492.864915
 21
7243.99676
 31
0.0
  0
LINE
  8
JISSEN
 10
4332.864915
 20
7263.99676
 30
0.0
 11
4344.864915
 21
7243.99676
 31
0.0
  0
LINE
  8
JISSEN
 10
4202.864915
 20
7263.99676
 30
0.0
 11
4332.864915
 21
7263.99676
 31
0.0
  0
LINE
  8
JISSEN
 10
4339.864915
 20
5143.99676
 30
0.0
 11
5092.864915
 21
5143.99676
 31
0.0
  0
LINE
  8
JISSEN
 10
4330.864915
 20
5163.99676
 30
0.0
 11
4339.864915
 21
5143.99676
 31
0.0
  0
LINE
  8
JISSEN
 10
4202.864915
 20
5163.99676
 30
0.0
 11
4330.864915
 21
5163.99676
 31
0.0
  0
LINE
  8
JISSEN
 10
4202.864915
 20
4943.99676
 30
0.0
 11
6782.864915
 21
4943.99676
 31
0.0
  0
LINE
  8
ITTEN
 10
6392.864915
 20
6263.99676
 30
0.0
 11
4592.864915
 21
6263.99676
 31
0.0
  0
LINE
  8
ITTEN
 10
5492.864915
 20
9058.99676
 30
0.0
 11
5492.864915
 21
4743.99676
 31
0.0
  0
LINE
  8
SUNPOU
 10
4352.864915
 20
5143.99676
 30
0.0
 11
3729.160568
 21
5143.99676
 31
0.0
  0
LINE
  8
SUNPOU
 10
3729.160568
 20
5513.99676
 30
0.0
 11
3729.160568
 21
5513.99676
 31
0.0
  0
LINE
  8
SUNPOU
 10
3769.160568
 20
5143.99676
 30
0.0
 11
3769.160568
 21
5513.99676
 31
0.0
  0
INSERT
  8
SUNPOU
  2
ARROWANG
 10
3769.160568
 20
5143.99676
 30
0.0
 41
60.0
 42
60.0
 50
270.0
 43
60.0
  0
INSERT
  8
SUNPOU
  2
ARROWANG
 10
3769.160568
 20
5513.99676
 30
0.0
 41
60.0
 42
60.0
 50
90.0
 43
60.0
  0
TEXT
  8
SUNPOU
 10
3709.160568
 20
5157.568188
 30
0.0
 40
120.0
  1
382
 50
90.0
  7
K
 72
     1
 11
3709.160568
 21
5328.99676
 31
0.0
  0
LINE
  8
SUNPOU
 10
4162.864915
 20
4943.99676
 30
0.0
 11
3729.160568
 21
4943.99676
 31
0.0
  0
LINE
  8
SUNPOU
 10
3809.160568
 20
5143.99676
 30
0.0
 11
3809.160568
 21
5143.99676
 31
0.0
  0
LINE
  8
SUNPOU
 10
3769.160568
 20
4943.99676
 30
0.0
 11
3769.160568
 21
5143.99676
 31
0.0
  0
INSERT
  8
SUNPOU
  2
ARROWANG
 10
3769.160568
 20
4943.99676
 30
0.0
 41
60.0
 42
60.0
 50
270.0
 43
60.0
  0
INSERT
  8
SUNPOU
  2
ARROWANG
 10
3769.160568
 20
5143.99676
 30
0.0
 41
60.0
 42
60.0
 50
90.0
 43
60.0
  0
LINE
  8
SUNPOU
 10
3769.160568
 20
4943.99676
 30
0.0
 11
3769.160568
 21
4547.99676
 31
0.0
  0
TEXT
  8
SUNPOU
 10
3709.160568
 20
4574.568188
 30
0.0
 40
120.0
  1
280
 50
90.0
  7
K
 72
     1
 11
3709.160568
 21
4745.99676
 31
0.0
  0
LINE
  8
SUNPOU
 10
16382.009923
 20
5513.99676
 30
0.0
 11
17161.811347
 21
5513.99676
 31
0.0
  0
LINE
  8
SUNPOU
 10
15034.429881
 20
10933.99676
 30
0.0
 11
17161.811347
 21
10933.99676
 31
0.0
  0
LINE
  8
SUNPOU
 10
17121.811347
 20
5513.99676
 30
0.0
 11
17121.811347
 21
10933.99676
 31
0.0
  0
INSERT
  8
SUNPOU
  2
ARROWANG
 10
17121.811347
 20
5513.99676
 30
0.0
 41
60.0
 42
60.0
 50
270.0
 43
60.0
  0
INSERT
  8
SUNPOU
  2
ARROWANG
 10
17121.811347
 20
10933.99676
 30
0.0
 41
60.0
 42
60.0
 50
90.0
 43
60.0
  0
LINE
  8
SUNPOU
 10
13347.076152
 20
4703.99676
 30
0.0
 11
13347.076152
 21
4238.819442
 31
0.0
  0
LINE
  8
SUNPOU
 10
15927.076152
 20
4703.99676
 30
0.0
 11
15927.076152
 21
4238.819442
 31
0.0
  0
LINE
  8
SUNPOU
 10
13347.076152
 20
4278.819442
 30
0.0
 11
15927.076152
 21
4278.819442
 31
0.0
  0
INSERT
  8
SUNPOU
  2
ARROWANG
 10
15927.076152
 20
4278.819442
 30
0.0
 41
60.0
 42
60.0
 43
60.0
  0
INSERT
  8
SUNPOU
  2
ARROWANG
 10
13347.076152
 20
4278.819442
 30
0.0
 41
60.0
 42
60.0
 50
180.0
 43
60.0
  0
TEXT
  8
SUNPOU
 10
14400.971816
 20
4338.819442
 30
0.0
 40
120.0
  1
2580
  7
K
 72
     1
 11
14629.543244
 21
4338.819442
 31
0.0
  0
LINE
  8
SUNPOU
 10
4202.864915
 20
4703.99676
 30
0.0
 11
4202.864915
 21
4234.717629
 31
0.0
  0
LINE
  8
SUNPOU
 10
6782.864915
 20
4703.99676
 30
0.0
 11
6782.864915
 21
4234.717629
 31
0.0
  0
LINE
  8
SUNPOU
 10
4202.864915
 20
4274.717629
 30
0.0
 11
6782.864915
 21
4274.717629
 31
0.0
  0
INSERT
  8
SUNPOU
  2
ARROWANG
 10
4202.864915
 20
4274.717629
 30
0.0
 41
60.0
 42
60.0
 50
180.0
 43
60.0
  0
INSERT
  8
SUNPOU
  2
ARROWANG
 10
6782.864915
 20
4274.717629
 30
0.0
 41
60.0
 42
60.0
 43
60.0
  0
TEXT
  8
SUNPOU
 10
5264.293506
 20
4334.717629
 30
0.0
 40
120.0
  1
2580
  7
K
 72
     1
 11
5492.864934
 21
4334.717629
 31
0.0
  0
TEXT
  8
JISSEN
 10
7342.842871
 20
13000.501163
 30
0.0
 40
250.0
  1
５号マンホール（内径２２００ｍｍ）
  7
K
  0
LINE
  8
ITTEN
 10
14427.076152
 20
8893.99676
 30
0.0
 11
14847.076152
 21
8893.99676
 31
0.0
  0
LINE
  8
JISSEN
 10
14637.076152
 20
8903.99676
 30
0.0
 11
14827.076152
 21
8903.99676
 31
0.0
  0
ARC
  8
JISSEN
 10
14827.076152
 20
8893.99676
 30
0.0
 40
10.0
 50
270.0
 51
90.0
  0
LINE
  8
JISSEN
 10
14637.076152
 20
8883.99676
 30
0.0
 11
14827.076152
 21
8883.99676
 31
0.0
  0
LINE
  8
JISSEN
 10
14637.076152
 20
8903.99676
 30
0.0
 11
14447.076152
 21
8903.99676
 31
0.0
  0
LINE
  8
JISSEN
 10
14637.076152
 20
8883.99676
 30
0.0
 11
14447.076152
 21
8883.99676
 31
0.0
  0
ARC
  8
JISSEN
 10
14447.076152
 20
8893.99676
 30
0.0
 40
10.0
 50
90.0
 51
270.0
  0
TEXT
  8
TEXT
 10
9319.083458
 20
11581.492022
 30
0.0
 40
199.95
  1
構造標準図
  7
K
  0
POLYLINE
  8
WAKU
 66
     1
 10
0.0
 20
0.0
 30
0.0
 70
     1
  0
VERTEX
  8
WAKU
 10
0.0
 20
0.0
 30
0.0
  0
VERTEX
  8
WAKU
 10
19750.0
 20
0.0
 30
0.0
  0
VERTEX
  8
WAKU
 10
19750.0
 20
13650.0
 30
0.0
  0
VERTEX
  8
WAKU
 10
0.0
 20
13650.0
 30
0.0
  0
SEQEND
  8
WAKU
  0
TEXT
  8
TEXT
 10
18625.185705
 20
1620.392414
 30
0.0
 40
199.95
  1
1/50
  7
K
  0
POLYLINE
  8
HATCH
 66
     1
 10
0.0
 20
0.0
 30
0.0
  0
VERTEX
  8
HATCH
 10
4568.162617
 20
4935.453704
 30
0.0
  0
VERTEX
  8
HATCH
 10
4512.111411
 20
4913.157665
 30
0.0
  0
VERTEX
  8
HATCH
 10
4478.480687
 20
4869.423126
 30
0.0
  0
VERTEX
  8
HATCH
 10
4479.881967
 20
4808.537788
 30
0.0
  0
VERTEX
  8
HATCH
 10
4521.920372
 20
4762.23063
 30
0.0
  0
VERTEX
  8
HATCH
 10
4561.156216
 20
4748.50999
 30
0.0
  0
VERTEX
  8
HATCH
 10
4590.583099
 20
4793.102069
 30
0.0
  0
VERTEX
  8
HATCH
 10
4613.003582
 20
4883.143766
 30
0.0
  0
VERTEX
  8
HATCH
 10
4569.563897
 20
4935.453704
 30
0.0
  0
SEQEND
  8
HATCH
  0
POLYLINE
  8
HATCH
 66
     1
 10
0.0
 20
0.0
 30
0.0
  0
VERTEX
  8
HATCH
 10
4674.659908
 20
4943.171564
 30
0.0
  0
VERTEX
  8
HATCH
 10
4625.615103
 20
4909.727505
 30
0.0
  0
VERTEX
  8
HATCH
 10
4607.398461
 20
4850.557247
 30
0.0
  0
VERTEX
  8
HATCH
 10
4620.009982
 20
4779.381429
 30
0.0
  0
VERTEX
  8
HATCH
 10
4671.857348
 20
4746.79491
 30
0.0
  0
VERTEX
  8
HATCH
 10
4719.500873
 20
4759.65801
 30
0.0
  0
VERTEX
  8
HATCH
 10
4733.513675
 20
4836.836607
 30
0.0
  0
VERTEX
  8
HATCH
 10
4716.698313
 20
4920.017985
 30
0.0
  0
VERTEX
  8
HATCH
 10
4676.061189
 20
4943.171564
 30
0.0
  0
SEQEND
  8
HATCH
  0
POLYLINE
  8
HATCH
 66
     1
 10
0.0
 20
0.0
 30
0.0
  0
VERTEX
  8
HATCH
 10
4788.163601
 20
4939.741404
 30
0.0
  0
VERTEX
  8
HATCH
 10
4740.520076
 20
4906.297345
 30
0.0
  0
VERTEX
  8
HATCH
 10
4736.316235
 20
4859.990187
 30
0.0
  0
VERTEX
  8
HATCH
 10
4740.520076
 20
4789.671909
 30
0.0
  0
VERTEX
  8
HATCH
 10
4771.348239
 20
4762.23063
 30
0.0
  0
VERTEX
  8
HATCH
 10
4821.794325
 20
4746.79491
 30
0.0
  0
VERTEX
  8
HATCH
 10
4842.813527
 20
4802.535008
 30
0.0
  0
VERTEX
  8
HATCH
 10
4845.616087
 20
4897.721945
 30
0.0
  0
VERTEX
  8
HATCH
 10
4800.775122
 20
4938.883864
 30
0.0
  0
VERTEX
  8
HATCH
 10
4788.163601
 20
4938.883864
 30
0.0
  0
SEQEND
  8
HATCH
  0
POLYLINE
  8
HATCH
 66
     1
 10
0.0
 20
0.0
 30
0.0
  0
VERTEX
  8
HATCH
 10
4894.660893
 20
4942.314024
 30
0.0
  0
VERTEX
  8
HATCH
 10
4845.616087
 20
4869.423126
 30
0.0
  0
VERTEX
  8
HATCH
 10
4851.221208
 20
4784.526669
 30
0.0
  0
VERTEX
  8
HATCH
 10
4893.259612
 20
4754.51277
 30
0.0
  0
VERTEX
  8
HATCH
 10
4925.489056
 20
4746.79491
 30
0.0
  0
VERTEX
  8
HATCH
 10
4961.92234
 20
4794.817149
 30
0.0
  0
VERTEX
  8
HATCH
 10
4950.712099
 20
4893.434245
 30
0.0
  0
VERTEX
  8
HATCH
 10
4918.482655
 20
4931.166004
 30
0.0
  0
VERTEX
  8
HATCH
 10
4896.062173
 20
4942.314024
 30
0.0
  0
SEQEND
  8
HATCH
  0
POLYLINE
  8
HATCH
 66
     1
 10
0.0
 20
0.0
 30
0.0
  0
VERTEX
  8
HATCH
 10
5027.782507
 20
4939.741404
 30
0.0
  0
VERTEX
  8
HATCH
 10
4963.32362
 20
4900.294565
 30
0.0
  0
VERTEX
  8
HATCH
 10
4956.317219
 20
4849.699707
 30
0.0
  0
VERTEX
  8
HATCH
 10
4971.731301
 20
4781.954049
 30
0.0
  0
VERTEX
  8
HATCH
 10
5036.190188
 20
4747.65245
 30
0.0
  0
VERTEX
  8
HATCH
 10
5062.814511
 20
4802.535008
 30
0.0
  0
VERTEX
  8
HATCH
 10
5065.617071
 20
4892.576706
 30
0.0
  0
VERTEX
  8
HATCH
 10
5048.80171
 20
4929.450924
 30
0.0
  0
VERTEX
  8
HATCH
 10
5029.183787
 20
4939.741404
 30
0.0
  0
SEQEND
  8
HATCH
  0
POLYLINE
  8
HATCH
 66
     1
 10
0.0
 20
0.0
 30
0.0
  0
VERTEX
  8
HATCH
 10
4484.085808
 20
4940.598944
 30
0.0
  0
VERTEX
  8
HATCH
 10
4474.276846
 20
4919.160445
 30
0.0
  0
VERTEX
  8
HATCH
 10
4492.493488
 20
4901.152105
 30
0.0
  0
VERTEX
  8
HATCH
 10
4523.321652
 20
4921.733065
 30
0.0
  0
VERTEX
  8
HATCH
 10
4512.111411
 20
4938.883864
 30
0.0
  0
VERTEX
  8
HATCH
 10
4486.888368
 20
4940.598944
 30
0.0
  0
SEQEND
  8
HATCH
  0
POLYLINE
  8
HATCH
 66
     1
 10
0.0
 20
0.0
 30
0.0
  0
VERTEX
  8
HATCH
 10
4598.99078
 20
4942.314024
 30
0.0
  0
VERTEX
  8
HATCH
 10
4580.774138
 20
4931.166004
 30
0.0
  0
VERTEX
  8
HATCH
 10
4596.18822
 20
4911.442585
 30
0.0
  0
VERTEX
  8
HATCH
 10
4617.207422
 20
4905.439805
 30
0.0
  0
VERTEX
  8
HATCH
 10
4631.220224
 20
4932.881084
 30
0.0
  0
VERTEX
  8
HATCH
 10
4594.78694
 20
4940.598944
 30
0.0
  0
SEQEND
  8
HATCH
  0
POLYLINE
  8
HATCH
 66
     1
 10
0.0
 20
0.0
 30
0.0
  0
VERTEX
  8
HATCH
 10
4603.194621
 20
4794.817149
 30
0.0
  0
VERTEX
  8
HATCH
 10
4579.372858
 20
4769.948489
 30
0.0
  0
VERTEX
  8
HATCH
 10
4594.78694
 20
4750.22507
 30
0.0
  0
VERTEX
  8
HATCH
 10
4617.207422
 20
4751.08261
 30
0.0
  0
VERTEX
  8
HATCH
 10
4614.404862
 20
4771.663569
 30
0.0
  0
VERTEX
  8
HATCH
 10
4603.194621
 20
4792.244529
 30
0.0
  0
SEQEND
  8
HATCH
  0
POLYLINE
  8
HATCH
 66
     1
 10
0.0
 20
0.0
 30
0.0
  0
VERTEX
  8
HATCH
 10
4479.881967
 20
4784.526669
 30
0.0
  0
VERTEX
  8
HATCH
 10
4475.678127
 20
4759.65801
 30
0.0
  0
VERTEX
  8
HATCH
 10
4500.901169
 20
4750.22507
 30
0.0
  0
VERTEX
  8
HATCH
 10
4506.50629
 20
4766.518329
 30
0.0
  0
VERTEX
  8
HATCH
 10
4486.888368
 20
4781.096509
 30
0.0
  0
VERTEX
  8
HATCH
 10
4478.480687
 20
4784.526669
 30
0.0
  0
SEQEND
  8
HATCH
  0
POLYLINE
  8
HATCH
 66
     1
 10
0.0
 20
0.0
 30
0.0
  0
VERTEX
  8
HATCH
 10
4723.704714
 20
4939.741404
 30
0.0
  0
VERTEX
  8
HATCH
 10
4713.895753
 20
4921.733065
 30
0.0
  0
VERTEX
  8
HATCH
 10
4733.513675
 20
4905.439805
 30
0.0
  0
VERTEX
  8
HATCH
 10
4748.927757
 20
4919.160445
 30
0.0
  0
VERTEX
  8
HATCH
 10
4734.914955
 20
4937.168784
 30
0.0
  0
VERTEX
  8
HATCH
 10
4727.908554
 20
4939.741404
 30
0.0
  0
SEQEND
  8
HATCH
  0
POLYLINE
  8
HATCH
 66
     1
 10
0.0
 20
0.0
 30
0.0
  0
VERTEX
  8
HATCH
 10
4729.309834
 20
4779.381429
 30
0.0
  0
VERTEX
  8
HATCH
 10
4720.902154
 20
4761.37309
 30
0.0
  0
VERTEX
  8
HATCH
 10
4736.316235
 20
4748.50999
 30
0.0
  0
VERTEX
  8
HATCH
 10
4753.131597
 20
4761.37309
 30
0.0
  0
VERTEX
  8
HATCH
 10
4751.730317
 20
4771.663569
 30
0.0
  0
VERTEX
  8
HATCH
 10
4729.309834
 20
4782.811589
 30
0.0
  0
VERTEX
  8
HATCH
 10
4727.908554
 20
4779.381429
 30
0.0
  0
SEQEND
  8
HATCH
  0
POLYLINE
  8
HATCH
 66
     1
 10
0.0
 20
0.0
 30
0.0
  0
VERTEX
  8
HATCH
 10
4841.412247
 20
4940.598944
 30
0.0
  0
VERTEX
  8
HATCH
 10
4835.807126
 20
4913.157665
 30
0.0
  0
VERTEX
  8
HATCH
 10
4856.826328
 20
4897.721945
 30
0.0
  0
VERTEX
  8
HATCH
 10
4870.83913
 20
4911.442585
 30
0.0
  0
VERTEX
  8
HATCH
 10
4858.227609
 20
4935.453704
 30
0.0
  0
VERTEX
  8
HATCH
 10
4842.813527
 20
4939.741404
 30
0.0
  0
SEQEND
  8
HATCH
  0
POLYLINE
  8
HATCH
 66
     1
 10
0.0
 20
0.0
 30
0.0
  0
VERTEX
  8
HATCH
 10
4957.7185
 20
4942.314024
 30
0.0
  0
VERTEX
  8
HATCH
 10
4931.094177
 20
4932.881084
 30
0.0
  0
VERTEX
  8
HATCH
 10
4952.113379
 20
4906.297345
 30
0.0
  0
VERTEX
  8
HATCH
 10
4977.336422
 20
4908.012425
 30
0.0
  0
VERTEX
  8
HATCH
 10
4977.336422
 20
4932.881084
 30
0.0
  0
VERTEX
  8
HATCH
 10
4956.317219
 20
4944.029104
 30
0.0
  0
SEQEND
  8
HATCH
  0
POLYLINE
  8
HATCH
 66
     1
 10
0.0
 20
0.0
 30
0.0
  0
VERTEX
  8
HATCH
 10
4959.11978
 20
4777.666349
 30
0.0
  0
VERTEX
  8
HATCH
 10
4950.712099
 20
4759.65801
 30
0.0
  0
VERTEX
  8
HATCH
 10
4963.32362
 20
4750.22507
 30
0.0
  0
VERTEX
  8
HATCH
 10
4984.342822
 20
4756.22785
 30
0.0
  0
VERTEX
  8
HATCH
 10
4982.941542
 20
4770.806029
 30
0.0
  0
VERTEX
  8
HATCH
 10
4960.52106
 20
4785.384209
 30
0.0
  0
VERTEX
  8
HATCH
 10
4957.7185
 20
4778.523889
 30
0.0
  0
SEQEND
  8
HATCH
  0
POLYLINE
  8
HATCH
 66
     1
 10
0.0
 20
0.0
 30
0.0
  0
VERTEX
  8
HATCH
 10
4842.813527
 20
4781.954049
 30
0.0
  0
VERTEX
  8
HATCH
 10
4831.603286
 20
4758.80047
 30
0.0
  0
VERTEX
  8
HATCH
 10
4848.418648
 20
4748.50999
 30
0.0
  0
VERTEX
  8
HATCH
 10
4873.64169
 20
4758.80047
 30
0.0
  0
VERTEX
  8
HATCH
 10
4861.030169
 20
4769.948489
 30
0.0
  0
VERTEX
  8
HATCH
 10
4842.813527
 20
4781.954049
 30
0.0
  0
SEQEND
  8
HATCH
  0
POLYLINE
  8
HATCH
 66
     1
 10
0.0
 20
0.0
 30
0.0
  0
VERTEX
  8
HATCH
 10
5072.623472
 20
4937.168784
 30
0.0
  0
VERTEX
  8
HATCH
 10
5060.011951
 20
4923.448145
 30
0.0
  0
VERTEX
  8
HATCH
 10
5075.426032
 20
4897.721945
 30
0.0
  0
VERTEX
  8
HATCH
 10
5099.247795
 20
4911.442585
 30
0.0
  0
VERTEX
  8
HATCH
 10
5090.840114
 20
4932.023544
 30
0.0
  0
VERTEX
  8
HATCH
 10
5078.228593
 20
4939.741404
 30
0.0
  0
SEQEND
  8
HATCH
  0
POLYLINE
  8
HATCH
 66
     1
 10
0.0
 20
0.0
 30
0.0
  0
VERTEX
  8
HATCH
 10
5067.018352
 20
4793.102069
 30
0.0
  0
VERTEX
  8
HATCH
 10
5050.20299
 20
4770.806029
 30
0.0
  0
VERTEX
  8
HATCH
 10
5060.011951
 20
4747.65245
 30
0.0
  0
VERTEX
  8
HATCH
 10
5088.037554
 20
4758.80047
 30
0.0
  0
VERTEX
  8
HATCH
 10
5083.833713
 20
4779.381429
 30
0.0
  0
VERTEX
  8
HATCH
 10
5068.419632
 20
4793.959609
 30
0.0
  0
SEQEND
  8
HATCH
  0
POLYLINE
  8
HATCH
 66
     1
 10
0.0
 20
0.0
 30
0.0
  0
VERTEX
  8
HATCH
 10
6218.450476
 20
4781.954049
 30
0.0
  0
VERTEX
  8
HATCH
 10
6229.660717
 20
4758.80047
 30
0.0
  0
VERTEX
  8
HATCH
 10
6212.845355
 20
4748.50999
 30
0.0
  0
VERTEX
  8
HATCH
 10
6187.622312
 20
4758.80047
 30
0.0
  0
VERTEX
  8
HATCH
 10
6200.233834
 20
4769.948489
 30
0.0
  0
VERTEX
  8
HATCH
 10
6218.450476
 20
4781.954049
 30
0.0
  0
SEQEND
  8
HATCH
  0
POLYLINE
  8
HATCH
 66
     1
 10
0.0
 20
0.0
 30
0.0
  0
VERTEX
  8
HATCH
 10
6102.144223
 20
4777.666349
 30
0.0
  0
VERTEX
  8
HATCH
 10
6110.551904
 20
4759.65801
 30
0.0
  0
VERTEX
  8
HATCH
 10
6097.940382
 20
4750.22507
 30
0.0
  0
VERTEX
  8
HATCH
 10
6076.92118
 20
4756.22785
 30
0.0
  0
VERTEX
  8
HATCH
 10
6078.32246
 20
4770.806029
 30
0.0
  0
VERTEX
  8
HATCH
 10
6100.742943
 20
4785.384209
 30
0.0
  0
VERTEX
  8
HATCH
 10
6103.545503
 20
4778.523889
 30
0.0
  0
SEQEND
  8
HATCH
  0
POLYLINE
  8
HATCH
 66
     1
 10
0.0
 20
0.0
 30
0.0
  0
VERTEX
  8
HATCH
 10
6103.545503
 20
4942.314024
 30
0.0
  0
VERTEX
  8
HATCH
 10
6130.169826
 20
4932.881084
 30
0.0
  0
VERTEX
  8
HATCH
 10
6109.150624
 20
4906.297345
 30
0.0
  0
VERTEX
  8
HATCH
 10
6083.927581
 20
4908.012425
 30
0.0
  0
VERTEX
  8
HATCH
 10
6083.927581
 20
4932.881084
 30
0.0
  0
VERTEX
  8
HATCH
 10
6104.946783
 20
4944.029104
 30
0.0
  0
SEQEND
  8
HATCH
  0
POLYLINE
  8
HATCH
 66
     1
 10
0.0
 20
0.0
 30
0.0
  0
VERTEX
  8
HATCH
 10
6219.851756
 20
4940.598944
 30
0.0
  0
VERTEX
  8
HATCH
 10
6225.456876
 20
4913.157665
 30
0.0
  0
VERTEX
  8
HATCH
 10
6204.437674
 20
4897.721945
 30
0.0
  0
VERTEX
  8
HATCH
 10
6190.424873
 20
4911.442585
 30
0.0
  0
VERTEX
  8
HATCH
 10
6203.036394
 20
4935.453704
 30
0.0
  0
VERTEX
  8
HATCH
 10
6218.450476
 20
4939.741404
 30
0.0
  0
SEQEND
  8
HATCH
  0
POLYLINE
  8
HATCH
 66
     1
 10
0.0
 20
0.0
 30
0.0
  0
VERTEX
  8
HATCH
 10
6331.954168
 20
4779.381429
 30
0.0
  0
VERTEX
  8
HATCH
 10
6340.361849
 20
4761.37309
 30
0.0
  0
VERTEX
  8
HATCH
 10
6324.947767
 20
4748.50999
 30
0.0
  0
VERTEX
  8
HATCH
 10
6308.132405
 20
4761.37309
 30
0.0
  0
VERTEX
  8
HATCH
 10
6309.533686
 20
4771.663569
 30
0.0
  0
VERTEX
  8
HATCH
 10
6331.954168
 20
4782.811589
 30
0.0
  0
VERTEX
  8
HATCH
 10
6333.355448
 20
4779.381429
 30
0.0
  0
SEQEND
  8
HATCH
  0
POLYLINE
  8
HATCH
 66
     1
 10
0.0
 20
0.0
 30
0.0
  0
VERTEX
  8
HATCH
 10
6337.559289
 20
4939.741404
 30
0.0
  0
VERTEX
  8
HATCH
 10
6347.36825
 20
4921.733065
 30
0.0
  0
VERTEX
  8
HATCH
 10
6327.750328
 20
4905.439805
 30
0.0
  0
VERTEX
  8
HATCH
 10
6312.336246
 20
4919.160445
 30
0.0
  0
VERTEX
  8
HATCH
 10
6326.349047
 20
4937.168784
 30
0.0
  0
VERTEX
  8
HATCH
 10
6333.355448
 20
4939.741404
 30
0.0
  0
SEQEND
  8
HATCH
  0
POLYLINE
  8
HATCH
 66
     1
 10
0.0
 20
0.0
 30
0.0
  0
VERTEX
  8
HATCH
 10
6458.069382
 20
4794.817149
 30
0.0
  0
VERTEX
  8
HATCH
 10
6481.891145
 20
4769.948489
 30
0.0
  0
VERTEX
  8
HATCH
 10
6466.477063
 20
4750.22507
 30
0.0
  0
VERTEX
  8
HATCH
 10
6444.05658
 20
4751.08261
 30
0.0
  0
VERTEX
  8
HATCH
 10
6446.859141
 20
4771.663569
 30
0.0
  0
VERTEX
  8
HATCH
 10
6458.069382
 20
4792.244529
 30
0.0
  0
SEQEND
  8
HATCH
  0
POLYLINE
  8
HATCH
 66
     1
 10
0.0
 20
0.0
 30
0.0
  0
VERTEX
  8
HATCH
 10
6462.273222
 20
4942.314024
 30
0.0
  0
VERTEX
  8
HATCH
 10
6480.489864
 20
4931.166004
 30
0.0
  0
VERTEX
  8
HATCH
 10
6465.075783
 20
4911.442585
 30
0.0
  0
VERTEX
  8
HATCH
 10
6444.05658
 20
4905.439805
 30
0.0
  0
VERTEX
  8
HATCH
 10
6430.043779
 20
4932.881084
 30
0.0
  0
VERTEX
  8
HATCH
 10
6466.477063
 20
4940.598944
 30
0.0
  0
SEQEND
  8
HATCH
  0
POLYLINE
  8
HATCH
 66
     1
 10
0.0
 20
0.0
 30
0.0
  0
VERTEX
  8
HATCH
 10
6166.60311
 20
4942.314024
 30
0.0
  0
VERTEX
  8
HATCH
 10
6215.647915
 20
4869.423126
 30
0.0
  0
VERTEX
  8
HATCH
 10
6210.042795
 20
4784.526669
 30
0.0
  0
VERTEX
  8
HATCH
 10
6168.00439
 20
4754.51277
 30
0.0
  0
VERTEX
  8
HATCH
 10
6135.774947
 20
4746.79491
 30
0.0
  0
VERTEX
  8
HATCH
 10
6099.341663
 20
4794.817149
 30
0.0
  0
VERTEX
  8
HATCH
 10
6110.551904
 20
4893.434245
 30
0.0
  0
VERTEX
  8
HATCH
 10
6142.781347
 20
4931.166004
 30
0.0
  0
VERTEX
  8
HATCH
 10
6165.20183
 20
4942.314024
 30
0.0
  0
SEQEND
  8
HATCH
  0
POLYLINE
  8
HATCH
 66
     1
 10
0.0
 20
0.0
 30
0.0
  0
VERTEX
  8
HATCH
 10
6273.100402
 20
4939.741404
 30
0.0
  0
VERTEX
  8
HATCH
 10
6320.743927
 20
4906.297345
 30
0.0
  0
VERTEX
  8
HATCH
 10
6324.947767
 20
4859.990187
 30
0.0
  0
VERTEX
  8
HATCH
 10
6320.743927
 20
4789.671909
 30
0.0
  0
VERTEX
  8
HATCH
 10
6289.915763
 20
4762.23063
 30
0.0
  0
VERTEX
  8
HATCH
 10
6239.469678
 20
4746.79491
 30
0.0
  0
VERTEX
  8
HATCH
 10
6218.450476
 20
4802.535008
 30
0.0
  0
VERTEX
  8
HATCH
 10
6215.647915
 20
4897.721945
 30
0.0
  0
VERTEX
  8
HATCH
 10
6260.48888
 20
4938.883864
 30
0.0
  0
VERTEX
  8
HATCH
 10
6273.100402
 20
4938.883864
 30
0.0
  0
SEQEND
  8
HATCH
  0
POLYLINE
  8
HATCH
 66
     1
 10
0.0
 20
0.0
 30
0.0
  0
VERTEX
  8
HATCH
 10
6386.604094
 20
4943.171564
 30
0.0
  0
VERTEX
  8
HATCH
 10
6435.648899
 20
4909.727505
 30
0.0
  0
VERTEX
  8
HATCH
 10
6453.865541
 20
4850.557247
 30
0.0
  0
VERTEX
  8
HATCH
 10
6441.25402
 20
4779.381429
 30
0.0
  0
VERTEX
  8
HATCH
 10
6389.406654
 20
4746.79491
 30
0.0
  0
VERTEX
  8
HATCH
 10
6341.763129
 20
4759.65801
 30
0.0
  0
VERTEX
  8
HATCH
 10
6327.750328
 20
4836.836607
 30
0.0
  0
VERTEX
  8
HATCH
 10
6344.565689
 20
4920.017985
 30
0.0
  0
VERTEX
  8
HATCH
 10
6385.202814
 20
4943.171564
 30
0.0
  0
SEQEND
  8
HATCH
  0
POLYLINE
  8
HATCH
 66
     1
 10
0.0
 20
0.0
 30
0.0
  0
VERTEX
  8
HATCH
 10
5994.245651
 20
4793.102069
 30
0.0
  0
VERTEX
  8
HATCH
 10
6011.061013
 20
4770.806029
 30
0.0
  0
VERTEX
  8
HATCH
 10
6001.252052
 20
4747.65245
 30
0.0
  0
VERTEX
  8
HATCH
 10
5973.226449
 20
4758.80047
 30
0.0
  0
VERTEX
  8
HATCH
 10
5977.430289
 20
4779.381429
 30
0.0
  0
VERTEX
  8
HATCH
 10
5992.844371
 20
4793.959609
 30
0.0
  0
SEQEND
  8
HATCH
  0
POLYLINE
  8
HATCH
 66
     1
 10
0.0
 20
0.0
 30
0.0
  0
VERTEX
  8
HATCH
 10
6033.481495
 20
4939.741404
 30
0.0
  0
VERTEX
  8
HATCH
 10
6097.940382
 20
4900.294565
 30
0.0
  0
VERTEX
  8
HATCH
 10
6104.946783
 20
4849.699707
 30
0.0
  0
VERTEX
  8
HATCH
 10
6089.532701
 20
4781.954049
 30
0.0
  0
VERTEX
  8
HATCH
 10
6025.073814
 20
4747.65245
 30
0.0
  0
VERTEX
  8
HATCH
 10
5998.449492
 20
4802.535008
 30
0.0
  0
VERTEX
  8
HATCH
 10
5995.646931
 20
4892.576706
 30
0.0
  0
VERTEX
  8
HATCH
 10
6012.462293
 20
4929.450924
 30
0.0
  0
VERTEX
  8
HATCH
 10
6032.080215
 20
4939.741404
 30
0.0
  0
SEQEND
  8
HATCH
  0
POLYLINE
  8
HATCH
 66
     1
 10
0.0
 20
0.0
 30
0.0
  0
VERTEX
  8
HATCH
 10
5988.64053
 20
4937.168784
 30
0.0
  0
VERTEX
  8
HATCH
 10
6001.252052
 20
4923.448145
 30
0.0
  0
VERTEX
  8
HATCH
 10
5985.83797
 20
4897.721945
 30
0.0
  0
VERTEX
  8
HATCH
 10
5962.016208
 20
4911.442585
 30
0.0
  0
VERTEX
  8
HATCH
 10
5970.423888
 20
4932.023544
 30
0.0
  0
VERTEX
  8
HATCH
 10
5983.03541
 20
4939.741404
 30
0.0
  0
SEQEND
  8
HATCH
  0
POLYLINE
  8
HATCH
 66
     1
 10
0.0
 20
0.0
 30
0.0
  0
VERTEX
  8
HATCH
 10
6493.101386
 20
4935.453704
 30
0.0
  0
VERTEX
  8
HATCH
 10
6549.152592
 20
4913.157665
 30
0.0
  0
VERTEX
  8
HATCH
 10
6582.783316
 20
4869.423126
 30
0.0
  0
VERTEX
  8
HATCH
 10
6581.382035
 20
4808.537788
 30
0.0
  0
VERTEX
  8
HATCH
 10
6539.343631
 20
4762.23063
 30
0.0
  0
VERTEX
  8
HATCH
 10
6500.107787
 20
4748.50999
 30
0.0
  0
VERTEX
  8
HATCH
 10
6470.680903
 20
4793.102069
 30
0.0
  0
VERTEX
  8
HATCH
 10
6448.260421
 20
4883.143766
 30
0.0
  0
VERTEX
  8
HATCH
 10
6491.700106
 20
4935.453704
 30
0.0
  0
SEQEND
  8
HATCH
  0
POLYLINE
  8
HATCH
 66
     1
 10
0.0
 20
0.0
 30
0.0
  0
VERTEX
  8
HATCH
 10
6581.382035
 20
4784.526669
 30
0.0
  0
VERTEX
  8
HATCH
 10
6585.585876
 20
4759.65801
 30
0.0
  0
VERTEX
  8
HATCH
 10
6560.362833
 20
4750.22507
 30
0.0
  0
VERTEX
  8
HATCH
 10
6554.757713
 20
4766.518329
 30
0.0
  0
VERTEX
  8
HATCH
 10
6574.375635
 20
4781.096509
 30
0.0
  0
VERTEX
  8
HATCH
 10
6582.783316
 20
4784.526669
 30
0.0
  0
SEQEND
  8
HATCH
  0
POLYLINE
  8
HATCH
 66
     1
 10
0.0
 20
0.0
 30
0.0
  0
VERTEX
  8
HATCH
 10
6577.178195
 20
4940.598944
 30
0.0
  0
VERTEX
  8
HATCH
 10
6586.987156
 20
4919.160445
 30
0.0
  0
VERTEX
  8
HATCH
 10
6568.770514
 20
4901.152105
 30
0.0
  0
VERTEX
  8
HATCH
 10
6537.942351
 20
4921.733065
 30
0.0
  0
VERTEX
  8
HATCH
 10
6549.152592
 20
4938.883864
 30
0.0
  0
VERTEX
  8
HATCH
 10
6574.375635
 20
4940.598944
 30
0.0
  0
SEQEND
  8
HATCH
  0
POLYLINE
  8
HATCH
 66
     1
 10
0.0
 20
0.0
 30
0.0
  0
VERTEX
  8
HATCH
 10
4436.878882
 20
4935.453704
 30
0.0
  0
VERTEX
  8
HATCH
 10
4380.827676
 20
4913.157665
 30
0.0
  0
VERTEX
  8
HATCH
 10
4347.196952
 20
4869.423126
 30
0.0
  0
VERTEX
  8
HATCH
 10
4348.598232
 20
4808.537788
 30
0.0
  0
VERTEX
  8
HATCH
 10
4390.636637
 20
4762.23063
 30
0.0
  0
VERTEX
  8
HATCH
 10
4429.872481
 20
4748.50999
 30
0.0
  0
VERTEX
  8
HATCH
 10
4459.299364
 20
4793.102069
 30
0.0
  0
VERTEX
  8
HATCH
 10
4481.719847
 20
4883.143766
 30
0.0
  0
VERTEX
  8
HATCH
 10
4438.280162
 20
4935.453704
 30
0.0
  0
SEQEND
  8
HATCH
  0
POLYLINE
  8
HATCH
 66
     1
 10
0.0
 20
0.0
 30
0.0
  0
VERTEX
  8
HATCH
 10
4352.802073
 20
4940.598944
 30
0.0
  0
VERTEX
  8
HATCH
 10
4342.993112
 20
4919.160445
 30
0.0
  0
VERTEX
  8
HATCH
 10
4361.209754
 20
4901.152105
 30
0.0
  0
VERTEX
  8
HATCH
 10
4392.037917
 20
4921.733065
 30
0.0
  0
VERTEX
  8
HATCH
 10
4380.827676
 20
4938.883864
 30
0.0
  0
VERTEX
  8
HATCH
 10
4355.604633
 20
4940.598944
 30
0.0
  0
SEQEND
  8
HATCH
  0
POLYLINE
  8
HATCH
 66
     1
 10
0.0
 20
0.0
 30
0.0
  0
VERTEX
  8
HATCH
 10
4348.598232
 20
4784.526669
 30
0.0
  0
VERTEX
  8
HATCH
 10
4344.394392
 20
4759.65801
 30
0.0
  0
VERTEX
  8
HATCH
 10
4369.617435
 20
4750.22507
 30
0.0
  0
VERTEX
  8
HATCH
 10
4375.222555
 20
4766.518329
 30
0.0
  0
VERTEX
  8
HATCH
 10
4355.604633
 20
4781.096509
 30
0.0
  0
VERTEX
  8
HATCH
 10
4347.196952
 20
4784.526669
 30
0.0
  0
SEQEND
  8
HATCH
  0
POLYLINE
  8
HATCH
 66
     1
 10
0.0
 20
0.0
 30
0.0
  0
VERTEX
  8
HATCH
 10
4301.49253
 20
4935.453704
 30
0.0
  0
VERTEX
  8
HATCH
 10
4245.441324
 20
4913.157665
 30
0.0
  0
VERTEX
  8
HATCH
 10
4211.8106
 20
4869.423126
 30
0.0
  0
VERTEX
  8
HATCH
 10
4213.211881
 20
4808.537788
 30
0.0
  0
VERTEX
  8
HATCH
 10
4255.250285
 20
4762.23063
 30
0.0
  0
VERTEX
  8
HATCH
 10
4294.48613
 20
4748.50999
 30
0.0
  0
VERTEX
  8
HATCH
 10
4323.913013
 20
4793.102069
 30
0.0
  0
VERTEX
  8
HATCH
 10
4346.333495
 20
4883.143766
 30
0.0
  0
VERTEX
  8
HATCH
 10
4302.89381
 20
4935.453704
 30
0.0
  0
SEQEND
  8
HATCH
  0
POLYLINE
  8
HATCH
 66
     1
 10
0.0
 20
0.0
 30
0.0
  0
VERTEX
  8
HATCH
 10
4217.415721
 20
4940.598944
 30
0.0
  0
VERTEX
  8
HATCH
 10
4207.60676
 20
4919.160445
 30
0.0
  0
VERTEX
  8
HATCH
 10
4225.823402
 20
4901.152105
 30
0.0
  0
VERTEX
  8
HATCH
 10
4256.651565
 20
4921.733065
 30
0.0
  0
VERTEX
  8
HATCH
 10
4245.441324
 20
4938.883864
 30
0.0
  0
VERTEX
  8
HATCH
 10
4220.218281
 20
4940.598944
 30
0.0
  0
SEQEND
  8
HATCH
  0
POLYLINE
  8
HATCH
 66
     1
 10
0.0
 20
0.0
 30
0.0
  0
VERTEX
  8
HATCH
 10
4213.211881
 20
4784.526669
 30
0.0
  0
VERTEX
  8
HATCH
 10
4209.00804
 20
4759.65801
 30
0.0
  0
VERTEX
  8
HATCH
 10
4234.231083
 20
4750.22507
 30
0.0
  0
VERTEX
  8
HATCH
 10
4239.836204
 20
4766.518329
 30
0.0
  0
VERTEX
  8
HATCH
 10
4220.218281
 20
4781.096509
 30
0.0
  0
VERTEX
  8
HATCH
 10
4211.8106
 20
4784.526669
 30
0.0
  0
SEQEND
  8
HATCH
  0
POLYLINE
  8
HATCH
 66
     1
 10
0.0
 20
0.0
 30
0.0
  0
VERTEX
  8
HATCH
 10
6684.237299
 20
4935.453704
 30
0.0
  0
VERTEX
  8
HATCH
 10
6740.288505
 20
4913.157665
 30
0.0
  0
VERTEX
  8
HATCH
 10
6773.919229
 20
4869.423126
 30
0.0
  0
VERTEX
  8
HATCH
 10
6772.517949
 20
4808.537788
 30
0.0
  0
VERTEX
  8
HATCH
 10
6730.479544
 20
4762.23063
 30
0.0
  0
VERTEX
  8
HATCH
 10
6691.2437
 20
4748.50999
 30
0.0
  0
VERTEX
  8
HATCH
 10
6661.816817
 20
4793.102069
 30
0.0
  0
VERTEX
  8
HATCH
 10
6639.396334
 20
4883.143766
 30
0.0
  0
VERTEX
  8
HATCH
 10
6682.836019
 20
4935.453704
 30
0.0
  0
SEQEND
  8
HATCH
  0
POLYLINE
  8
HATCH
 66
     1
 10
0.0
 20
0.0
 30
0.0
  0
VERTEX
  8
HATCH
 10
6768.314108
 20
4940.598944
 30
0.0
  0
VERTEX
  8
HATCH
 10
6778.12307
 20
4919.160445
 30
0.0
  0
VERTEX
  8
HATCH
 10
6759.906428
 20
4901.152105
 30
0.0
  0
VERTEX
  8
HATCH
 10
6729.078264
 20
4921.733065
 30
0.0
  0
VERTEX
  8
HATCH
 10
6740.288505
 20
4938.883864
 30
0.0
  0
VERTEX
  8
HATCH
 10
6765.511548
 20
4940.598944
 30
0.0
  0
SEQEND
  8
HATCH
  0
POLYLINE
  8
HATCH
 66
     1
 10
0.0
 20
0.0
 30
0.0
  0
VERTEX
  8
HATCH
 10
6772.517949
 20
4784.526669
 30
0.0
  0
VERTEX
  8
HATCH
 10
6776.721789
 20
4759.65801
 30
0.0
  0
VERTEX
  8
HATCH
 10
6751.498747
 20
4750.22507
 30
0.0
  0
VERTEX
  8
HATCH
 10
6745.893626
 20
4766.518329
 30
0.0
  0
VERTEX
  8
HATCH
 10
6765.511548
 20
4781.096509
 30
0.0
  0
VERTEX
  8
HATCH
 10
6773.919229
 20
4784.526669
 30
0.0
  0
SEQEND
  8
HATCH
  0
POLYLINE
  8
HATCH
 66
     1
 10
0.0
 20
0.0
 30
0.0
  0
VERTEX
  8
HATCH
 10
6637.131597
 20
4784.526669
 30
0.0
  0
VERTEX
  8
HATCH
 10
6641.335438
 20
4759.65801
 30
0.0
  0
VERTEX
  8
HATCH
 10
6616.112395
 20
4750.22507
 30
0.0
  0
VERTEX
  8
HATCH
 10
6610.507274
 20
4766.518329
 30
0.0
  0
VERTEX
  8
HATCH
 10
6630.125197
 20
4781.096509
 30
0.0
  0
VERTEX
  8
HATCH
 10
6638.532878
 20
4784.526669
 30
0.0
  0
SEQEND
  8
HATCH
  0
POLYLINE
  8
HATCH
 66
     1
 10
0.0
 20
0.0
 30
0.0
  0
VERTEX
  8
HATCH
 10
6548.850948
 20
4935.453704
 30
0.0
  0
VERTEX
  8
HATCH
 10
6604.902154
 20
4913.157665
 30
0.0
  0
VERTEX
  8
HATCH
 10
6638.532878
 20
4869.423126
 30
0.0
  0
VERTEX
  8
HATCH
 10
6637.131597
 20
4808.537788
 30
0.0
  0
VERTEX
  8
HATCH
 10
6595.093193
 20
4762.23063
 30
0.0
  0
VERTEX
  8
HATCH
 10
6555.857348
 20
4748.50999
 30
0.0
  0
VERTEX
  8
HATCH
 10
6526.430465
 20
4793.102069
 30
0.0
  0
VERTEX
  8
HATCH
 10
6504.009983
 20
4883.143766
 30
0.0
  0
VERTEX
  8
HATCH
 10
6547.449668
 20
4935.453704
 30
0.0
  0
SEQEND
  8
HATCH
  0
POLYLINE
  8
HATCH
 66
     1
 10
0.0
 20
0.0
 30
0.0
  0
VERTEX
  8
HATCH
 10
6632.927757
 20
4940.598944
 30
0.0
  0
VERTEX
  8
HATCH
 10
6642.736718
 20
4919.160445
 30
0.0
  0
VERTEX
  8
HATCH
 10
6624.520076
 20
4901.152105
 30
0.0
  0
VERTEX
  8
HATCH
 10
6593.691913
 20
4921.733065
 30
0.0
  0
VERTEX
  8
HATCH
 10
6604.902154
 20
4938.883864
 30
0.0
  0
VERTEX
  8
HATCH
 10
6630.125197
 20
4940.598944
 30
0.0
  0
SEQEND
  8
HATCH
  0
POLYLINE
  8
HATCH
 66
     1
 10
0.0
 20
0.0
 30
0.0
  0
VERTEX
  8
HATCH
 10
15765.352563
 20
4941.435835
 30
0.0
  0
VERTEX
  8
HATCH
 10
15775.161524
 20
4919.997336
 30
0.0
  0
VERTEX
  8
HATCH
 10
15756.944882
 20
4901.988997
 30
0.0
  0
VERTEX
  8
HATCH
 10
15726.116719
 20
4922.569956
 30
0.0
  0
VERTEX
  8
HATCH
 10
15737.32696
 20
4939.720755
 30
0.0
  0
VERTEX
  8
HATCH
 10
15762.550003
 20
4941.435835
 30
0.0
  0
SEQEND
  8
HATCH
  0
POLYLINE
  8
HATCH
 66
     1
 10
0.0
 20
0.0
 30
0.0
  0
VERTEX
  8
HATCH
 10
15681.275754
 20
4936.290596
 30
0.0
  0
VERTEX
  8
HATCH
 10
15737.32696
 20
4913.994556
 30
0.0
  0
VERTEX
  8
HATCH
 10
15770.957684
 20
4870.260018
 30
0.0
  0
VERTEX
  8
HATCH
 10
15769.556404
 20
4809.374679
 30
0.0
  0
VERTEX
  8
HATCH
 10
15727.517999
 20
4763.067521
 30
0.0
  0
VERTEX
  8
HATCH
 10
15688.282155
 20
4749.346881
 30
0.0
  0
VERTEX
  8
HATCH
 10
15658.855272
 20
4793.93896
 30
0.0
  0
VERTEX
  8
HATCH
 10
15636.434789
 20
4883.980657
 30
0.0
  0
VERTEX
  8
HATCH
 10
15679.874474
 20
4936.290596
 30
0.0
  0
SEQEND
  8
HATCH
  0
POLYLINE
  8
HATCH
 66
     1
 10
0.0
 20
0.0
 30
0.0
  0
VERTEX
  8
HATCH
 10
15769.556404
 20
4785.36356
 30
0.0
  0
VERTEX
  8
HATCH
 10
15773.760244
 20
4760.494901
 30
0.0
  0
VERTEX
  8
HATCH
 10
15748.537202
 20
4751.061961
 30
0.0
  0
VERTEX
  8
HATCH
 10
15742.932081
 20
4767.355221
 30
0.0
  0
VERTEX
  8
HATCH
 10
15762.550003
 20
4781.9334
 30
0.0
  0
VERTEX
  8
HATCH
 10
15770.957684
 20
4785.36356
 30
0.0
  0
SEQEND
  8
HATCH
  0
POLYLINE
  8
HATCH
 66
     1
 10
0.0
 20
0.0
 30
0.0
  0
VERTEX
  8
HATCH
 10
15904.942755
 20
4785.36356
 30
0.0
  0
VERTEX
  8
HATCH
 10
15909.146596
 20
4760.494901
 30
0.0
  0
VERTEX
  8
HATCH
 10
15883.923553
 20
4751.061961
 30
0.0
  0
VERTEX
  8
HATCH
 10
15878.318432
 20
4767.355221
 30
0.0
  0
VERTEX
  8
HATCH
 10
15897.936355
 20
4781.9334
 30
0.0
  0
VERTEX
  8
HATCH
 10
15906.344036
 20
4785.36356
 30
0.0
  0
SEQEND
  8
HATCH
  0
POLYLINE
  8
HATCH
 66
     1
 10
0.0
 20
0.0
 30
0.0
  0
VERTEX
  8
HATCH
 10
15900.738915
 20
4941.435835
 30
0.0
  0
VERTEX
  8
HATCH
 10
15910.547876
 20
4919.997336
 30
0.0
  0
VERTEX
  8
HATCH
 10
15892.331234
 20
4901.988997
 30
0.0
  0
VERTEX
  8
HATCH
 10
15861.503071
 20
4922.569956
 30
0.0
  0
VERTEX
  8
HATCH
 10
15872.713312
 20
4939.720755
 30
0.0
  0
VERTEX
  8
HATCH
 10
15897.936355
 20
4941.435835
 30
0.0
  0
SEQEND
  8
HATCH
  0
POLYLINE
  8
HATCH
 66
     1
 10
0.0
 20
0.0
 30
0.0
  0
VERTEX
  8
HATCH
 10
15816.662106
 20
4936.290596
 30
0.0
  0
VERTEX
  8
HATCH
 10
15872.713312
 20
4913.994556
 30
0.0
  0
VERTEX
  8
HATCH
 10
15906.344036
 20
4870.260018
 30
0.0
  0
VERTEX
  8
HATCH
 10
15904.942755
 20
4809.374679
 30
0.0
  0
VERTEX
  8
HATCH
 10
15862.904351
 20
4763.067521
 30
0.0
  0
VERTEX
  8
HATCH
 10
15823.668506
 20
4749.346881
 30
0.0
  0
VERTEX
  8
HATCH
 10
15794.241623
 20
4793.93896
 30
0.0
  0
VERTEX
  8
HATCH
 10
15771.821141
 20
4883.980657
 30
0.0
  0
VERTEX
  8
HATCH
 10
15815.260826
 20
4936.290596
 30
0.0
  0
SEQEND
  8
HATCH
  0
POLYLINE
  8
HATCH
 66
     1
 10
0.0
 20
0.0
 30
0.0
  0
VERTEX
  8
HATCH
 10
13345.636687
 20
4785.36356
 30
0.0
  0
VERTEX
  8
HATCH
 10
13341.432847
 20
4760.494901
 30
0.0
  0
VERTEX
  8
HATCH
 10
13366.655889
 20
4751.061961
 30
0.0
  0
VERTEX
  8
HATCH
 10
13372.26101
 20
4767.355221
 30
0.0
  0
VERTEX
  8
HATCH
 10
13352.643088
 20
4781.9334
 30
0.0
  0
VERTEX
  8
HATCH
 10
13344.235407
 20
4785.36356
 30
0.0
  0
SEQEND
  8
HATCH
  0
POLYLINE
  8
HATCH
 66
     1
 10
0.0
 20
0.0
 30
0.0
  0
VERTEX
  8
HATCH
 10
13349.840528
 20
4941.435835
 30
0.0
  0
VERTEX
  8
HATCH
 10
13340.031566
 20
4919.997336
 30
0.0
  0
VERTEX
  8
HATCH
 10
13358.248208
 20
4901.988997
 30
0.0
  0
VERTEX
  8
HATCH
 10
13389.076372
 20
4922.569956
 30
0.0
  0
VERTEX
  8
HATCH
 10
13377.866131
 20
4939.720755
 30
0.0
  0
VERTEX
  8
HATCH
 10
13352.643088
 20
4941.435835
 30
0.0
  0
SEQEND
  8
HATCH
  0
POLYLINE
  8
HATCH
 66
     1
 10
0.0
 20
0.0
 30
0.0
  0
VERTEX
  8
HATCH
 10
13433.917337
 20
4936.290596
 30
0.0
  0
VERTEX
  8
HATCH
 10
13377.866131
 20
4913.994556
 30
0.0
  0
VERTEX
  8
HATCH
 10
13344.235407
 20
4870.260018
 30
0.0
  0
VERTEX
  8
HATCH
 10
13345.636687
 20
4809.374679
 30
0.0
  0
VERTEX
  8
HATCH
 10
13387.675092
 20
4763.067521
 30
0.0
  0
VERTEX
  8
HATCH
 10
13426.910936
 20
4749.346881
 30
0.0
  0
VERTEX
  8
HATCH
 10
13456.337819
 20
4793.93896
 30
0.0
  0
VERTEX
  8
HATCH
 10
13478.758302
 20
4883.980657
 30
0.0
  0
VERTEX
  8
HATCH
 10
13435.318617
 20
4936.290596
 30
0.0
  0
SEQEND
  8
HATCH
  0
POLYLINE
  8
HATCH
 66
     1
 10
0.0
 20
0.0
 30
0.0
  0
VERTEX
  8
HATCH
 10
13481.023039
 20
4785.36356
 30
0.0
  0
VERTEX
  8
HATCH
 10
13476.819198
 20
4760.494901
 30
0.0
  0
VERTEX
  8
HATCH
 10
13502.042241
 20
4751.061961
 30
0.0
  0
VERTEX
  8
HATCH
 10
13507.647362
 20
4767.355221
 30
0.0
  0
VERTEX
  8
HATCH
 10
13488.029439
 20
4781.9334
 30
0.0
  0
VERTEX
  8
HATCH
 10
13479.621759
 20
4785.36356
 30
0.0
  0
SEQEND
  8
HATCH
  0
POLYLINE
  8
HATCH
 66
     1
 10
0.0
 20
0.0
 30
0.0
  0
VERTEX
  8
HATCH
 10
13485.226879
 20
4941.435835
 30
0.0
  0
VERTEX
  8
HATCH
 10
13475.417918
 20
4919.997336
 30
0.0
  0
VERTEX
  8
HATCH
 10
13493.63456
 20
4901.988997
 30
0.0
  0
VERTEX
  8
HATCH
 10
13524.462723
 20
4922.569956
 30
0.0
  0
VERTEX
  8
HATCH
 10
13513.252482
 20
4939.720755
 30
0.0
  0
VERTEX
  8
HATCH
 10
13488.029439
 20
4941.435835
 30
0.0
  0
SEQEND
  8
HATCH
  0
POLYLINE
  8
HATCH
 66
     1
 10
0.0
 20
0.0
 30
0.0
  0
VERTEX
  8
HATCH
 10
13569.303688
 20
4936.290596
 30
0.0
  0
VERTEX
  8
HATCH
 10
13513.252482
 20
4913.994556
 30
0.0
  0
VERTEX
  8
HATCH
 10
13479.621759
 20
4870.260018
 30
0.0
  0
VERTEX
  8
HATCH
 10
13481.023039
 20
4809.374679
 30
0.0
  0
VERTEX
  8
HATCH
 10
13523.061443
 20
4763.067521
 30
0.0
  0
VERTEX
  8
HATCH
 10
13562.297288
 20
4749.346881
 30
0.0
  0
VERTEX
  8
HATCH
 10
13591.724171
 20
4793.93896
 30
0.0
  0
VERTEX
  8
HATCH
 10
13614.144653
 20
4883.980657
 30
0.0
  0
VERTEX
  8
HATCH
 10
13570.704969
 20
4936.290596
 30
0.0
  0
SEQEND
  8
HATCH
  0
POLYLINE
  8
HATCH
 66
     1
 10
0.0
 20
0.0
 30
0.0
  0
VERTEX
  8
HATCH
 10
15709.603001
 20
4941.435835
 30
0.0
  0
VERTEX
  8
HATCH
 10
15719.411963
 20
4919.997336
 30
0.0
  0
VERTEX
  8
HATCH
 10
15701.195321
 20
4901.988997
 30
0.0
  0
VERTEX
  8
HATCH
 10
15670.367157
 20
4922.569956
 30
0.0
  0
VERTEX
  8
HATCH
 10
15681.577398
 20
4939.720755
 30
0.0
  0
VERTEX
  8
HATCH
 10
15706.800441
 20
4941.435835
 30
0.0
  0
SEQEND
  8
HATCH
  0
POLYLINE
  8
HATCH
 66
     1
 10
0.0
 20
0.0
 30
0.0
  0
VERTEX
  8
HATCH
 10
15713.806842
 20
4785.36356
 30
0.0
  0
VERTEX
  8
HATCH
 10
15718.010682
 20
4760.494901
 30
0.0
  0
VERTEX
  8
HATCH
 10
15692.78764
 20
4751.061961
 30
0.0
  0
VERTEX
  8
HATCH
 10
15687.182519
 20
4767.355221
 30
0.0
  0
VERTEX
  8
HATCH
 10
15706.800441
 20
4781.9334
 30
0.0
  0
VERTEX
  8
HATCH
 10
15715.208122
 20
4785.36356
 30
0.0
  0
SEQEND
  8
HATCH
  0
POLYLINE
  8
HATCH
 66
     1
 10
0.0
 20
0.0
 30
0.0
  0
VERTEX
  8
HATCH
 10
15625.526192
 20
4936.290596
 30
0.0
  0
VERTEX
  8
HATCH
 10
15681.577398
 20
4913.994556
 30
0.0
  0
VERTEX
  8
HATCH
 10
15715.208122
 20
4870.260018
 30
0.0
  0
VERTEX
  8
HATCH
 10
15713.806842
 20
4809.374679
 30
0.0
  0
VERTEX
  8
HATCH
 10
15671.768437
 20
4763.067521
 30
0.0
  0
VERTEX
  8
HATCH
 10
15632.532593
 20
4749.346881
 30
0.0
  0
VERTEX
  8
HATCH
 10
15603.10571
 20
4793.93896
 30
0.0
  0
VERTEX
  8
HATCH
 10
15580.685227
 20
4883.980657
 30
0.0
  0
VERTEX
  8
HATCH
 10
15624.124912
 20
4936.290596
 30
0.0
  0
SEQEND
  8
HATCH
  0
POLYLINE
  8
HATCH
 66
     1
 10
0.0
 20
0.0
 30
0.0
  0
VERTEX
  8
HATCH
 10
15121.065337
 20
4938.005676
 30
0.0
  0
VERTEX
  8
HATCH
 10
15133.676858
 20
4924.285036
 30
0.0
  0
VERTEX
  8
HATCH
 10
15118.262777
 20
4898.558837
 30
0.0
  0
VERTEX
  8
HATCH
 10
15094.441014
 20
4912.279476
 30
0.0
  0
VERTEX
  8
HATCH
 10
15102.848695
 20
4932.860436
 30
0.0
  0
VERTEX
  8
HATCH
 10
15115.460216
 20
4940.578295
 30
0.0
  0
SEQEND
  8
HATCH
  0
POLYLINE
  8
HATCH
 66
     1
 10
0.0
 20
0.0
 30
0.0
  0
VERTEX
  8
HATCH
 10
15165.906302
 20
4940.578295
 30
0.0
  0
VERTEX
  8
HATCH
 10
15230.365189
 20
4901.131457
 30
0.0
  0
VERTEX
  8
HATCH
 10
15237.37159
 20
4850.536598
 30
0.0
  0
VERTEX
  8
HATCH
 10
15221.957508
 20
4782.79094
 30
0.0
  0
VERTEX
  8
HATCH
 10
15157.498621
 20
4748.489341
 30
0.0
  0
VERTEX
  8
HATCH
 10
15130.874298
 20
4803.3719
 30
0.0
  0
VERTEX
  8
HATCH
 10
15128.071738
 20
4893.413597
 30
0.0
  0
VERTEX
  8
HATCH
 10
15144.887099
 20
4930.287816
 30
0.0
  0
VERTEX
  8
HATCH
 10
15164.505022
 20
4940.578295
 30
0.0
  0
SEQEND
  8
HATCH
  0
POLYLINE
  8
HATCH
 66
     1
 10
0.0
 20
0.0
 30
0.0
  0
VERTEX
  8
HATCH
 10
15126.670457
 20
4793.93896
 30
0.0
  0
VERTEX
  8
HATCH
 10
15143.485819
 20
4771.642921
 30
0.0
  0
VERTEX
  8
HATCH
 10
15133.676858
 20
4748.489341
 30
0.0
  0
VERTEX
  8
HATCH
 10
15105.651255
 20
4759.637361
 30
0.0
  0
VERTEX
  8
HATCH
 10
15109.855096
 20
4780.21832
 30
0.0
  0
VERTEX
  8
HATCH
 10
15125.269177
 20
4794.7965
 30
0.0
  0
SEQEND
  8
HATCH
  0
POLYLINE
  8
HATCH
 66
     1
 10
0.0
 20
0.0
 30
0.0
  0
VERTEX
  8
HATCH
 10
15519.028901
 20
4944.008455
 30
0.0
  0
VERTEX
  8
HATCH
 10
15568.073706
 20
4910.564396
 30
0.0
  0
VERTEX
  8
HATCH
 10
15586.290348
 20
4851.394138
 30
0.0
  0
VERTEX
  8
HATCH
 10
15573.678827
 20
4780.21832
 30
0.0
  0
VERTEX
  8
HATCH
 10
15521.831461
 20
4747.631801
 30
0.0
  0
VERTEX
  8
HATCH
 10
15474.187936
 20
4760.494901
 30
0.0
  0
VERTEX
  8
HATCH
 10
15460.175134
 20
4837.673499
 30
0.0
  0
VERTEX
  8
HATCH
 10
15476.990496
 20
4920.854876
 30
0.0
  0
VERTEX
  8
HATCH
 10
15517.62762
 20
4944.008455
 30
0.0
  0
SEQEND
  8
HATCH
  0
POLYLINE
  8
HATCH
 66
     1
 10
0.0
 20
0.0
 30
0.0
  0
VERTEX
  8
HATCH
 10
15405.525208
 20
4940.578295
 30
0.0
  0
VERTEX
  8
HATCH
 10
15453.168733
 20
4907.134236
 30
0.0
  0
VERTEX
  8
HATCH
 10
15457.372574
 20
4860.827078
 30
0.0
  0
VERTEX
  8
HATCH
 10
15453.168733
 20
4790.5088
 30
0.0
  0
VERTEX
  8
HATCH
 10
15422.34057
 20
4763.067521
 30
0.0
  0
VERTEX
  8
HATCH
 10
15371.894484
 20
4747.631801
 30
0.0
  0
VERTEX
  8
HATCH
 10
15350.875282
 20
4803.3719
 30
0.0
  0
VERTEX
  8
HATCH
 10
15348.072722
 20
4898.558837
 30
0.0
  0
VERTEX
  8
HATCH
 10
15392.913687
 20
4939.720755
 30
0.0
  0
VERTEX
  8
HATCH
 10
15405.525208
 20
4939.720755
 30
0.0
  0
SEQEND
  8
HATCH
  0
POLYLINE
  8
HATCH
 66
     1
 10
0.0
 20
0.0
 30
0.0
  0
VERTEX
  8
HATCH
 10
15299.027916
 20
4943.150915
 30
0.0
  0
VERTEX
  8
HATCH
 10
15348.072722
 20
4870.260018
 30
0.0
  0
VERTEX
  8
HATCH
 10
15342.467601
 20
4785.36356
 30
0.0
  0
VERTEX
  8
HATCH
 10
15300.429197
 20
4755.349661
 30
0.0
  0
VERTEX
  8
HATCH
 10
15268.199753
 20
4747.631801
 30
0.0
  0
VERTEX
  8
HATCH
 10
15231.766469
 20
4795.65404
 30
0.0
  0
VERTEX
  8
HATCH
 10
15242.97671
 20
4894.271137
 30
0.0
  0
VERTEX
  8
HATCH
 10
15275.206154
 20
4932.002896
 30
0.0
  0
VERTEX
  8
HATCH
 10
15297.626636
 20
4943.150915
 30
0.0
  0
SEQEND
  8
HATCH
  0
POLYLINE
  8
HATCH
 66
     1
 10
0.0
 20
0.0
 30
0.0
  0
VERTEX
  8
HATCH
 10
15594.698029
 20
4943.150915
 30
0.0
  0
VERTEX
  8
HATCH
 10
15612.914671
 20
4932.002896
 30
0.0
  0
VERTEX
  8
HATCH
 10
15597.500589
 20
4912.279476
 30
0.0
  0
VERTEX
  8
HATCH
 10
15576.481387
 20
4906.276697
 30
0.0
  0
VERTEX
  8
HATCH
 10
15562.468585
 20
4933.717976
 30
0.0
  0
VERTEX
  8
HATCH
 10
15598.901869
 20
4941.435835
 30
0.0
  0
SEQEND
  8
HATCH
  0
POLYLINE
  8
HATCH
 66
     1
 10
0.0
 20
0.0
 30
0.0
  0
VERTEX
  8
HATCH
 10
15590.494188
 20
4795.65404
 30
0.0
  0
VERTEX
  8
HATCH
 10
15614.315951
 20
4770.785381
 30
0.0
  0
VERTEX
  8
HATCH
 10
15598.901869
 20
4751.061961
 30
0.0
  0
VERTEX
  8
HATCH
 10
15576.481387
 20
4751.919501
 30
0.0
  0
VERTEX
  8
HATCH
 10
15579.283947
 20
4772.500461
 30
0.0
  0
VERTEX
  8
HATCH
 10
15590.494188
 20
4793.08142
 30
0.0
  0
SEQEND
  8
HATCH
  0
POLYLINE
  8
HATCH
 66
     1
 10
0.0
 20
0.0
 30
0.0
  0
VERTEX
  8
HATCH
 10
15469.984095
 20
4940.578295
 30
0.0
  0
VERTEX
  8
HATCH
 10
15479.793056
 20
4922.569956
 30
0.0
  0
VERTEX
  8
HATCH
 10
15460.175134
 20
4906.276697
 30
0.0
  0
VERTEX
  8
HATCH
 10
15444.761052
 20
4919.997336
 30
0.0
  0
VERTEX
  8
HATCH
 10
15458.773854
 20
4938.005676
 30
0.0
  0
VERTEX
  8
HATCH
 10
15465.780255
 20
4940.578295
 30
0.0
  0
SEQEND
  8
HATCH
  0
POLYLINE
  8
HATCH
 66
     1
 10
0.0
 20
0.0
 30
0.0
  0
VERTEX
  8
HATCH
 10
15464.378975
 20
4780.21832
 30
0.0
  0
VERTEX
  8
HATCH
 10
15472.786655
 20
4762.209981
 30
0.0
  0
VERTEX
  8
HATCH
 10
15457.372574
 20
4749.346881
 30
0.0
  0
VERTEX
  8
HATCH
 10
15440.557212
 20
4762.209981
 30
0.0
  0
VERTEX
  8
HATCH
 10
15441.958492
 20
4772.500461
 30
0.0
  0
VERTEX
  8
HATCH
 10
15464.378975
 20
4783.64848
 30
0.0
  0
VERTEX
  8
HATCH
 10
15465.780255
 20
4780.21832
 30
0.0
  0
SEQEND
  8
HATCH
  0
POLYLINE
  8
HATCH
 66
     1
 10
0.0
 20
0.0
 30
0.0
  0
VERTEX
  8
HATCH
 10
15352.276562
 20
4941.435835
 30
0.0
  0
VERTEX
  8
HATCH
 10
15357.881683
 20
4913.994556
 30
0.0
  0
VERTEX
  8
HATCH
 10
15336.862481
 20
4898.558837
 30
0.0
  0
VERTEX
  8
HATCH
 10
15322.849679
 20
4912.279476
 30
0.0
  0
VERTEX
  8
HATCH
 10
15335.4612
 20
4936.290596
 30
0.0
  0
VERTEX
  8
HATCH
 10
15350.875282
 20
4940.578295
 30
0.0
  0
SEQEND
  8
HATCH
  0
POLYLINE
  8
HATCH
 66
     1
 10
0.0
 20
0.0
 30
0.0
  0
VERTEX
  8
HATCH
 10
15235.970309
 20
4943.150915
 30
0.0
  0
VERTEX
  8
HATCH
 10
15262.594632
 20
4933.717976
 30
0.0
  0
VERTEX
  8
HATCH
 10
15241.57543
 20
4907.134236
 30
0.0
  0
VERTEX
  8
HATCH
 10
15216.352387
 20
4908.849316
 30
0.0
  0
VERTEX
  8
HATCH
 10
15216.352387
 20
4933.717976
 30
0.0
  0
VERTEX
  8
HATCH
 10
15237.37159
 20
4944.865995
 30
0.0
  0
SEQEND
  8
HATCH
  0
POLYLINE
  8
HATCH
 66
     1
 10
0.0
 20
0.0
 30
0.0
  0
VERTEX
  8
HATCH
 10
15234.569029
 20
4778.50324
 30
0.0
  0
VERTEX
  8
HATCH
 10
15242.97671
 20
4760.494901
 30
0.0
  0
VERTEX
  8
HATCH
 10
15230.365189
 20
4751.061961
 30
0.0
  0
VERTEX
  8
HATCH
 10
15209.345987
 20
4757.064741
 30
0.0
  0
VERTEX
  8
HATCH
 10
15210.747267
 20
4771.642921
 30
0.0
  0
VERTEX
  8
HATCH
 10
15233.167749
 20
4786.2211
 30
0.0
  0
VERTEX
  8
HATCH
 10
15235.970309
 20
4779.36078
 30
0.0
  0
SEQEND
  8
HATCH
  0
POLYLINE
  8
HATCH
 66
     1
 10
0.0
 20
0.0
 30
0.0
  0
VERTEX
  8
HATCH
 10
15350.875282
 20
4782.79094
 30
0.0
  0
VERTEX
  8
HATCH
 10
15362.085523
 20
4759.637361
 30
0.0
  0
VERTEX
  8
HATCH
 10
15345.270161
 20
4749.346881
 30
0.0
  0
VERTEX
  8
HATCH
 10
15320.047119
 20
4759.637361
 30
0.0
  0
VERTEX
  8
HATCH
 10
15332.65864
 20
4770.785381
 30
0.0
  0
VERTEX
  8
HATCH
 10
15350.875282
 20
4782.79094
 30
0.0
  0
SEQEND
  8
HATCH
  0
POLYLINE
  8
HATCH
 66
     1
 10
0.0
 20
0.0
 30
0.0
  0
VERTEX
  8
HATCH
 10
14199.443158
 20
4793.93896
 30
0.0
  0
VERTEX
  8
HATCH
 10
14182.627796
 20
4771.642921
 30
0.0
  0
VERTEX
  8
HATCH
 10
14192.436757
 20
4748.489341
 30
0.0
  0
VERTEX
  8
HATCH
 10
14220.46236
 20
4759.637361
 30
0.0
  0
VERTEX
  8
HATCH
 10
14216.25852
 20
4780.21832
 30
0.0
  0
VERTEX
  8
HATCH
 10
14200.844438
 20
4794.7965
 30
0.0
  0
SEQEND
  8
HATCH
  0
POLYLINE
  8
HATCH
 66
     1
 10
0.0
 20
0.0
 30
0.0
  0
VERTEX
  8
HATCH
 10
14205.048279
 20
4938.005676
 30
0.0
  0
VERTEX
  8
HATCH
 10
14192.436757
 20
4924.285036
 30
0.0
  0
VERTEX
  8
HATCH
 10
14207.850839
 20
4898.558837
 30
0.0
  0
VERTEX
  8
HATCH
 10
14231.672602
 20
4912.279476
 30
0.0
  0
VERTEX
  8
HATCH
 10
14223.264921
 20
4932.860436
 30
0.0
  0
VERTEX
  8
HATCH
 10
14210.653399
 20
4940.578295
 30
0.0
  0
SEQEND
  8
HATCH
  0
POLYLINE
  8
HATCH
 66
     1
 10
0.0
 20
0.0
 30
0.0
  0
VERTEX
  8
HATCH
 10
13975.238333
 20
4782.79094
 30
0.0
  0
VERTEX
  8
HATCH
 10
13964.028092
 20
4759.637361
 30
0.0
  0
VERTEX
  8
HATCH
 10
13980.843454
 20
4749.346881
 30
0.0
  0
VERTEX
  8
HATCH
 10
14006.066497
 20
4759.637361
 30
0.0
  0
VERTEX
  8
HATCH
 10
13993.454975
 20
4770.785381
 30
0.0
  0
VERTEX
  8
HATCH
 10
13975.238333
 20
4782.79094
 30
0.0
  0
SEQEND
  8
HATCH
  0
POLYLINE
  8
HATCH
 66
     1
 10
0.0
 20
0.0
 30
0.0
  0
VERTEX
  8
HATCH
 10
14091.544586
 20
4778.50324
 30
0.0
  0
VERTEX
  8
HATCH
 10
14083.136905
 20
4760.494901
 30
0.0
  0
VERTEX
  8
HATCH
 10
14095.748427
 20
4751.061961
 30
0.0
  0
VERTEX
  8
HATCH
 10
14116.767629
 20
4757.064741
 30
0.0
  0
VERTEX
  8
HATCH
 10
14115.366349
 20
4771.642921
 30
0.0
  0
VERTEX
  8
HATCH
 10
14092.945866
 20
4786.2211
 30
0.0
  0
VERTEX
  8
HATCH
 10
14090.143306
 20
4779.36078
 30
0.0
  0
SEQEND
  8
HATCH
  0
POLYLINE
  8
HATCH
 66
     1
 10
0.0
 20
0.0
 30
0.0
  0
VERTEX
  8
HATCH
 10
14090.143306
 20
4943.150915
 30
0.0
  0
VERTEX
  8
HATCH
 10
14063.518983
 20
4933.717976
 30
0.0
  0
VERTEX
  8
HATCH
 10
14084.538185
 20
4907.134236
 30
0.0
  0
VERTEX
  8
HATCH
 10
14109.761228
 20
4908.849316
 30
0.0
  0
VERTEX
  8
HATCH
 10
14109.761228
 20
4933.717976
 30
0.0
  0
VERTEX
  8
HATCH
 10
14088.742026
 20
4944.865995
 30
0.0
  0
SEQEND
  8
HATCH
  0
POLYLINE
  8
HATCH
 66
     1
 10
0.0
 20
0.0
 30
0.0
  0
VERTEX
  8
HATCH
 10
13973.837053
 20
4941.435835
 30
0.0
  0
VERTEX
  8
HATCH
 10
13968.231933
 20
4913.994556
 30
0.0
  0
VERTEX
  8
HATCH
 10
13989.251135
 20
4898.558837
 30
0.0
  0
VERTEX
  8
HATCH
 10
14003.263936
 20
4912.279476
 30
0.0
  0
VERTEX
  8
HATCH
 10
13990.652415
 20
4936.290596
 30
0.0
  0
VERTEX
  8
HATCH
 10
13975.238333
 20
4940.578295
 30
0.0
  0
SEQEND
  8
HATCH
  0
POLYLINE
  8
HATCH
 66
     1
 10
0.0
 20
0.0
 30
0.0
  0
VERTEX
  8
HATCH
 10
13861.734641
 20
4780.21832
 30
0.0
  0
VERTEX
  8
HATCH
 10
13853.32696
 20
4762.209981
 30
0.0
  0
VERTEX
  8
HATCH
 10
13868.741042
 20
4749.346881
 30
0.0
  0
VERTEX
  8
HATCH
 10
13885.556404
 20
4762.209981
 30
0.0
  0
VERTEX
  8
HATCH
 10
13884.155123
 20
4772.500461
 30
0.0
  0
VERTEX
  8
HATCH
 10
13861.734641
 20
4783.64848
 30
0.0
  0
VERTEX
  8
HATCH
 10
13860.333361
 20
4780.21832
 30
0.0
  0
SEQEND
  8
HATCH
  0
POLYLINE
  8
HATCH
 66
     1
 10
0.0
 20
0.0
 30
0.0
  0
VERTEX
  8
HATCH
 10
13856.12952
 20
4940.578295
 30
0.0
  0
VERTEX
  8
HATCH
 10
13846.320559
 20
4922.569956
 30
0.0
  0
VERTEX
  8
HATCH
 10
13865.938481
 20
4906.276697
 30
0.0
  0
VERTEX
  8
HATCH
 10
13881.352563
 20
4919.997336
 30
0.0
  0
VERTEX
  8
HATCH
 10
13867.339762
 20
4938.005676
 30
0.0
  0
VERTEX
  8
HATCH
 10
13860.333361
 20
4940.578295
 30
0.0
  0
SEQEND
  8
HATCH
  0
POLYLINE
  8
HATCH
 66
     1
 10
0.0
 20
0.0
 30
0.0
  0
VERTEX
  8
HATCH
 10
13612.306774
 20
4785.36356
 30
0.0
  0
VERTEX
  8
HATCH
 10
13608.102933
 20
4760.494901
 30
0.0
  0
VERTEX
  8
HATCH
 10
13633.325976
 20
4751.061961
 30
0.0
  0
VERTEX
  8
HATCH
 10
13638.931096
 20
4767.355221
 30
0.0
  0
VERTEX
  8
HATCH
 10
13619.313174
 20
4781.9334
 30
0.0
  0
VERTEX
  8
HATCH
 10
13610.905493
 20
4785.36356
 30
0.0
  0
SEQEND
  8
HATCH
  0
POLYLINE
  8
HATCH
 66
     1
 10
0.0
 20
0.0
 30
0.0
  0
VERTEX
  8
HATCH
 10
13735.619427
 20
4795.65404
 30
0.0
  0
VERTEX
  8
HATCH
 10
13711.797664
 20
4770.785381
 30
0.0
  0
VERTEX
  8
HATCH
 10
13727.211746
 20
4751.061961
 30
0.0
  0
VERTEX
  8
HATCH
 10
13749.632229
 20
4751.919501
 30
0.0
  0
VERTEX
  8
HATCH
 10
13746.829668
 20
4772.500461
 30
0.0
  0
VERTEX
  8
HATCH
 10
13735.619427
 20
4793.08142
 30
0.0
  0
SEQEND
  8
HATCH
  0
POLYLINE
  8
HATCH
 66
     1
 10
0.0
 20
0.0
 30
0.0
  0
VERTEX
  8
HATCH
 10
13731.415587
 20
4943.150915
 30
0.0
  0
VERTEX
  8
HATCH
 10
13713.198945
 20
4932.002896
 30
0.0
  0
VERTEX
  8
HATCH
 10
13728.613026
 20
4912.279476
 30
0.0
  0
VERTEX
  8
HATCH
 10
13749.632229
 20
4906.276697
 30
0.0
  0
VERTEX
  8
HATCH
 10
13763.64503
 20
4933.717976
 30
0.0
  0
VERTEX
  8
HATCH
 10
13727.211746
 20
4941.435835
 30
0.0
  0
SEQEND
  8
HATCH
  0
POLYLINE
  8
HATCH
 66
     1
 10
0.0
 20
0.0
 30
0.0
  0
VERTEX
  8
HATCH
 10
13616.510614
 20
4941.435835
 30
0.0
  0
VERTEX
  8
HATCH
 10
13606.701653
 20
4919.997336
 30
0.0
  0
VERTEX
  8
HATCH
 10
13624.918295
 20
4901.988997
 30
0.0
  0
VERTEX
  8
HATCH
 10
13655.746458
 20
4922.569956
 30
0.0
  0
VERTEX
  8
HATCH
 10
13644.536217
 20
4939.720755
 30
0.0
  0
VERTEX
  8
HATCH
 10
13619.313174
 20
4941.435835
 30
0.0
  0
SEQEND
  8
HATCH
  0
POLYLINE
  8
HATCH
 66
     1
 10
0.0
 20
0.0
 30
0.0
  0
VERTEX
  8
HATCH
 10
14160.207314
 20
4940.578295
 30
0.0
  0
VERTEX
  8
HATCH
 10
14095.748427
 20
4901.131457
 30
0.0
  0
VERTEX
  8
HATCH
 10
14088.742026
 20
4850.536598
 30
0.0
  0
VERTEX
  8
HATCH
 10
14104.156108
 20
4782.79094
 30
0.0
  0
VERTEX
  8
HATCH
 10
14168.614995
 20
4748.489341
 30
0.0
  0
VERTEX
  8
HATCH
 10
14195.239318
 20
4803.3719
 30
0.0
  0
VERTEX
  8
HATCH
 10
14198.041878
 20
4893.413597
 30
0.0
  0
VERTEX
  8
HATCH
 10
14181.226516
 20
4930.287816
 30
0.0
  0
VERTEX
  8
HATCH
 10
14161.608594
 20
4940.578295
 30
0.0
  0
SEQEND
  8
HATCH
  0
POLYLINE
  8
HATCH
 66
     1
 10
0.0
 20
0.0
 30
0.0
  0
VERTEX
  8
HATCH
 10
14027.085699
 20
4943.150915
 30
0.0
  0
VERTEX
  8
HATCH
 10
13978.040894
 20
4870.260018
 30
0.0
  0
VERTEX
  8
HATCH
 10
13983.646014
 20
4785.36356
 30
0.0
  0
VERTEX
  8
HATCH
 10
14025.684419
 20
4755.349661
 30
0.0
  0
VERTEX
  8
HATCH
 10
14057.913862
 20
4747.631801
 30
0.0
  0
VERTEX
  8
HATCH
 10
14094.347146
 20
4795.65404
 30
0.0
  0
VERTEX
  8
HATCH
 10
14083.136905
 20
4894.271137
 30
0.0
  0
VERTEX
  8
HATCH
 10
14050.907462
 20
4932.002896
 30
0.0
  0
VERTEX
  8
HATCH
 10
14028.486979
 20
4943.150915
 30
0.0
  0
SEQEND
  8
HATCH
  0
POLYLINE
  8
HATCH
 66
     1
 10
0.0
 20
0.0
 30
0.0
  0
VERTEX
  8
HATCH
 10
13920.588407
 20
4940.578295
 30
0.0
  0
VERTEX
  8
HATCH
 10
13872.944882
 20
4907.134236
 30
0.0
  0
VERTEX
  8
HATCH
 10
13868.741042
 20
4860.827078
 30
0.0
  0
VERTEX
  8
HATCH
 10
13872.944882
 20
4790.5088
 30
0.0
  0
VERTEX
  8
HATCH
 10
13903.773046
 20
4763.067521
 30
0.0
  0
VERTEX
  8
HATCH
 10
13954.219131
 20
4747.631801
 30
0.0
  0
VERTEX
  8
HATCH
 10
13975.238333
 20
4803.3719
 30
0.0
  0
VERTEX
  8
HATCH
 10
13978.040894
 20
4898.558837
 30
0.0
  0
VERTEX
  8
HATCH
 10
13933.199929
 20
4939.720755
 30
0.0
  0
VERTEX
  8
HATCH
 10
13920.588407
 20
4939.720755
 30
0.0
  0
SEQEND
  8
HATCH
  0
POLYLINE
  8
HATCH
 66
     1
 10
0.0
 20
0.0
 30
0.0
  0
VERTEX
  8
HATCH
 10
13807.084715
 20
4944.008455
 30
0.0
  0
VERTEX
  8
HATCH
 10
13758.03991
 20
4910.564396
 30
0.0
  0
VERTEX
  8
HATCH
 10
13739.823268
 20
4851.394138
 30
0.0
  0
VERTEX
  8
HATCH
 10
13752.434789
 20
4780.21832
 30
0.0
  0
VERTEX
  8
HATCH
 10
13804.282155
 20
4747.631801
 30
0.0
  0
VERTEX
  8
HATCH
 10
13851.92568
 20
4760.494901
 30
0.0
  0
VERTEX
  8
HATCH
 10
13865.938481
 20
4837.673499
 30
0.0
  0
VERTEX
  8
HATCH
 10
13849.12312
 20
4920.854876
 30
0.0
  0
VERTEX
  8
HATCH
 10
13808.485995
 20
4944.008455
 30
0.0
  0
SEQEND
  8
HATCH
  0
POLYLINE
  8
HATCH
 66
     1
 10
0.0
 20
0.0
 30
0.0
  0
VERTEX
  8
HATCH
 10
13700.587423
 20
4936.290596
 30
0.0
  0
VERTEX
  8
HATCH
 10
13644.536217
 20
4913.994556
 30
0.0
  0
VERTEX
  8
HATCH
 10
13610.905493
 20
4870.260018
 30
0.0
  0
VERTEX
  8
HATCH
 10
13612.306774
 20
4809.374679
 30
0.0
  0
VERTEX
  8
HATCH
 10
13654.345178
 20
4763.067521
 30
0.0
  0
VERTEX
  8
HATCH
 10
13693.581022
 20
4749.346881
 30
0.0
  0
VERTEX
  8
HATCH
 10
13723.007906
 20
4793.93896
 30
0.0
  0
VERTEX
  8
HATCH
 10
13745.428388
 20
4883.980657
 30
0.0
  0
VERTEX
  8
HATCH
 10
13701.988703
 20
4936.290596
 30
0.0
  0
SEQEND
  8
HATCH
  0
ENDSEC
  0
EOF
