  0
SECTION
  2
HEADER
  9
$ACADVER
  1
AC1009
  9
$INSBASE
 10
0.0
 20
0.0
 30
0.0
  9
$EXTMIN
 10
0.0
 20
0.0
 30
0.0
  9
$EXTMAX
 10
9875.0
 20
6825.0
 30
0.0
  9
$LIMMIN
 10
0.0
 20
0.0
  9
$LIMMAX
 10
9875.0
 20
6825.0
  9
$ORTHOMODE
 70
     0
  9
$REGENMODE
 70
     1
  9
$FILLMODE
 70
     1
  9
$QTEXTMODE
 70
     0
  9
$MIRRTEXT
 70
     0
  9
$DRAGMODE
 70
     2
  9
$LTSCALE
 40
125.0
  9
$OSMODE
 70
    33
  9
$ATTMODE
 70
     1
  9
$TEXTSIZE
 40
60.0
  9
$TRACEWID
 40
0.05
  9
$TEXTSTYLE
  7
K
  9
$CLAYER
  8
SUNPOU
  9
$CELTYPE
  6
BYLAYER
  9
$CECOLOR
 62
   256
  9
$DIMSCALE
 40
25.0
  9
$DIMASZ
 40
1.5
  9
$DIMEXO
 40
1.0
  9
$DIMDLI
 40
6.0
  9
$DIMRND
 40
0.0
  9
$DIMDLE
 40
0.0
  9
$DIMEXE
 40
1.0
  9
$DIMTP
 40
495.0
  9
$DIMTM
 40
0.0
  9
$DIMTXT
 40
3.0
  9
$DIMCEN
 40
0.0
  9
$DIMTSZ
 40
0.0
  9
$DIMTOL
 70
     0
  9
$DIMLIM
 70
     0
  9
$DIMTIH
 70
     0
  9
$DIMTOH
 70
     0
  9
$DIMSE1
 70
     0
  9
$DIMSE2
 70
     0
  9
$DIMTAD
 70
     1
  9
$DIMZIN
 70
     8
  9
$DIMBLK
  1
ARROW
  9
$DIMASO
 70
     0
  9
$DIMSHO
 70
     0
  9
$DIMPOST
  1

  9
$DIMAPOST
  1

  9
$DIMALT
 70
     0
  9
$DIMALTD
 70
     2
  9
$DIMALTF
 40
25.4
  9
$DIMLFAC
 40
1.0
  9
$DIMTOFL
 70
     1
  9
$DIMTVP
 40
0.0
  9
$DIMTIX
 70
     1
  9
$DIMSOXD
 70
     0
  9
$DIMSAH
 70
     0
  9
$DIMBLK1
  1

  9
$DIMBLK2
  1

  9
$DIMSTYLE
  2
*UNNAMED
  9
$DIMCLRD
 70
     0
  9
$DIMCLRE
 70
     0
  9
$DIMCLRT
 70
     0
  9
$DIMTFAC
 40
1.0
  9
$DIMGAP
 40
0.09
  9
$LUNITS
 70
     2
  9
$LUPREC
 70
     2
  9
$AXISMODE
 70
     1
  9
$AXISUNIT
 10
100.0
 20
100.0
  9
$SKETCHINC
 40
0.1
  9
$FILLETRAD
 40
10.0
  9
$AUNITS
 70
     0
  9
$AUPREC
 70
     2
  9
$MENU
  1
d:stdgx5
  9
$ELEVATION
 40
0.0
  9
$PELEVATION
 40
0.0
  9
$THICKNESS
 40
0.0
  9
$LIMCHECK
 70
     0
  9
$BLIPMODE
 70
     1
  9
$CHAMFERA
 40
0.0
  9
$CHAMFERB
 40
0.0
  9
$SKPOLY
 70
     0
  9
$TDCREATE
 40
2450248.740393518
  9
$TDUPDATE
 40
2450248.743113426
  9
$TDINDWG
 40
0.0012384259
  9
$TDUSRTIMER
 40
0.0012384259
  9
$USRTIMER
 70
     1
  9
$ANGBASE
 50
0.0
  9
$ANGDIR
 70
     0
  9
$PDMODE
 70
     0
  9
$PDSIZE
 40
0.0
  9
$PLINEWID
 40
0.0
  9
$COORDS
 70
     2
  9
$SPLFRAME
 70
     0
  9
$SPLINETYPE
 70
     6
  9
$SPLINESEGS
 70
     8
  9
$ATTDIA
 70
     0
  9
$ATTREQ
 70
     1
  9
$HANDLING
 70
     0
  9
$HANDSEED
  5
0
  9
$SURFTAB1
 70
     6
  9
$SURFTAB2
 70
     6
  9
$SURFTYPE
 70
     6
  9
$SURFU
 70
     6
  9
$SURFV
 70
     6
  9
$UCSNAME
  2

  9
$UCSORG
 10
0.0
 20
0.0
 30
0.0
  9
$UCSXDIR
 10
1.0
 20
0.0
 30
0.0
  9
$UCSYDIR
 10
0.0
 20
1.0
 30
0.0
  9
$PUCSNAME
  2

  9
$PUCSORG
 10
0.0
 20
0.0
 30
0.0
  9
$PUCSXDIR
 10
1.0
 20
0.0
 30
0.0
  9
$PUCSYDIR
 10
0.0
 20
1.0
 30
0.0
  9
$USERI1
 70
     3
  9
$USERI2
 70
    33
  9
$USERI3
 70
     0
  9
$USERI4
 70
     1
  9
$USERI5
 70
     0
  9
$USERR1
 40
25.0
  9
$USERR2
 40
3.0
  9
$USERR3
 40
3.0
  9
$USERR4
 40
1.5
  9
$USERR5
 40
10.0
  9
$WORLDVIEW
 70
     1
  9
$SHADEDGE
 70
     3
  9
$SHADEDIF
 70
    70
  9
$TILEMODE
 70
     1
  9
$MAXACTVP
 70
    16
  9
$PINSBASE
 10
0.0
 20
0.0
 30
0.0
  9
$PLIMCHECK
 70
     0
  9
$PEXTMIN
 10
1.000000E+20
 20
1.000000E+20
 30
1.000000E+20
  9
$PEXTMAX
 10
-1.000000E+20
 20
-1.000000E+20
 30
-1.000000E+20
  9
$PLIMMIN
 10
0.0
 20
0.0
  9
$PLIMMAX
 10
12.0
 20
9.0
  9
$UNITMODE
 70
     0
  9
$VISRETAIN
 70
     0
  0
ENDSEC
  0
SECTION
  2
TABLES
  0
TABLE
  2
VPORT
 70
    10
  0
VPORT
  2
*ACTIVE
 70
     0
 10
0.0
 20
0.0
 11
1.0
 21
1.0
 12
5576.263114
 22
3412.5
 13
0.0
 23
0.0
 14
1.0
 24
1.0
 15
10.0
 25
10.0
 16
0.0
 26
0.0
 36
1.0
 17
0.0
 27
0.0
 37
0.0
 40
6825.0
 41
1.63407
 42
50.0
 43
0.0
 44
0.0
 50
0.0
 51
0.0
 71
     0
 72
   500
 73
     1
 74
     0
 75
     0
 76
     0
 77
     0
 78
     0
  0
VPORT
  2
2
 70
     0
 10
0.5
 20
0.0
 11
1.0
 21
1.0
 12
0.924031
 22
1.052651
 13
0.0
 23
0.0
 14
1.0
 24
1.0
 15
10.0
 25
10.0
 16
0.0
 26
0.0
 36
1.0
 17
0.0
 27
0.0
 37
0.0
 40
2.105302
 41
0.877814
 42
50.0
 43
0.0
 44
0.0
 50
0.0
 51
0.0
 71
     0
 72
   500
 73
     1
 74
     1
 75
     0
 76
     0
 77
     0
 78
     0
  0
VPORT
  2
2
 70
     0
 10
0.0
 20
0.0
 11
0.5
 21
1.0
 12
0.924031
 22
1.052651
 13
0.0
 23
0.0
 14
1.0
 24
1.0
 15
10.0
 25
10.0
 16
0.0
 26
0.0
 36
1.0
 17
0.0
 27
0.0
 37
0.0
 40
2.105302
 41
0.877814
 42
50.0
 43
0.0
 44
0.0
 50
0.0
 51
0.0
 71
     0
 72
   500
 73
     1
 74
     1
 75
     0
 76
     0
 77
     0
 78
     0
  0
VPORT
  2
3
 70
     0
 10
0.0
 20
0.5
 11
1.0
 21
1.0
 12
2.83217
 22
1.052651
 13
0.0
 23
0.0
 14
1.0
 24
1.0
 15
10.0
 25
10.0
 16
0.0
 26
0.0
 36
1.0
 17
0.0
 27
0.0
 37
0.0
 40
2.105302
 41
3.571429
 42
50.0
 43
0.0
 44
0.0
 50
0.0
 51
0.0
 71
     0
 72
   500
 73
     1
 74
     1
 75
     0
 76
     0
 77
     0
 78
     0
  0
VPORT
  2
3
 70
     0
 10
0.0
 20
0.0
 11
1.0
 21
0.5
 12
2.856742
 22
1.052651
 13
0.0
 23
0.0
 14
1.0
 24
1.0
 15
10.0
 25
10.0
 16
0.0
 26
0.0
 36
1.0
 17
0.0
 27
0.0
 37
0.0
 40
2.105302
 41
3.594771
 42
50.0
 43
0.0
 44
0.0
 50
0.0
 51
0.0
 71
     0
 72
   500
 73
     1
 74
     1
 75
     0
 76
     0
 77
     0
 78
     0
  0
VPORT
  2
4
 70
     0
 10
0.5
 20
0.0
 11
1.0
 21
0.5
 12
2.886858
 22
1.052651
 13
0.0
 23
0.0
 14
1.0
 24
1.0
 15
10.0
 25
10.0
 16
0.0
 26
0.0
 36
1.0
 17
0.0
 27
0.0
 37
0.0
 40
4.275207
 41
1.784314
 42
50.0
 43
0.0
 44
0.0
 50
0.0
 51
0.0
 71
     0
 72
   500
 73
     1
 74
     1
 75
     0
 76
     0
 77
     0
 78
     0
  0
VPORT
  2
4
 70
     0
 10
0.5
 20
0.5
 11
1.0
 21
1.0
 12
2.86209
 22
1.052651
 13
0.0
 23
0.0
 14
1.0
 24
1.0
 15
10.0
 25
10.0
 16
0.0
 26
0.0
 36
1.0
 17
0.0
 27
0.0
 37
0.0
 40
4.275207
 41
1.772727
 42
50.0
 43
0.0
 44
0.0
 50
0.0
 51
0.0
 71
     0
 72
   500
 73
     1
 74
     1
 75
     0
 76
     0
 77
     0
 78
     0
  0
VPORT
  2
4
 70
     0
 10
0.0
 20
0.5
 11
0.5
 21
1.0
 12
2.86209
 22
1.052651
 13
0.0
 23
0.0
 14
1.0
 24
1.0
 15
10.0
 25
10.0
 16
0.0
 26
0.0
 36
1.0
 17
0.0
 27
0.0
 37
0.0
 40
4.275207
 41
1.772727
 42
50.0
 43
0.0
 44
0.0
 50
0.0
 51
0.0
 71
     0
 72
   500
 73
     1
 74
     1
 75
     0
 76
     0
 77
     0
 78
     0
  0
VPORT
  2
4
 70
     0
 10
0.0
 20
0.0
 11
0.5
 21
0.5
 12
2.886858
 22
1.052651
 13
0.0
 23
0.0
 14
1.0
 24
1.0
 15
10.0
 25
10.0
 16
0.0
 26
0.0
 36
1.0
 17
0.0
 27
0.0
 37
0.0
 40
4.275207
 41
1.784314
 42
50.0
 43
0.0
 44
0.0
 50
0.0
 51
0.0
 71
     0
 72
   500
 73
     1
 74
     1
 75
     0
 76
     0
 77
     0
 78
     0
  0
ENDTAB
  0
TABLE
  2
LTYPE
 70
     5
  0
LTYPE
  2
CONTINUOUS
 70
    64
  3
実線
 72
    65
 73
     0
 40
0.0
  0
LTYPE
  2
DASHED
 70
    64
  3
__ __ __ __ __ __ __ __ __ __ __ __ __ __ __
 72
    65
 73
     2
 40
0.75
 49
0.5
 49
-0.25
  0
LTYPE
  2
CENTER
 70
    64
  3
____ _ ____ _ ____ _ ____ _ ____ _ ____ _ ____
 72
    65
 73
     4
 40
2.0
 49
1.25
 49
-0.25
 49
0.25
 49
-0.25
  0
LTYPE
  2
PHANTOM
 70
    64
  3
_____ _ _ _____ _ _ _____ _ _ _____ _ _ ____
 72
    65
 73
     6
 40
2.5
 49
1.25
 49
-0.25
 49
0.25
 49
-0.25
 49
0.25
 49
-0.25
  0
LTYPE
  2
HIDDEN
 70
    64
  3
_ _ _ _ _ _ _ _ _ _ _ _ _ _ _ _ _ _ _ _ _ _ _
 72
    65
 73
     2
 40
0.375
 49
0.25
 49
-0.125
  0
ENDTAB
  0
TABLE
  2
LAYER
 70
    14
  0
LAYER
  2
0
 70
    64
 62
     7
  6
CONTINUOUS
  0
LAYER
  2
HASEN
 70
    64
 62
     2
  6
DASHED
  0
LAYER
  2
ITTEN
 70
    64
 62
     1
  6
CENTER
  0
LAYER
  2
HATCH
 70
    64
 62
     4
  6
CONTINUOUS
  0
LAYER
  2
SUNPOU
 70
    64
 62
     3
  6
CONTINUOUS
  0
LAYER
  2
TEXT
 70
    64
 62
     3
  6
CONTINUOUS
  0
LAYER
  2
JISSEN
 70
    64
 62
     7
  6
CONTINUOUS
  0
LAYER
  2
WAKU
 70
    64
 62
    -5
  6
CONTINUOUS
  0
ENDTAB
  0
TABLE
  2
STYLE
 70
     2
  0
STYLE
  2
STANDARD
 70
     0
 40
0.0
 41
1.0
 50
0.0
 71
     0
 42
0.2
  3
ROMANS
  4
EXTFONT
  0
STYLE
  2
K
 70
    64
 40
0.0
 41
1.0
 50
0.0
 71
     0
 42
60.0
  3
ROMANS
  4
EXTFONT
  0
ENDTAB
  0
TABLE
  2
VIEW
 70
     0
  0
ENDTAB
  0
TABLE
  2
UCS
 70
     0
  0
ENDTAB
  0
TABLE
  2
APPID
 70
     1
  0
APPID
  2
ACAD
 70
    64
  0
ENDTAB
  0
TABLE
  2
DIMSTYLE
 70
     0
  0
ENDTAB
  0
ENDSEC
  0
SECTION
  2
BLOCKS
  0
BLOCK
  8
SUNPOU
  2
ARROWANG
 70
    64
 10
0.0
 20
0.0
 30
0.0
  3
ARROWANG
  0
LINE
  8
SUNPOU
 10
0.0
 20
0.0
 30
0.0
 11
-1.5
 21
0.401924
 31
0.0
  0
LINE
  8
SUNPOU
 10
0.0
 20
0.0
 30
0.0
 11
-1.5
 21
-0.401924
 31
0.0
  0
ENDBLK
  8
SUNPOU
  0
ENDSEC
  0
SECTION
  2
ENTITIES
  0
TEXT
  8
TEXT
 10
4644.510854
 20
5741.762066
 30
0.0
 40
120.0
  1
底  版
  7
K
  0
TEXT
  8
TEXT
 10
2737.435244
 20
5661.072872
 30
0.0
 40
90.0
  1
M5P
  7
K
  0
TEXT
  8
JISSEN
 10
2439.004739
 20
6343.291573
 30
0.0
 40
250.0
  1
５号マンホール（内径２２００ｍｍ）
  7
K
  0
LINE
  8
ITTEN
 10
3767.125014
 20
4918.510459
 30
0.0
 11
3817.125014
 21
4918.510459
 31
0.0
  0
LINE
  8
ITTEN
 10
3792.125014
 20
4943.510459
 30
0.0
 11
3792.125014
 21
4893.510459
 31
0.0
  0
CIRCLE
  8
TEXT
 10
3792.125014
 20
4918.510459
 30
0.0
 40
15.0
  0
CIRCLE
  8
TEXT
 10
3373.618894
 20
4918.510459
 30
0.0
 40
15.0
  0
LINE
  8
ITTEN
 10
3373.618894
 20
4943.510459
 30
0.0
 11
3373.618894
 21
4893.510459
 31
0.0
  0
LINE
  8
ITTEN
 10
3348.618894
 20
4918.510459
 30
0.0
 11
3398.618894
 21
4918.510459
 31
0.0
  0
LINE
  8
ITTEN
 10
2411.295638
 20
4918.510459
 30
0.0
 11
2361.295638
 21
4918.510459
 31
0.0
  0
LINE
  8
ITTEN
 10
2386.295638
 20
4943.510459
 30
0.0
 11
2386.295638
 21
4893.510459
 31
0.0
  0
CIRCLE
  8
TEXT
 10
2386.295638
 20
4918.510459
 30
0.0
 40
15.0
  0
CIRCLE
  8
TEXT
 10
1967.789518
 20
4918.510459
 30
0.0
 40
15.0
  0
LINE
  8
ITTEN
 10
1967.789518
 20
4943.510459
 30
0.0
 11
1967.789518
 21
4893.510459
 31
0.0
  0
LINE
  8
ITTEN
 10
1992.789518
 20
4918.510459
 30
0.0
 11
1942.789518
 21
4918.510459
 31
0.0
  0
LINE
  8
SUNPOU
 10
3371.120671
 20
1623.747899
 30
0.0
 11
3843.27576
 21
1596.693193
 31
0.0
  0
INSERT
  8
SUNPOU
  2
ARROWANG
 10
3371.120671
 20
1623.747899
 30
0.0
 41
30.0
 42
30.0
 50
176.720511
 43
30.0
  0
LINE
  8
SUNPOU
 10
3843.27576
 20
1596.693193
 30
0.0
 11
4499.636173
 21
1596.693193
 31
0.0
  0
LINE
  8
SUNPOU
 10
3761.63596
 20
1895.377151
 30
0.0
 11
3843.27576
 21
1596.693193
 31
0.0
  0
INSERT
  8
SUNPOU
  2
ARROWANG
 10
3761.63596
 20
1895.377151
 30
0.0
 41
30.0
 42
30.0
 50
105.287348
 43
30.0
  0
LINE
  8
HASEN
 10
2372.437445
 20
1597.676743
 30
0.0
 11
2410.705788
 21
1690.064696
 31
0.0
  0
LINE
  8
HASEN
 10
2410.705788
 20
1690.064696
 30
0.0
 11
2438.422174
 21
1678.584193
 31
0.0
  0
LINE
  8
HASEN
 10
2400.153831
 20
1586.19624
 30
0.0
 11
2438.422174
 21
1678.584193
 31
0.0
  0
LINE
  8
HASEN
 10
1957.182916
 20
1882.179943
 30
0.0
 11
2027.893595
 21
1952.890621
 31
0.0
  0
LINE
  8
HASEN
 10
2027.893595
 20
1952.890621
 30
0.0
 11
2049.106798
 21
1931.677417
 31
0.0
  0
LINE
  8
HASEN
 10
1978.39612
 20
1860.966739
 30
0.0
 11
2049.106798
 21
1931.677417
 31
0.0
  0
LINE
  8
HASEN
 10
3781.518412
 20
1860.966739
 30
0.0
 11
3710.807734
 21
1931.677417
 31
0.0
  0
LINE
  8
HASEN
 10
3732.020937
 20
1952.890621
 30
0.0
 11
3710.807734
 21
1931.677417
 31
0.0
  0
LINE
  8
HASEN
 10
3802.731615
 20
1882.179943
 30
0.0
 11
3732.020937
 21
1952.890621
 31
0.0
  0
LINE
  8
HASEN
 10
3359.760701
 20
1586.19624
 30
0.0
 11
3321.492357
 21
1678.584193
 31
0.0
  0
LINE
  8
HASEN
 10
3349.208743
 20
1690.064696
 30
0.0
 11
3321.492357
 21
1678.584193
 31
0.0
  0
LINE
  8
HASEN
 10
3387.477087
 20
1597.676743
 30
0.0
 11
3349.208743
 21
1690.064696
 31
0.0
  0
LINE
  8
HASEN
 10
3387.477087
 20
3969.805434
 30
0.0
 11
3349.208743
 21
3877.417481
 31
0.0
  0
LINE
  8
HASEN
 10
3349.208743
 20
3877.417481
 30
0.0
 11
3321.492357
 21
3888.897984
 31
0.0
  0
LINE
  8
HASEN
 10
3359.760701
 20
3981.285937
 30
0.0
 11
3321.492357
 21
3888.897984
 31
0.0
  0
LINE
  8
HASEN
 10
3802.731615
 20
3685.302235
 30
0.0
 11
3732.020937
 21
3614.591556
 31
0.0
  0
LINE
  8
HASEN
 10
3732.020937
 20
3614.591556
 30
0.0
 11
3710.807734
 21
3635.80476
 31
0.0
  0
LINE
  8
HASEN
 10
3781.518412
 20
3706.515438
 30
0.0
 11
3710.807734
 21
3635.80476
 31
0.0
  0
LINE
  8
HASEN
 10
1978.39612
 20
3706.515438
 30
0.0
 11
2049.106798
 21
3635.80476
 31
0.0
  0
LINE
  8
HASEN
 10
2027.893595
 20
3614.591556
 30
0.0
 11
2049.106798
 21
3635.80476
 31
0.0
  0
LINE
  8
HASEN
 10
1957.182916
 20
3685.302235
 30
0.0
 11
2027.893595
 21
3614.591556
 31
0.0
  0
LINE
  8
HASEN
 10
2400.153831
 20
3981.285937
 30
0.0
 11
2438.422174
 21
3888.897984
 31
0.0
  0
LINE
  8
HASEN
 10
2410.705788
 20
3877.417481
 30
0.0
 11
2438.422174
 21
3888.897984
 31
0.0
  0
LINE
  8
HASEN
 10
2372.437445
 20
3969.805434
 30
0.0
 11
2410.705788
 21
3877.417481
 31
0.0
  0
TEXT
  8
SUNPOU
 10
3936.660356
 20
1622.994015
 30
0.0
 40
60.0
  1
埋込みアンカー
  7
K
  0
TEXT
  8
SUNPOU
 10
4266.44469
 20
4810.796174
 30
0.0
 40
60.0
  1
280
 50
90.0
  7
K
 72
     1
 11
4266.44469
 21
4896.510459
 31
0.0
  0
INSERT
  8
SUNPOU
  2
ARROWANG
 10
4296.44469
 20
5036.510459
 30
0.0
 41
30.0
 42
30.0
 50
90.0
 43
30.0
  0
INSERT
  8
SUNPOU
  2
ARROWANG
 10
4296.44469
 20
4756.510459
 30
0.0
 41
30.0
 42
30.0
 50
270.0
 43
30.0
  0
LINE
  8
SUNPOU
 10
4296.44469
 20
4756.510459
 30
0.0
 11
4296.44469
 21
5036.510459
 31
0.0
  0
LINE
  8
SUNPOU
 10
4052.957266
 20
5036.510459
 30
0.0
 11
4316.44469
 21
5036.510459
 31
0.0
  0
LINE
  8
SUNPOU
 10
4189.957266
 20
4756.510459
 30
0.0
 11
4316.44469
 21
4756.510459
 31
0.0
  0
TEXT
  8
SUNPOU
 10
2765.671561
 20
5262.730161
 30
0.0
 40
60.0
  1
2306
  7
K
 72
     1
 11
2879.957276
 21
5262.730161
 31
0.0
  0
INSERT
  8
SUNPOU
  2
ARROWANG
 10
4032.957266
 20
5232.730161
 30
0.0
 41
30.0
 42
30.0
 43
30.0
  0
INSERT
  8
SUNPOU
  2
ARROWANG
 10
1726.957266
 20
5232.730161
 30
0.0
 41
30.0
 42
30.0
 50
180.0
 43
30.0
  0
LINE
  8
SUNPOU
 10
1726.957266
 20
5232.730161
 30
0.0
 11
4032.957266
 21
5232.730161
 31
0.0
  0
LINE
  8
SUNPOU
 10
4032.957266
 20
5056.510459
 30
0.0
 11
4032.957266
 21
5252.730161
 31
0.0
  0
LINE
  8
SUNPOU
 10
1726.957266
 20
5056.510459
 30
0.0
 11
1726.957266
 21
5252.730161
 31
0.0
  0
TEXT
  8
SUNPOU
 10
2764.24299
 20
5438.031388
 30
0.0
 40
60.0
  1
2324
  7
K
 72
     1
 11
2879.957276
 21
5438.031388
 31
0.0
  0
INSERT
  8
SUNPOU
  2
ARROWANG
 10
4041.957266
 20
5408.031388
 30
0.0
 41
30.0
 42
30.0
 43
30.0
  0
INSERT
  8
SUNPOU
  2
ARROWANG
 10
1717.957266
 20
5408.031388
 30
0.0
 41
30.0
 42
30.0
 50
180.0
 43
30.0
  0
LINE
  8
SUNPOU
 10
1717.957266
 20
5408.031388
 30
0.0
 11
4041.957266
 21
5408.031388
 31
0.0
  0
LINE
  8
SUNPOU
 10
4041.957266
 20
5088.510459
 30
0.0
 11
4041.957266
 21
5428.031388
 31
0.0
  0
LINE
  8
SUNPOU
 10
1717.957266
 20
5088.510459
 30
0.0
 11
1717.957266
 21
5428.031388
 31
0.0
  0
CIRCLE
  8
JISSEN
 10
2879.957266
 20
2783.741089
 30
0.0
 40
1153.0
  0
CIRCLE
  8
JISSEN
 10
2879.957266
 20
2783.741089
 30
0.0
 40
1162.0
  0
TEXT
  8
SUNPOU
 10
2765.671561
 20
4382.117065
 30
0.0
 40
60.0
  1
2580
  7
K
 72
     1
 11
2879.957276
 21
4382.117065
 31
0.0
  0
INSERT
  8
SUNPOU
  2
ARROWANG
 10
4169.957266
 20
4352.117065
 30
0.0
 41
30.0
 42
30.0
 43
30.0
  0
INSERT
  8
SUNPOU
  2
ARROWANG
 10
1589.957266
 20
4352.117065
 30
0.0
 41
30.0
 42
30.0
 50
180.0
 43
30.0
  0
LINE
  8
SUNPOU
 10
1589.957266
 20
4352.117065
 30
0.0
 11
4169.957266
 21
4352.117065
 31
0.0
  0
LINE
  8
SUNPOU
 10
4169.957266
 20
4766.510459
 30
0.0
 11
4169.957266
 21
4332.117065
 31
0.0
  0
LINE
  8
SUNPOU
 10
1589.957266
 20
4766.510459
 30
0.0
 11
1589.957266
 21
4332.117065
 31
0.0
  0
TEXT
  8
SUNPOU
 10
2794.24299
 20
4600.535131
 30
0.0
 40
60.0
  1
800
  7
K
 72
     1
 11
2879.957276
 21
4600.535131
 31
0.0
  0
INSERT
  8
SUNPOU
  2
ARROWANG
 10
3279.957266
 20
4570.535131
 30
0.0
 41
30.0
 42
30.0
 43
30.0
  0
INSERT
  8
SUNPOU
  2
ARROWANG
 10
2479.957266
 20
4570.535131
 30
0.0
 41
30.0
 42
30.0
 50
180.0
 43
30.0
  0
LINE
  8
SUNPOU
 10
2479.957266
 20
4570.535131
 30
0.0
 11
3279.957266
 21
4570.535131
 31
0.0
  0
LINE
  8
SUNPOU
 10
3279.957266
 20
4766.510459
 30
0.0
 11
3279.957266
 21
4550.535131
 31
0.0
  0
LINE
  8
SUNPOU
 10
2479.957266
 20
4766.510459
 30
0.0
 11
2479.957266
 21
4550.535131
 31
0.0
  0
TEXT
  8
SUNPOU
 10
3339.580782
 20
3042.696544
 30
0.0
 40
60.0
  1
%%C2580
 50
26.407512
  7
K
 72
     1
 11
3462.413256
 21
3103.691188
 31
0.0
  0
INSERT
  8
SUNPOU
  2
ARROWANG
 10
1724.564308
 20
2210.010217
 30
0.0
 41
30.0
 42
30.0
 50
206.407512
 43
30.0
  0
INSERT
  8
SUNPOU
  2
ARROWANG
 10
4035.350224
 20
3357.47196
 30
0.0
 41
30.0
 42
30.0
 50
26.407512
 43
30.0
  0
LINE
  8
SUNPOU
 10
4035.350224
 20
3357.47196
 30
0.0
 11
1724.564308
 21
2210.010217
 31
0.0
  0
TEXT
  8
SUNPOU
 10
2677.973493
 20
2935.928012
 30
0.0
 40
60.0
  1
%%C800
 50
333.639642
  7
K
 72
     1
 11
2775.255576
 21
2887.72063
 31
0.0
  0
INSERT
  8
SUNPOU
  2
ARROWANG
 10
2521.549595
 20
2961.34723
 30
0.0
 41
30.0
 42
30.0
 50
153.639642
 43
30.0
  0
INSERT
  8
SUNPOU
  2
ARROWANG
 10
3238.364937
 20
2606.134948
 30
0.0
 41
30.0
 42
30.0
 50
333.639642
 43
30.0
  0
LINE
  8
SUNPOU
 10
3238.364937
 20
2606.134948
 30
0.0
 11
2521.549595
 21
2961.34723
 31
0.0
  0
LINE
  8
JISSEN
 10
4169.957266
 20
4756.510459
 30
0.0
 11
4169.957266
 21
5068.510459
 31
0.0
  0
LINE
  8
JISSEN
 10
4032.957266
 20
5036.510459
 30
0.0
 11
3279.957266
 21
5036.510459
 31
0.0
  0
POINT
  8
JISSEN
 10
2880.957266
 20
2783.741089
 30
0.0
  0
LINE
  8
ITTEN
 10
4219.957266
 20
2783.741089
 30
0.0
 11
1539.957266
 21
2783.741089
 31
0.0
  0
LINE
  8
ITTEN
 10
2879.957266
 20
4123.741089
 30
0.0
 11
2879.957266
 21
1443.741089
 31
0.0
  0
CIRCLE
  8
JISSEN
 10
2879.957266
 20
2783.741089
 30
0.0
 40
1290.0
  0
CIRCLE
  8
JISSEN
 10
2879.957266
 20
2783.741089
 30
0.0
 40
400.0
  0
LINE
  8
JISSEN
 10
2479.957266
 20
5036.510459
 30
0.0
 11
3279.957266
 21
5036.510459
 31
0.0
  0
LINE
  8
ITTEN
 10
2879.957266
 20
5086.510459
 30
0.0
 11
2879.957266
 21
4736.510459
 31
0.0
  0
LINE
  8
JISSEN
 10
1726.957266
 20
5036.510459
 30
0.0
 11
2479.957266
 21
5036.510459
 31
0.0
  0
LINE
  8
JISSEN
 10
1589.957266
 20
4756.510459
 30
0.0
 11
1589.957266
 21
5068.510459
 31
0.0
  0
LINE
  8
JISSEN
 10
3279.957266
 20
5036.510459
 30
0.0
 11
3279.957266
 21
4756.510459
 31
0.0
  0
LINE
  8
JISSEN
 10
2479.957266
 20
5036.510459
 30
0.0
 11
2479.957266
 21
4756.510459
 31
0.0
  0
LINE
  8
JISSEN
 10
1589.957266
 20
4756.510459
 30
0.0
 11
4169.957266
 21
4756.510459
 31
0.0
  0
TEXT
  8
TEXT
 10
3959.030067
 20
1515.562435
 30
0.0
 40
60.0
  1
M20 8ケ所
  7
K
  0
LINE
  8
JISSEN
 10
1589.957266
 20
5068.510459
 30
0.0
 11
2879.957266
 21
5068.510459
 31
0.0
  0
LINE
  8
JISSEN
 10
1717.957266
 20
5068.510459
 30
0.0
 11
1726.957266
 21
5036.510459
 31
0.0
  0
LINE
  8
JISSEN
 10
4169.957266
 20
5068.510459
 30
0.0
 11
2879.957266
 21
5068.510459
 31
0.0
  0
LINE
  8
JISSEN
 10
4041.957266
 20
5068.510459
 30
0.0
 11
4032.957266
 21
5036.510459
 31
0.0
  0
LINE
  8
SUNPOU
 10
4336.44469
 20
4756.510459
 30
0.0
 11
4483.87636
 21
4756.510459
 31
0.0
  0
LINE
  8
SUNPOU
 10
4189.957266
 20
5068.510459
 30
0.0
 11
4483.87636
 21
5068.510459
 31
0.0
  0
LINE
  8
SUNPOU
 10
4463.87636
 20
4756.510459
 30
0.0
 11
4463.87636
 21
5068.510459
 31
0.0
  0
INSERT
  8
SUNPOU
  2
ARROWANG
 10
4463.87636
 20
4756.510459
 30
0.0
 41
30.0
 42
30.0
 50
270.0
 43
30.0
  0
INSERT
  8
SUNPOU
  2
ARROWANG
 10
4463.87636
 20
5068.510459
 30
0.0
 41
30.0
 42
30.0
 50
90.0
 43
30.0
  0
TEXT
  8
SUNPOU
 10
4433.87636
 20
4826.796174
 30
0.0
 40
60.0
  1
312
 50
90.0
  7
K
 72
     1
 11
4433.87636
 21
4912.510459
 31
0.0
  0
LINE
  8
SUNPOU
 10
1947.789518
 20
4918.510459
 30
0.0
 11
1420.928899
 21
4918.510459
 31
0.0
  0
LINE
  8
SUNPOU
 10
1569.957266
 20
5068.510459
 30
0.0
 11
1420.928899
 21
5068.510459
 31
0.0
  0
LINE
  8
SUNPOU
 10
1440.928899
 20
4918.510459
 30
0.0
 11
1440.928899
 21
5068.510459
 31
0.0
  0
INSERT
  8
SUNPOU
  2
ARROWANG
 10
1440.928899
 20
4918.510459
 30
0.0
 41
30.0
 42
30.0
 50
270.0
 43
30.0
  0
INSERT
  8
SUNPOU
  2
ARROWANG
 10
1440.928899
 20
5068.510459
 30
0.0
 41
30.0
 42
30.0
 50
90.0
 43
30.0
  0
TEXT
  8
SUNPOU
 10
1410.928899
 20
4903.510459
 30
0.0
 40
60.0
  1
150
 50
90.0
  7
K
 72
     1
 11
1410.928899
 21
4993.510459
 31
0.0
  0
TEXT
  8
SUNPOU
 10
5065.381569
 20
4903.510459
 30
0.0
 40
60.0
  1
150
 50
90.0
  7
K
 72
     1
 11
5065.381569
 21
4993.510459
 31
0.0
  0
INSERT
  8
SUNPOU
  2
ARROWANG
 10
5095.381569
 20
5068.510459
 30
0.0
 41
30.0
 42
30.0
 50
90.0
 43
30.0
  0
INSERT
  8
SUNPOU
  2
ARROWANG
 10
5095.381569
 20
4918.510459
 30
0.0
 41
30.0
 42
30.0
 50
270.0
 43
30.0
  0
LINE
  8
SUNPOU
 10
5095.381569
 20
4918.510459
 30
0.0
 11
5095.381569
 21
5068.510459
 31
0.0
  0
LINE
  8
SUNPOU
 10
5224.409935
 20
5068.510459
 30
0.0
 11
5075.381569
 21
5068.510459
 31
0.0
  0
LINE
  8
SUNPOU
 10
5602.242188
 20
4918.510459
 30
0.0
 11
5075.381569
 21
4918.510459
 31
0.0
  0
TEXT
  8
SUNPOU
 10
8088.32903
 20
4826.796174
 30
0.0
 40
60.0
  1
312
 50
90.0
  7
K
 72
     1
 11
8088.32903
 21
4912.510459
 31
0.0
  0
INSERT
  8
SUNPOU
  2
ARROWANG
 10
8118.32903
 20
5068.510459
 30
0.0
 41
30.0
 42
30.0
 50
90.0
 43
30.0
  0
INSERT
  8
SUNPOU
  2
ARROWANG
 10
8118.32903
 20
4756.510459
 30
0.0
 41
30.0
 42
30.0
 50
270.0
 43
30.0
  0
LINE
  8
SUNPOU
 10
8118.32903
 20
4756.510459
 30
0.0
 11
8118.32903
 21
5068.510459
 31
0.0
  0
LINE
  8
SUNPOU
 10
7844.409935
 20
5068.510459
 30
0.0
 11
8138.32903
 21
5068.510459
 31
0.0
  0
LINE
  8
SUNPOU
 10
7990.89736
 20
4756.510459
 30
0.0
 11
8138.32903
 21
4756.510459
 31
0.0
  0
LINE
  8
JISSEN
 10
7696.409935
 20
5068.510459
 30
0.0
 11
7687.409935
 21
5036.510459
 31
0.0
  0
LINE
  8
JISSEN
 10
7824.409935
 20
5068.510459
 30
0.0
 11
6534.409935
 21
5068.510459
 31
0.0
  0
LINE
  8
JISSEN
 10
5372.409935
 20
5068.510459
 30
0.0
 11
5381.409935
 21
5036.510459
 31
0.0
  0
LINE
  8
JISSEN
 10
5244.409935
 20
5068.510459
 30
0.0
 11
6534.409935
 21
5068.510459
 31
0.0
  0
TEXT
  8
TEXT
 10
7613.482736
 20
1515.562435
 30
0.0
 40
60.0
  1
M20 8ケ所
  7
K
  0
LINE
  8
JISSEN
 10
5244.409935
 20
4756.510459
 30
0.0
 11
7824.409935
 21
4756.510459
 31
0.0
  0
LINE
  8
JISSEN
 10
5244.409935
 20
4756.510459
 30
0.0
 11
5244.409935
 21
5068.510459
 31
0.0
  0
LINE
  8
JISSEN
 10
5381.409935
 20
5036.510459
 30
0.0
 11
6134.409935
 21
5036.510459
 31
0.0
  0
LINE
  8
ITTEN
 10
6534.409935
 20
5086.510459
 30
0.0
 11
6534.409935
 21
4736.510459
 31
0.0
  0
LINE
  8
JISSEN
 10
6134.409935
 20
5036.510459
 30
0.0
 11
6934.409935
 21
5036.510459
 31
0.0
  0
CIRCLE
  8
JISSEN
 10
6534.409935
 20
2783.741089
 30
0.0
 40
1290.0
  0
LINE
  8
ITTEN
 10
6534.409935
 20
4123.741089
 30
0.0
 11
6534.409935
 21
1443.741089
 31
0.0
  0
LINE
  8
ITTEN
 10
7874.409935
 20
2783.741089
 30
0.0
 11
5194.409935
 21
2783.741089
 31
0.0
  0
LINE
  8
JISSEN
 10
7687.409935
 20
5036.510459
 30
0.0
 11
6934.409935
 21
5036.510459
 31
0.0
  0
LINE
  8
JISSEN
 10
7824.409935
 20
4756.510459
 30
0.0
 11
7824.409935
 21
5068.510459
 31
0.0
  0
LINE
  8
SUNPOU
 10
7689.802893
 20
3357.47196
 30
0.0
 11
5379.016977
 21
2210.010217
 31
0.0
  0
INSERT
  8
SUNPOU
  2
ARROWANG
 10
7689.802893
 20
3357.47196
 30
0.0
 41
30.0
 42
30.0
 50
26.407512
 43
30.0
  0
INSERT
  8
SUNPOU
  2
ARROWANG
 10
5379.016977
 20
2210.010217
 30
0.0
 41
30.0
 42
30.0
 50
206.407512
 43
30.0
  0
TEXT
  8
SUNPOU
 10
6994.033451
 20
3042.696544
 30
0.0
 40
60.0
  1
%%C2580
 50
26.407512
  7
K
 72
     1
 11
7116.865925
 21
3103.691188
 31
0.0
  0
LINE
  8
SUNPOU
 10
5244.409935
 20
4766.510459
 30
0.0
 11
5244.409935
 21
4332.117065
 31
0.0
  0
LINE
  8
SUNPOU
 10
7824.409935
 20
4766.510459
 30
0.0
 11
7824.409935
 21
4332.117065
 31
0.0
  0
LINE
  8
SUNPOU
 10
5244.409935
 20
4352.117065
 30
0.0
 11
7824.409935
 21
4352.117065
 31
0.0
  0
INSERT
  8
SUNPOU
  2
ARROWANG
 10
5244.409935
 20
4352.117065
 30
0.0
 41
30.0
 42
30.0
 50
180.0
 43
30.0
  0
INSERT
  8
SUNPOU
  2
ARROWANG
 10
7824.409935
 20
4352.117065
 30
0.0
 41
30.0
 42
30.0
 43
30.0
  0
TEXT
  8
SUNPOU
 10
6420.124231
 20
4382.117065
 30
0.0
 40
60.0
  1
2580
  7
K
 72
     1
 11
6534.409945
 21
4382.117065
 31
0.0
  0
CIRCLE
  8
JISSEN
 10
6534.409935
 20
2783.741089
 30
0.0
 40
1162.0
  0
CIRCLE
  8
JISSEN
 10
6534.409935
 20
2783.741089
 30
0.0
 40
1153.0
  0
LINE
  8
SUNPOU
 10
5372.409935
 20
5088.510459
 30
0.0
 11
5372.409935
 21
5428.031388
 31
0.0
  0
LINE
  8
SUNPOU
 10
7696.409935
 20
5088.510459
 30
0.0
 11
7696.409935
 21
5428.031388
 31
0.0
  0
LINE
  8
SUNPOU
 10
5372.409935
 20
5408.031388
 30
0.0
 11
7696.409935
 21
5408.031388
 31
0.0
  0
INSERT
  8
SUNPOU
  2
ARROWANG
 10
5372.409935
 20
5408.031388
 30
0.0
 41
30.0
 42
30.0
 50
180.0
 43
30.0
  0
INSERT
  8
SUNPOU
  2
ARROWANG
 10
7696.409935
 20
5408.031388
 30
0.0
 41
30.0
 42
30.0
 43
30.0
  0
TEXT
  8
SUNPOU
 10
6418.695659
 20
5438.031388
 30
0.0
 40
60.0
  1
2324
  7
K
 72
     1
 11
6534.409945
 21
5438.031388
 31
0.0
  0
LINE
  8
SUNPOU
 10
5381.409935
 20
5056.510459
 30
0.0
 11
5381.409935
 21
5252.730161
 31
0.0
  0
LINE
  8
SUNPOU
 10
7687.409935
 20
5056.510459
 30
0.0
 11
7687.409935
 21
5252.730161
 31
0.0
  0
LINE
  8
SUNPOU
 10
5381.409935
 20
5232.730161
 30
0.0
 11
7687.409935
 21
5232.730161
 31
0.0
  0
INSERT
  8
SUNPOU
  2
ARROWANG
 10
5381.409935
 20
5232.730161
 30
0.0
 41
30.0
 42
30.0
 50
180.0
 43
30.0
  0
INSERT
  8
SUNPOU
  2
ARROWANG
 10
7687.409935
 20
5232.730161
 30
0.0
 41
30.0
 42
30.0
 43
30.0
  0
TEXT
  8
SUNPOU
 10
6420.124231
 20
5262.730161
 30
0.0
 40
60.0
  1
2306
  7
K
 72
     1
 11
6534.409945
 21
5262.730161
 31
0.0
  0
LINE
  8
SUNPOU
 10
7844.409935
 20
4756.510459
 30
0.0
 11
7970.89736
 21
4756.510459
 31
0.0
  0
LINE
  8
SUNPOU
 10
7707.409935
 20
5036.510459
 30
0.0
 11
7970.89736
 21
5036.510459
 31
0.0
  0
LINE
  8
SUNPOU
 10
7950.89736
 20
4756.510459
 30
0.0
 11
7950.89736
 21
5036.510459
 31
0.0
  0
INSERT
  8
SUNPOU
  2
ARROWANG
 10
7950.89736
 20
4756.510459
 30
0.0
 41
30.0
 42
30.0
 50
270.0
 43
30.0
  0
INSERT
  8
SUNPOU
  2
ARROWANG
 10
7950.89736
 20
5036.510459
 30
0.0
 41
30.0
 42
30.0
 50
90.0
 43
30.0
  0
TEXT
  8
SUNPOU
 10
7920.89736
 20
4810.796174
 30
0.0
 40
60.0
  1
280
 50
90.0
  7
K
 72
     1
 11
7920.89736
 21
4896.510459
 31
0.0
  0
TEXT
  8
SUNPOU
 10
7591.113026
 20
1622.994015
 30
0.0
 40
60.0
  1
埋込みアンカー
  7
K
  0
LINE
  8
HASEN
 10
6026.890115
 20
3969.805434
 30
0.0
 11
6065.158458
 21
3877.417481
 31
0.0
  0
LINE
  8
HASEN
 10
6065.158458
 20
3877.417481
 30
0.0
 11
6092.874844
 21
3888.897984
 31
0.0
  0
LINE
  8
HASEN
 10
6054.606501
 20
3981.285937
 30
0.0
 11
6092.874844
 21
3888.897984
 31
0.0
  0
LINE
  8
HASEN
 10
5611.635586
 20
3685.302235
 30
0.0
 11
5682.346264
 21
3614.591556
 31
0.0
  0
LINE
  8
HASEN
 10
5682.346264
 20
3614.591556
 30
0.0
 11
5703.559467
 21
3635.80476
 31
0.0
  0
LINE
  8
HASEN
 10
5632.848789
 20
3706.515438
 30
0.0
 11
5703.559467
 21
3635.80476
 31
0.0
  0
LINE
  8
HASEN
 10
7435.971081
 20
3706.515438
 30
0.0
 11
7365.260403
 21
3635.80476
 31
0.0
  0
LINE
  8
HASEN
 10
7386.473607
 20
3614.591556
 30
0.0
 11
7365.260403
 21
3635.80476
 31
0.0
  0
LINE
  8
HASEN
 10
7457.184285
 20
3685.302235
 30
0.0
 11
7386.473607
 21
3614.591556
 31
0.0
  0
LINE
  8
HASEN
 10
7014.21337
 20
3981.285937
 30
0.0
 11
6975.945027
 21
3888.897984
 31
0.0
  0
LINE
  8
HASEN
 10
7003.661413
 20
3877.417481
 30
0.0
 11
6975.945027
 21
3888.897984
 31
0.0
  0
LINE
  8
HASEN
 10
7041.929756
 20
3969.805434
 30
0.0
 11
7003.661413
 21
3877.417481
 31
0.0
  0
LINE
  8
HASEN
 10
7041.929756
 20
1597.676743
 30
0.0
 11
7003.661413
 21
1690.064696
 31
0.0
  0
LINE
  8
HASEN
 10
7003.661413
 20
1690.064696
 30
0.0
 11
6975.945027
 21
1678.584193
 31
0.0
  0
LINE
  8
HASEN
 10
7014.21337
 20
1586.19624
 30
0.0
 11
6975.945027
 21
1678.584193
 31
0.0
  0
LINE
  8
HASEN
 10
7457.184285
 20
1882.179943
 30
0.0
 11
7386.473607
 21
1952.890621
 31
0.0
  0
LINE
  8
HASEN
 10
7386.473607
 20
1952.890621
 30
0.0
 11
7365.260403
 21
1931.677417
 31
0.0
  0
LINE
  8
HASEN
 10
7435.971081
 20
1860.966739
 30
0.0
 11
7365.260403
 21
1931.677417
 31
0.0
  0
LINE
  8
HASEN
 10
5632.848789
 20
1860.966739
 30
0.0
 11
5703.559467
 21
1931.677417
 31
0.0
  0
LINE
  8
HASEN
 10
5682.346264
 20
1952.890621
 30
0.0
 11
5703.559467
 21
1931.677417
 31
0.0
  0
LINE
  8
HASEN
 10
5611.635586
 20
1882.179943
 30
0.0
 11
5682.346264
 21
1952.890621
 31
0.0
  0
LINE
  8
HASEN
 10
6054.606501
 20
1586.19624
 30
0.0
 11
6092.874844
 21
1678.584193
 31
0.0
  0
LINE
  8
HASEN
 10
6065.158458
 20
1690.064696
 30
0.0
 11
6092.874844
 21
1678.584193
 31
0.0
  0
LINE
  8
HASEN
 10
6026.890115
 20
1597.676743
 30
0.0
 11
6065.158458
 21
1690.064696
 31
0.0
  0
INSERT
  8
SUNPOU
  2
ARROWANG
 10
7416.088629
 20
1895.377151
 30
0.0
 41
30.0
 42
30.0
 50
105.287348
 43
30.0
  0
LINE
  8
SUNPOU
 10
7416.088629
 20
1895.377151
 30
0.0
 11
7497.728429
 21
1596.693193
 31
0.0
  0
LINE
  8
SUNPOU
 10
7497.728429
 20
1596.693193
 30
0.0
 11
8154.088842
 21
1596.693193
 31
0.0
  0
INSERT
  8
SUNPOU
  2
ARROWANG
 10
7025.57334
 20
1623.747899
 30
0.0
 41
30.0
 42
30.0
 50
176.720511
 43
30.0
  0
LINE
  8
SUNPOU
 10
7025.57334
 20
1623.747899
 30
0.0
 11
7497.728429
 21
1596.693193
 31
0.0
  0
LINE
  8
ITTEN
 10
5647.242188
 20
4918.510459
 30
0.0
 11
5597.242188
 21
4918.510459
 31
0.0
  0
LINE
  8
ITTEN
 10
5622.242188
 20
4943.510459
 30
0.0
 11
5622.242188
 21
4893.510459
 31
0.0
  0
CIRCLE
  8
TEXT
 10
5622.242188
 20
4918.510459
 30
0.0
 40
15.0
  0
CIRCLE
  8
TEXT
 10
6040.748308
 20
4918.510459
 30
0.0
 40
15.0
  0
LINE
  8
ITTEN
 10
6040.748308
 20
4943.510459
 30
0.0
 11
6040.748308
 21
4893.510459
 31
0.0
  0
LINE
  8
ITTEN
 10
6065.748308
 20
4918.510459
 30
0.0
 11
6015.748308
 21
4918.510459
 31
0.0
  0
LINE
  8
ITTEN
 10
7003.071563
 20
4918.510459
 30
0.0
 11
7053.071563
 21
4918.510459
 31
0.0
  0
LINE
  8
ITTEN
 10
7028.071563
 20
4943.510459
 30
0.0
 11
7028.071563
 21
4893.510459
 31
0.0
  0
CIRCLE
  8
TEXT
 10
7028.071563
 20
4918.510459
 30
0.0
 40
15.0
  0
CIRCLE
  8
TEXT
 10
7446.577683
 20
4918.510459
 30
0.0
 40
15.0
  0
LINE
  8
ITTEN
 10
7446.577683
 20
4943.510459
 30
0.0
 11
7446.577683
 21
4893.510459
 31
0.0
  0
LINE
  8
ITTEN
 10
7421.577683
 20
4918.510459
 30
0.0
 11
7471.577683
 21
4918.510459
 31
0.0
  0
TEXT
  8
TEXT
 10
6422.476076
 20
5661.072872
 30
0.0
 40
90.0
  1
M5PF
  7
K
  0
POLYLINE
  8
WAKU
 66
     1
 10
0.0
 20
0.0
 30
0.0
 70
     1
  0
VERTEX
  8
WAKU
 10
0.0
 20
0.0
 30
0.0
  0
VERTEX
  8
WAKU
 10
9875.0
 20
0.0
 30
0.0
  0
VERTEX
  8
WAKU
 10
9875.0
 20
6825.0
 30
0.0
  0
VERTEX
  8
WAKU
 10
0.0
 20
6825.0
 30
0.0
  0
SEQEND
  8
WAKU
  0
TEXT
  8
TEXT
 10
9311.928007
 20
874.70475
 30
0.0
 40
120.0
  1
1/25
  7
K
  0
ENDSEC
  0
EOF
