  0
SECTION
  2
HEADER
  9
$ACADVER
  1
AC1009
  9
$INSBASE
 10
0.0
 20
0.0
 30
0.0
  9
$EXTMIN
 10
0.0
 20
0.0
 30
0.0
  9
$EXTMAX
 10
9875.0
 20
6825.0
 30
0.0
  9
$LIMMIN
 10
0.0
 20
0.0
  9
$LIMMAX
 10
9875.0
 20
6825.0
  9
$ORTHOMODE
 70
     0
  9
$REGENMODE
 70
     1
  9
$FILLMODE
 70
     1
  9
$QTEXTMODE
 70
     0
  9
$MIRRTEXT
 70
     0
  9
$DRAGMODE
 70
     2
  9
$LTSCALE
 40
125.0
  9
$OSMODE
 70
    33
  9
$ATTMODE
 70
     1
  9
$TEXTSIZE
 40
60.0
  9
$TRACEWID
 40
0.05
  9
$TEXTSTYLE
  7
K
  9
$CLAYER
  8
SUNPOU
  9
$CELTYPE
  6
BYLAYER
  9
$CECOLOR
 62
   256
  9
$DIMSCALE
 40
25.0
  9
$DIMASZ
 40
1.5
  9
$DIMEXO
 40
1.0
  9
$DIMDLI
 40
6.0
  9
$DIMRND
 40
0.0
  9
$DIMDLE
 40
0.0
  9
$DIMEXE
 40
1.0
  9
$DIMTP
 40
495.0
  9
$DIMTM
 40
0.0
  9
$DIMTXT
 40
3.0
  9
$DIMCEN
 40
0.0
  9
$DIMTSZ
 40
0.0
  9
$DIMTOL
 70
     0
  9
$DIMLIM
 70
     0
  9
$DIMTIH
 70
     0
  9
$DIMTOH
 70
     0
  9
$DIMSE1
 70
     0
  9
$DIMSE2
 70
     0
  9
$DIMTAD
 70
     1
  9
$DIMZIN
 70
     8
  9
$DIMBLK
  1
ARROW
  9
$DIMASO
 70
     0
  9
$DIMSHO
 70
     0
  9
$DIMPOST
  1

  9
$DIMAPOST
  1

  9
$DIMALT
 70
     0
  9
$DIMALTD
 70
     2
  9
$DIMALTF
 40
25.4
  9
$DIMLFAC
 40
1.0
  9
$DIMTOFL
 70
     1
  9
$DIMTVP
 40
0.0
  9
$DIMTIX
 70
     1
  9
$DIMSOXD
 70
     0
  9
$DIMSAH
 70
     0
  9
$DIMBLK1
  1

  9
$DIMBLK2
  1

  9
$DIMSTYLE
  2
*UNNAMED
  9
$DIMCLRD
 70
     0
  9
$DIMCLRE
 70
     0
  9
$DIMCLRT
 70
     0
  9
$DIMTFAC
 40
1.0
  9
$DIMGAP
 40
0.09
  9
$LUNITS
 70
     2
  9
$LUPREC
 70
     2
  9
$AXISMODE
 70
     1
  9
$AXISUNIT
 10
100.0
 20
100.0
  9
$SKETCHINC
 40
0.1
  9
$FILLETRAD
 40
10.0
  9
$AUNITS
 70
     0
  9
$AUPREC
 70
     2
  9
$MENU
  1
d:stdgx5
  9
$ELEVATION
 40
0.0
  9
$PELEVATION
 40
0.0
  9
$THICKNESS
 40
0.0
  9
$LIMCHECK
 70
     0
  9
$BLIPMODE
 70
     1
  9
$CHAMFERA
 40
0.0
  9
$CHAMFERB
 40
0.0
  9
$SKPOLY
 70
     0
  9
$TDCREATE
 40
2450248.716412037
  9
$TDUPDATE
 40
2450248.730451388
  9
$TDINDWG
 40
0.0125925926
  9
$TDUSRTIMER
 40
0.0125925926
  9
$USRTIMER
 70
     1
  9
$ANGBASE
 50
0.0
  9
$ANGDIR
 70
     0
  9
$PDMODE
 70
     0
  9
$PDSIZE
 40
0.0
  9
$PLINEWID
 40
0.0
  9
$COORDS
 70
     2
  9
$SPLFRAME
 70
     0
  9
$SPLINETYPE
 70
     6
  9
$SPLINESEGS
 70
     8
  9
$ATTDIA
 70
     0
  9
$ATTREQ
 70
     1
  9
$HANDLING
 70
     0
  9
$HANDSEED
  5
0
  9
$SURFTAB1
 70
     6
  9
$SURFTAB2
 70
     6
  9
$SURFTYPE
 70
     6
  9
$SURFU
 70
     6
  9
$SURFV
 70
     6
  9
$UCSNAME
  2

  9
$UCSORG
 10
0.0
 20
0.0
 30
0.0
  9
$UCSXDIR
 10
1.0
 20
0.0
 30
0.0
  9
$UCSYDIR
 10
0.0
 20
1.0
 30
0.0
  9
$PUCSNAME
  2

  9
$PUCSORG
 10
0.0
 20
0.0
 30
0.0
  9
$PUCSXDIR
 10
1.0
 20
0.0
 30
0.0
  9
$PUCSYDIR
 10
0.0
 20
1.0
 30
0.0
  9
$USERI1
 70
     3
  9
$USERI2
 70
    33
  9
$USERI3
 70
     0
  9
$USERI4
 70
     1
  9
$USERI5
 70
     0
  9
$USERR1
 40
25.0
  9
$USERR2
 40
3.0
  9
$USERR3
 40
3.0
  9
$USERR4
 40
1.5
  9
$USERR5
 40
10.0
  9
$WORLDVIEW
 70
     1
  9
$SHADEDGE
 70
     3
  9
$SHADEDIF
 70
    70
  9
$TILEMODE
 70
     1
  9
$MAXACTVP
 70
    16
  9
$PINSBASE
 10
0.0
 20
0.0
 30
0.0
  9
$PLIMCHECK
 70
     0
  9
$PEXTMIN
 10
1.000000E+20
 20
1.000000E+20
 30
1.000000E+20
  9
$PEXTMAX
 10
-1.000000E+20
 20
-1.000000E+20
 30
-1.000000E+20
  9
$PLIMMIN
 10
0.0
 20
0.0
  9
$PLIMMAX
 10
12.0
 20
9.0
  9
$UNITMODE
 70
     0
  9
$VISRETAIN
 70
     0
  0
ENDSEC
  0
SECTION
  2
TABLES
  0
TABLE
  2
VPORT
 70
    10
  0
VPORT
  2
*ACTIVE
 70
     0
 10
0.0
 20
0.0
 11
1.0
 21
1.0
 12
5576.263114
 22
3412.5
 13
0.0
 23
0.0
 14
1.0
 24
1.0
 15
10.0
 25
10.0
 16
0.0
 26
0.0
 36
1.0
 17
0.0
 27
0.0
 37
0.0
 40
6825.0
 41
1.63407
 42
50.0
 43
0.0
 44
0.0
 50
0.0
 51
0.0
 71
     0
 72
   500
 73
     1
 74
     0
 75
     0
 76
     0
 77
     0
 78
     0
  0
VPORT
  2
2
 70
     0
 10
0.5
 20
0.0
 11
1.0
 21
1.0
 12
0.924031
 22
1.052651
 13
0.0
 23
0.0
 14
1.0
 24
1.0
 15
10.0
 25
10.0
 16
0.0
 26
0.0
 36
1.0
 17
0.0
 27
0.0
 37
0.0
 40
2.105302
 41
0.877814
 42
50.0
 43
0.0
 44
0.0
 50
0.0
 51
0.0
 71
     0
 72
   500
 73
     1
 74
     1
 75
     0
 76
     0
 77
     0
 78
     0
  0
VPORT
  2
2
 70
     0
 10
0.0
 20
0.0
 11
0.5
 21
1.0
 12
0.924031
 22
1.052651
 13
0.0
 23
0.0
 14
1.0
 24
1.0
 15
10.0
 25
10.0
 16
0.0
 26
0.0
 36
1.0
 17
0.0
 27
0.0
 37
0.0
 40
2.105302
 41
0.877814
 42
50.0
 43
0.0
 44
0.0
 50
0.0
 51
0.0
 71
     0
 72
   500
 73
     1
 74
     1
 75
     0
 76
     0
 77
     0
 78
     0
  0
VPORT
  2
3
 70
     0
 10
0.0
 20
0.5
 11
1.0
 21
1.0
 12
2.83217
 22
1.052651
 13
0.0
 23
0.0
 14
1.0
 24
1.0
 15
10.0
 25
10.0
 16
0.0
 26
0.0
 36
1.0
 17
0.0
 27
0.0
 37
0.0
 40
2.105302
 41
3.571429
 42
50.0
 43
0.0
 44
0.0
 50
0.0
 51
0.0
 71
     0
 72
   500
 73
     1
 74
     1
 75
     0
 76
     0
 77
     0
 78
     0
  0
VPORT
  2
3
 70
     0
 10
0.0
 20
0.0
 11
1.0
 21
0.5
 12
2.856742
 22
1.052651
 13
0.0
 23
0.0
 14
1.0
 24
1.0
 15
10.0
 25
10.0
 16
0.0
 26
0.0
 36
1.0
 17
0.0
 27
0.0
 37
0.0
 40
2.105302
 41
3.594771
 42
50.0
 43
0.0
 44
0.0
 50
0.0
 51
0.0
 71
     0
 72
   500
 73
     1
 74
     1
 75
     0
 76
     0
 77
     0
 78
     0
  0
VPORT
  2
4
 70
     0
 10
0.5
 20
0.0
 11
1.0
 21
0.5
 12
2.886858
 22
1.052651
 13
0.0
 23
0.0
 14
1.0
 24
1.0
 15
10.0
 25
10.0
 16
0.0
 26
0.0
 36
1.0
 17
0.0
 27
0.0
 37
0.0
 40
4.275207
 41
1.784314
 42
50.0
 43
0.0
 44
0.0
 50
0.0
 51
0.0
 71
     0
 72
   500
 73
     1
 74
     1
 75
     0
 76
     0
 77
     0
 78
     0
  0
VPORT
  2
4
 70
     0
 10
0.5
 20
0.5
 11
1.0
 21
1.0
 12
2.86209
 22
1.052651
 13
0.0
 23
0.0
 14
1.0
 24
1.0
 15
10.0
 25
10.0
 16
0.0
 26
0.0
 36
1.0
 17
0.0
 27
0.0
 37
0.0
 40
4.275207
 41
1.772727
 42
50.0
 43
0.0
 44
0.0
 50
0.0
 51
0.0
 71
     0
 72
   500
 73
     1
 74
     1
 75
     0
 76
     0
 77
     0
 78
     0
  0
VPORT
  2
4
 70
     0
 10
0.0
 20
0.5
 11
0.5
 21
1.0
 12
2.86209
 22
1.052651
 13
0.0
 23
0.0
 14
1.0
 24
1.0
 15
10.0
 25
10.0
 16
0.0
 26
0.0
 36
1.0
 17
0.0
 27
0.0
 37
0.0
 40
4.275207
 41
1.772727
 42
50.0
 43
0.0
 44
0.0
 50
0.0
 51
0.0
 71
     0
 72
   500
 73
     1
 74
     1
 75
     0
 76
     0
 77
     0
 78
     0
  0
VPORT
  2
4
 70
     0
 10
0.0
 20
0.0
 11
0.5
 21
0.5
 12
2.886858
 22
1.052651
 13
0.0
 23
0.0
 14
1.0
 24
1.0
 15
10.0
 25
10.0
 16
0.0
 26
0.0
 36
1.0
 17
0.0
 27
0.0
 37
0.0
 40
4.275207
 41
1.784314
 42
50.0
 43
0.0
 44
0.0
 50
0.0
 51
0.0
 71
     0
 72
   500
 73
     1
 74
     1
 75
     0
 76
     0
 77
     0
 78
     0
  0
ENDTAB
  0
TABLE
  2
LTYPE
 70
     5
  0
LTYPE
  2
CONTINUOUS
 70
    64
  3
実線
 72
    65
 73
     0
 40
0.0
  0
LTYPE
  2
DASHED
 70
    64
  3
__ __ __ __ __ __ __ __ __ __ __ __ __ __ __
 72
    65
 73
     2
 40
0.75
 49
0.5
 49
-0.25
  0
LTYPE
  2
CENTER
 70
    64
  3
____ _ ____ _ ____ _ ____ _ ____ _ ____ _ ____
 72
    65
 73
     4
 40
2.0
 49
1.25
 49
-0.25
 49
0.25
 49
-0.25
  0
LTYPE
  2
PHANTOM
 70
    64
  3
_____ _ _ _____ _ _ _____ _ _ _____ _ _ ____
 72
    65
 73
     6
 40
2.5
 49
1.25
 49
-0.25
 49
0.25
 49
-0.25
 49
0.25
 49
-0.25
  0
LTYPE
  2
HIDDEN
 70
    64
  3
_ _ _ _ _ _ _ _ _ _ _ _ _ _ _ _ _ _ _ _ _ _ _
 72
    65
 73
     2
 40
0.375
 49
0.25
 49
-0.125
  0
ENDTAB
  0
TABLE
  2
LAYER
 70
    14
  0
LAYER
  2
0
 70
     0
 62
     7
  6
CONTINUOUS
  0
LAYER
  2
HASEN
 70
    64
 62
     2
  6
DASHED
  0
LAYER
  2
ITTEN
 70
    64
 62
     1
  6
CENTER
  0
LAYER
  2
SUNPOU
 70
    64
 62
     3
  6
CONTINUOUS
  0
LAYER
  2
TEXT
 70
    64
 62
     3
  6
CONTINUOUS
  0
LAYER
  2
JISSEN
 70
    64
 62
     7
  6
CONTINUOUS
  0
LAYER
  2
WAKU
 70
    64
 62
    -5
  6
CONTINUOUS
  0
ENDTAB
  0
TABLE
  2
STYLE
 70
     2
  0
STYLE
  2
STANDARD
 70
     0
 40
0.0
 41
1.0
 50
0.0
 71
     0
 42
0.2
  3
ROMANS
  4
EXTFONT
  0
STYLE
  2
K
 70
    64
 40
0.0
 41
1.0
 50
0.0
 71
     0
 42
60.0
  3
ROMANS
  4
EXTFONT
  0
ENDTAB
  0
TABLE
  2
VIEW
 70
     0
  0
ENDTAB
  0
TABLE
  2
UCS
 70
     0
  0
ENDTAB
  0
TABLE
  2
APPID
 70
     1
  0
APPID
  2
ACAD
 70
    64
  0
ENDTAB
  0
TABLE
  2
DIMSTYLE
 70
     0
  0
ENDTAB
  0
ENDSEC
  0
SECTION
  2
BLOCKS
  0
BLOCK
  8
SUNPOU
  2
ARROWANG
 70
    64
 10
0.0
 20
0.0
 30
0.0
  3
ARROWANG
  0
LINE
  8
SUNPOU
 10
0.0
 20
0.0
 30
0.0
 11
-1.5
 21
0.401924
 31
0.0
  0
LINE
  8
SUNPOU
 10
0.0
 20
0.0
 30
0.0
 11
-1.5
 21
-0.401924
 31
0.0
  0
ENDBLK
  8
SUNPOU
  0
ENDSEC
  0
SECTION
  2
ENTITIES
  0
TEXT
  8
JISSEN
 10
208.566845
 20
6478.234104
 30
0.0
 40
250.0
  1
５号マンホール
  7
K
  0
TEXT
  8
SUNPOU
 10
5203.716197
 20
1026.054246
 30
0.0
 40
60.0
  1
150
 50
90.0
  7
K
 72
     1
 11
5203.716197
 21
1116.054246
 31
0.0
  0
INSERT
  8
SUNPOU
  2
ARROWANG
 10
5233.716197
 20
1191.054246
 30
0.0
 41
30.0
 42
30.0
 50
90.0
 43
30.0
  0
INSERT
  8
SUNPOU
  2
ARROWANG
 10
5233.716197
 20
1041.054246
 30
0.0
 41
30.0
 42
30.0
 50
270.0
 43
30.0
  0
LINE
  8
SUNPOU
 10
5233.716197
 20
1041.054246
 30
0.0
 11
5233.716197
 21
1191.054246
 31
0.0
  0
LINE
  8
SUNPOU
 10
4620.673172
 20
1191.054246
 30
0.0
 11
5253.716197
 21
1191.054246
 31
0.0
  0
LINE
  8
SUNPOU
 10
4998.505424
 20
1041.054246
 30
0.0
 11
5253.716197
 21
1041.054246
 31
0.0
  0
LINE
  8
ITTEN
 10
2801.337676
 20
1191.054246
 30
0.0
 11
2751.337676
 21
1191.054246
 31
0.0
  0
LINE
  8
ITTEN
 10
2776.337676
 20
1216.054246
 30
0.0
 11
2776.337676
 21
1166.054246
 31
0.0
  0
CIRCLE
  8
HASEN
 10
2776.337676
 20
1191.054246
 30
0.0
 40
15.0
  0
CIRCLE
  8
HASEN
 10
4600.673172
 20
1191.054246
 30
0.0
 40
15.0
  0
LINE
  8
ITTEN
 10
4600.673172
 20
1216.054246
 30
0.0
 11
4600.673172
 21
1166.054246
 31
0.0
  0
LINE
  8
ITTEN
 10
4575.673172
 20
1191.054246
 30
0.0
 11
4625.673172
 21
1191.054246
 31
0.0
  0
TEXT
  8
SUNPOU
 10
4350.226475
 20
2143.911389
 30
0.0
 40
60.0
  1
620
 50
90.0
  7
K
 72
     1
 11
4350.226475
 21
2231.054246
 31
0.0
  0
INSERT
  8
SUNPOU
  2
ARROWANG
 10
4380.226475
 20
2541.054246
 30
0.0
 41
30.0
 42
30.0
 50
90.0
 43
30.0
  0
INSERT
  8
SUNPOU
  2
ARROWANG
 10
4380.226475
 20
1921.054246
 30
0.0
 41
30.0
 42
30.0
 50
270.0
 43
30.0
  0
LINE
  8
SUNPOU
 10
4380.226475
 20
1921.054246
 30
0.0
 11
4380.226475
 21
2541.054246
 31
0.0
  0
LINE
  8
SUNPOU
 10
3708.505424
 20
2541.054246
 30
0.0
 11
4400.226475
 21
2541.054246
 31
0.0
  0
LINE
  8
SUNPOU
 10
3708.505424
 20
1921.054246
 30
0.0
 11
3716.357954
 21
1921.054246
 31
0.0
  0
LINE
  8
SUNPOU
 10
2494.19312
 20
2391.054246
 30
0.0
 11
2800.091406
 21
2207.789331
 31
0.0
  0
INSERT
  8
SUNPOU
  2
ARROWANG
 10
2494.19312
 20
2391.054246
 30
0.0
 41
30.0
 42
30.0
 50
149.074002
 43
30.0
  0
INSERT
  8
SUNPOU
  2
ARROWANG
 10
2776.337676
 20
2391.054246
 30
0.0
 41
30.0
 42
30.0
 50
97.385172
 43
30.0
  0
LINE
  8
SUNPOU
 10
2776.337676
 20
2391.054246
 30
0.0
 11
2800.091406
 21
2207.789331
 31
0.0
  0
TEXT
  8
SUNPOU
 10
2800.091406
 20
2227.789331
 30
0.0
 40
60.0
  1
埋込みアンカー
  7
K
  0
LINE
  8
SUNPOU
 10
2800.091406
 20
2207.789331
 30
0.0
 11
3313.095359
 21
2207.789331
 31
0.0
  0
CIRCLE
  8
HASEN
 10
2776.337676
 20
2391.054246
 30
0.0
 40
15.0
  0
LINE
  8
ITTEN
 10
2776.337676
 20
2416.054246
 30
0.0
 11
2776.337676
 21
2366.054246
 31
0.0
  0
LINE
  8
ITTEN
 10
2801.337676
 20
2391.054246
 30
0.0
 11
2751.337676
 21
2391.054246
 31
0.0
  0
CIRCLE
  8
HASEN
 10
2494.19312
 20
2391.054246
 30
0.0
 40
15.0
  0
LINE
  8
ITTEN
 10
2519.19312
 20
2391.054246
 30
0.0
 11
2469.19312
 21
2391.054246
 31
0.0
  0
LINE
  8
ITTEN
 10
2494.19312
 20
2416.054246
 30
0.0
 11
2494.19312
 21
2366.054246
 31
0.0
  0
LINE
  8
HASEN
 10
7896.55852
 20
2794.485298
 30
0.0
 11
7896.887165
 21
2759.697057
 31
0.0
  0
LINE
  8
HASEN
 10
7921.915615
 20
2848.863765
 30
0.0
 11
7896.55852
 21
2794.485298
 31
0.0
  0
LINE
  8
HASEN
 10
7976.774967
 20
2931.017001
 30
0.0
 11
7921.915615
 21
2848.863765
 31
0.0
  0
LINE
  8
HASEN
 10
7858.47407
 20
2878.447044
 30
0.0
 11
7886.144189
 21
2973.278828
 31
0.0
  0
LINE
  8
HASEN
 10
7858.47407
 20
2878.447044
 30
0.0
 11
7833.116975
 21
2824.068577
 31
0.0
  0
LINE
  8
HASEN
 10
7833.116975
 20
2824.068577
 30
0.0
 11
7806.256387
 21
2801.958883
 31
0.0
  0
LINE
  8
HASEN
 10
6914.909306
 20
689.331765
 30
0.0
 11
6887.239187
 21
594.499981
 31
0.0
  0
LINE
  8
HASEN
 10
6796.608409
 20
636.761808
 30
0.0
 11
6851.467761
 21
718.915043
 31
0.0
  0
LINE
  8
HASEN
 10
6876.824856
 20
773.293511
 30
0.0
 11
6876.496211
 21
808.081752
 31
0.0
  0
LINE
  8
HASEN
 10
6851.467761
 20
718.915043
 30
0.0
 11
6876.824856
 21
773.293511
 31
0.0
  0
LINE
  8
HASEN
 10
6940.266401
 20
743.710232
 30
0.0
 11
6967.126989
 21
765.819926
 31
0.0
  0
LINE
  8
HASEN
 10
6914.909306
 20
689.331765
 30
0.0
 11
6940.266401
 21
743.710232
 31
0.0
  0
LINE
  8
SUNPOU
 10
8274.506914
 20
2668.656003
 30
0.0
 11
8854.895906
 21
2255.374578
 31
0.0
  0
INSERT
  8
SUNPOU
  2
ARROWANG
 10
8274.506914
 20
2668.656003
 30
0.0
 41
30.0
 42
30.0
 50
144.546221
 43
30.0
  0
LINE
  8
HASEN
 10
6200.627343
 20
2291.409225
 30
0.0
 11
6293.015296
 21
2253.140882
 31
0.0
  0
LINE
  8
HASEN
 10
6189.14684
 20
2263.692839
 30
0.0
 11
6281.534793
 21
2225.424496
 31
0.0
  0
LINE
  8
HASEN
 10
6293.015296
 20
2253.140882
 30
0.0
 11
6281.534793
 21
2225.424496
 31
0.0
  0
LINE
  8
HASEN
 10
6485.130542
 20
2706.663754
 30
0.0
 11
6555.84122
 21
2635.953076
 31
0.0
  0
LINE
  8
HASEN
 10
6555.84122
 20
2635.953076
 30
0.0
 11
6534.628017
 21
2614.739872
 31
0.0
  0
LINE
  8
HASEN
 10
6463.917339
 20
2685.45055
 30
0.0
 11
6534.628017
 21
2614.739872
 31
0.0
  0
LINE
  8
HASEN
 10
6293.015296
 20
1314.637927
 30
0.0
 11
6281.534793
 21
1342.354313
 31
0.0
  0
LINE
  8
HASEN
 10
6189.14684
 20
1304.08597
 30
0.0
 11
6281.534793
 21
1342.354313
 31
0.0
  0
LINE
  8
HASEN
 10
6200.627343
 20
1276.369584
 30
0.0
 11
6293.015296
 21
1314.637927
 31
0.0
  0
LINE
  8
HASEN
 10
6463.917339
 20
882.328258
 30
0.0
 11
6534.628017
 21
953.038937
 31
0.0
  0
LINE
  8
HASEN
 10
6555.84122
 20
931.825733
 30
0.0
 11
6534.628017
 21
953.038937
 31
0.0
  0
LINE
  8
HASEN
 10
6485.130542
 20
861.115055
 30
0.0
 11
6555.84122
 21
931.825733
 31
0.0
  0
LINE
  8
HASEN
 10
8572.756034
 20
1276.369584
 30
0.0
 11
8480.36808
 21
1314.637927
 31
0.0
  0
LINE
  8
HASEN
 10
8584.236536
 20
1304.08597
 30
0.0
 11
8491.848583
 21
1342.354313
 31
0.0
  0
LINE
  8
HASEN
 10
8480.36808
 20
1314.637927
 30
0.0
 11
8491.848583
 21
1342.354313
 31
0.0
  0
LINE
  8
HASEN
 10
8288.252834
 20
861.115055
 30
0.0
 11
8217.542156
 21
931.825733
 31
0.0
  0
LINE
  8
HASEN
 10
8217.542156
 20
931.825733
 30
0.0
 11
8238.755359
 21
953.038937
 31
0.0
  0
LINE
  8
HASEN
 10
8309.466037
 20
882.328258
 30
0.0
 11
8238.755359
 21
953.038937
 31
0.0
  0
LINE
  8
HASEN
 10
8480.36808
 20
2253.140882
 30
0.0
 11
8491.848583
 21
2225.424496
 31
0.0
  0
LINE
  8
HASEN
 10
8584.236536
 20
2263.692839
 30
0.0
 11
8491.848583
 21
2225.424496
 31
0.0
  0
LINE
  8
HASEN
 10
8572.756034
 20
2291.409225
 30
0.0
 11
8480.36808
 21
2253.140882
 31
0.0
  0
LINE
  8
SUNPOU
 10
8854.895906
 20
2255.374578
 30
0.0
 11
9587.097408
 21
2255.374578
 31
0.0
  0
INSERT
  8
SUNPOU
  2
ARROWANG
 10
8543.934911
 20
2255.374578
 30
0.0
 41
30.0
 42
30.0
 50
180.0
 43
30.0
  0
LINE
  8
SUNPOU
 10
8543.934911
 20
2255.374578
 30
0.0
 11
8854.895906
 21
2255.374578
 31
0.0
  0
TEXT
  8
SUNPOU
 10
8904.998203
 20
2287.039108
 30
0.0
 40
60.0
  1
埋込みアンカー
  7
K
  0
LINE
  8
HASEN
 10
8309.466037
 20
2685.45055
 30
0.0
 11
8238.755359
 21
2614.739872
 31
0.0
  0
LINE
  8
HASEN
 10
8217.542156
 20
2635.953076
 30
0.0
 11
8238.755359
 21
2614.739872
 31
0.0
  0
LINE
  8
HASEN
 10
8288.252834
 20
2706.663754
 30
0.0
 11
8217.542156
 21
2635.953076
 31
0.0
  0
LINE
  8
ITTEN
 10
3688.505424
 20
1966.054246
 30
0.0
 11
3688.505424
 21
1876.054246
 31
0.0
  0
TEXT
  8
SUNPOU
 10
2869.976764
 20
1336.277684
 30
0.0
 40
60.0
  1
埋込みアンカー
  7
K
  0
LINE
  8
SUNPOU
 10
2857.99578
 20
1316.277684
 30
0.0
 11
3326.887928
 21
1316.277684
 31
0.0
  0
LINE
  8
SUNPOU
 10
2774.064835
 20
1194.212073
 30
0.0
 11
2857.99578
 21
1316.277684
 31
0.0
  0
INSERT
  8
SUNPOU
  2
ARROWANG
 10
2774.064835
 20
1194.212073
 30
0.0
 41
30.0
 42
30.0
 50
235.488023
 43
30.0
  0
TEXT
  8
SUNPOU
 10
5193.230466
 20
2376.054246
 30
0.0
 40
60.0
  1
150
 50
90.0
  7
K
 72
     1
 11
5193.230466
 21
2466.054246
 31
0.0
  0
INSERT
  8
SUNPOU
  2
ARROWANG
 10
5223.230466
 20
2541.054246
 30
0.0
 41
30.0
 42
30.0
 50
90.0
 43
30.0
  0
INSERT
  8
SUNPOU
  2
ARROWANG
 10
5223.230466
 20
2391.054246
 30
0.0
 41
30.0
 42
30.0
 50
270.0
 43
30.0
  0
LINE
  8
SUNPOU
 10
5223.230466
 20
2391.054246
 30
0.0
 11
5223.230466
 21
2541.054246
 31
0.0
  0
LINE
  8
SUNPOU
 10
4998.505424
 20
2541.054246
 30
0.0
 11
5243.230466
 21
2541.054246
 31
0.0
  0
LINE
  8
SUNPOU
 10
4917.817729
 20
2391.054246
 30
0.0
 11
5243.230466
 21
2391.054246
 31
0.0
  0
LINE
  8
ITTEN
 10
4882.817729
 20
2416.054246
 30
0.0
 11
4882.817729
 21
2366.054246
 31
0.0
  0
LINE
  8
ITTEN
 10
4857.817729
 20
2391.054246
 30
0.0
 11
4907.817729
 21
2391.054246
 31
0.0
  0
CIRCLE
  8
HASEN
 10
4882.817729
 20
2391.054246
 30
0.0
 40
15.0
  0
LINE
  8
ITTEN
 10
4575.673172
 20
2391.054246
 30
0.0
 11
4625.673172
 21
2391.054246
 31
0.0
  0
LINE
  8
ITTEN
 10
4600.673172
 20
2416.054246
 30
0.0
 11
4600.673172
 21
2366.054246
 31
0.0
  0
CIRCLE
  8
HASEN
 10
4600.673172
 20
2391.054246
 30
0.0
 40
15.0
  0
LINE
  8
SUNPOU
 10
2398.505424
 20
3073.889404
 30
0.0
 11
2588.505424
 21
3073.889404
 31
0.0
  0
INSERT
  8
SUNPOU
  2
ARROWANG
 10
2398.505424
 20
3073.889404
 30
0.0
 41
30.0
 42
30.0
 50
180.0
 43
30.0
  0
INSERT
  8
SUNPOU
  2
ARROWANG
 10
2588.505424
 20
3073.889404
 30
0.0
 41
30.0
 42
30.0
 43
30.0
  0
TEXT
  8
SUNPOU
 10
2403.505434
 20
3103.889404
 30
0.0
 40
60.0
  1
190
  7
K
 72
     1
 11
2493.505434
 21
3103.889404
 31
0.0
  0
LINE
  8
SUNPOU
 10
2588.505424
 20
3073.889404
 30
0.0
 11
4788.505424
 21
3073.889404
 31
0.0
  0
INSERT
  8
SUNPOU
  2
ARROWANG
 10
2588.505424
 20
3073.889404
 30
0.0
 41
30.0
 42
30.0
 50
180.0
 43
30.0
  0
INSERT
  8
SUNPOU
  2
ARROWANG
 10
4788.505424
 20
3073.889404
 30
0.0
 41
30.0
 42
30.0
 43
30.0
  0
TEXT
  8
SUNPOU
 10
3574.21971
 20
3103.889404
 30
0.0
 40
60.0
  1
2200
  7
K
 72
     1
 11
3688.505424
 21
3103.889404
 31
0.0
  0
LINE
  8
SUNPOU
 10
4788.505424
 20
3073.889404
 30
0.0
 11
4978.505424
 21
3073.889404
 31
0.0
  0
INSERT
  8
SUNPOU
  2
ARROWANG
 10
4788.505424
 20
3073.889404
 30
0.0
 41
30.0
 42
30.0
 50
180.0
 43
30.0
  0
INSERT
  8
SUNPOU
  2
ARROWANG
 10
4978.505424
 20
3073.889404
 30
0.0
 41
30.0
 42
30.0
 43
30.0
  0
TEXT
  8
SUNPOU
 10
4793.505424
 20
3103.889404
 30
0.0
 40
60.0
  1
190
  7
K
 72
     1
 11
4883.505424
 21
3103.889404
 31
0.0
  0
CIRCLE
  8
JISSEN
 10
7386.691688
 20
1783.889404
 30
0.0
 40
1100.0
  0
CIRCLE
  8
JISSEN
 10
7386.691688
 20
1783.889404
 30
0.0
 40
1290.0
  0
LINE
  8
ITTEN
 10
7386.691688
 20
3173.889404
 30
0.0
 11
7386.691688
 21
393.889404
 31
0.0
  0
LINE
  8
ITTEN
 10
8776.691688
 20
1783.889404
 30
0.0
 11
5996.691688
 21
1783.889404
 31
0.0
  0
LINE
  8
JISSEN
 10
4978.505424
 20
2541.054246
 30
0.0
 11
4848.505424
 21
2541.054246
 31
0.0
  0
LINE
  8
JISSEN
 10
4850.505424
 20
2541.054246
 30
0.0
 11
4841.505424
 21
2509.054246
 31
0.0
  0
LINE
  8
JISSEN
 10
4841.505424
 20
2509.054246
 30
0.0
 11
4788.505424
 21
2509.054246
 31
0.0
  0
LINE
  8
JISSEN
 10
4588.505424
 20
2509.054246
 30
0.0
 11
3688.505424
 21
2509.054246
 31
0.0
  0
LINE
  8
JISSEN
 10
4788.505424
 20
2509.054246
 30
0.0
 11
4588.505424
 21
2509.054246
 31
0.0
  0
LINE
  8
JISSEN
 10
2588.505424
 20
2509.054246
 30
0.0
 11
2788.505424
 21
2509.054246
 31
0.0
  0
LINE
  8
JISSEN
 10
2788.505424
 20
2509.054246
 30
0.0
 11
3688.505424
 21
2509.054246
 31
0.0
  0
LINE
  8
JISSEN
 10
2535.505424
 20
2509.054246
 30
0.0
 11
2588.505424
 21
2509.054246
 31
0.0
  0
LINE
  8
JISSEN
 10
2526.505424
 20
2541.054246
 30
0.0
 11
2535.505424
 21
2509.054246
 31
0.0
  0
LINE
  8
JISSEN
 10
2398.505424
 20
2541.054246
 30
0.0
 11
2528.505424
 21
2541.054246
 31
0.0
  0
LINE
  8
JISSEN
 10
2398.505424
 20
1041.054246
 30
0.0
 11
2528.505424
 21
1041.054246
 31
0.0
  0
LINE
  8
JISSEN
 10
2528.505424
 20
1041.054246
 30
0.0
 11
2540.505424
 21
1021.054246
 31
0.0
  0
LINE
  8
JISSEN
 10
2540.505424
 20
1021.054246
 30
0.0
 11
3688.505424
 21
1021.054246
 31
0.0
  0
LINE
  8
ITTEN
 10
3688.505424
 20
921.054246
 30
0.0
 11
3688.505424
 21
2641.054246
 31
0.0
  0
LINE
  8
JISSEN
 10
4978.505424
 20
1041.054246
 30
0.0
 11
4848.505424
 21
1041.054246
 31
0.0
  0
LINE
  8
JISSEN
 10
4848.505424
 20
1041.054246
 30
0.0
 11
4836.505424
 21
1021.054246
 31
0.0
  0
LINE
  8
JISSEN
 10
4836.505424
 20
1021.054246
 30
0.0
 11
3688.505424
 21
1021.054246
 31
0.0
  0
LINE
  8
JISSEN
 10
2398.505424
 20
2541.054246
 30
0.0
 11
2398.505424
 21
1041.054246
 31
0.0
  0
LINE
  8
JISSEN
 10
2588.505424
 20
2509.054246
 30
0.0
 11
2588.505424
 21
1021.054246
 31
0.0
  0
LINE
  8
JISSEN
 10
2526.505424
 20
2541.054246
 30
0.0
 11
4850.505424
 21
2541.054246
 31
0.0
  0
LINE
  8
JISSEN
 10
4978.505424
 20
2541.054246
 30
0.0
 11
4978.505424
 21
1041.054246
 31
0.0
  0
LINE
  8
JISSEN
 10
4788.505424
 20
2509.054246
 30
0.0
 11
4788.505424
 21
1021.054246
 31
0.0
  0
CIRCLE
  8
JISSEN
 10
7386.691688
 20
1783.889404
 30
0.0
 40
1162.0
  0
CIRCLE
  8
JISSEN
 10
7386.691688
 20
1783.889404
 30
0.0
 40
1153.0
  0
LINE
  8
ITTEN
 10
3438.505424
 20
1171.054246
 30
0.0
 11
3938.505424
 21
1171.054246
 31
0.0
  0
ARC
  8
JISSEN
 10
3498.505424
 20
1171.054246
 30
0.0
 40
10.0
 50
90.0
 51
270.0
  0
LINE
  8
JISSEN
 10
3688.505424
 20
1161.054246
 30
0.0
 11
3498.505424
 21
1161.054246
 31
0.0
  0
LINE
  8
JISSEN
 10
3688.505424
 20
1181.054246
 30
0.0
 11
3498.505424
 21
1181.054246
 31
0.0
  0
LINE
  8
JISSEN
 10
3688.505424
 20
1161.054246
 30
0.0
 11
3878.505424
 21
1161.054246
 31
0.0
  0
ARC
  8
JISSEN
 10
3878.505424
 20
1171.054246
 30
0.0
 40
10.0
 50
270.0
 51
90.0
  0
LINE
  8
JISSEN
 10
3688.505424
 20
1181.054246
 30
0.0
 11
3878.505424
 21
1181.054246
 31
0.0
  0
LINE
  8
JISSEN
 10
3688.505424
 20
1481.054246
 30
0.0
 11
3878.505424
 21
1481.054246
 31
0.0
  0
ARC
  8
JISSEN
 10
3878.505424
 20
1471.054246
 30
0.0
 40
10.0
 50
270.0
 51
90.0
  0
LINE
  8
JISSEN
 10
3688.505424
 20
1461.054246
 30
0.0
 11
3878.505424
 21
1461.054246
 31
0.0
  0
LINE
  8
JISSEN
 10
3688.505424
 20
1481.054246
 30
0.0
 11
3498.505424
 21
1481.054246
 31
0.0
  0
LINE
  8
JISSEN
 10
3688.505424
 20
1461.054246
 30
0.0
 11
3498.505424
 21
1461.054246
 31
0.0
  0
ARC
  8
JISSEN
 10
3498.505424
 20
1471.054246
 30
0.0
 40
10.0
 50
90.0
 51
270.0
  0
LINE
  8
ITTEN
 10
3438.505424
 20
1471.054246
 30
0.0
 11
3938.505424
 21
1471.054246
 31
0.0
  0
LINE
  8
JISSEN
 10
3688.505424
 20
1781.054246
 30
0.0
 11
3878.505424
 21
1781.054246
 31
0.0
  0
ARC
  8
JISSEN
 10
3878.505424
 20
1771.054246
 30
0.0
 40
10.0
 50
270.0
 51
90.0
  0
LINE
  8
JISSEN
 10
3688.505424
 20
1761.054246
 30
0.0
 11
3878.505424
 21
1761.054246
 31
0.0
  0
LINE
  8
JISSEN
 10
3688.505424
 20
1781.054246
 30
0.0
 11
3498.505424
 21
1781.054246
 31
0.0
  0
LINE
  8
JISSEN
 10
3688.505424
 20
1761.054246
 30
0.0
 11
3498.505424
 21
1761.054246
 31
0.0
  0
ARC
  8
JISSEN
 10
3498.505424
 20
1771.054246
 30
0.0
 40
10.0
 50
90.0
 51
270.0
  0
LINE
  8
ITTEN
 10
3438.505424
 20
1771.054246
 30
0.0
 11
3938.505424
 21
1771.054246
 31
0.0
  0
LINE
  8
JISSEN
 10
3688.505424
 20
2081.054246
 30
0.0
 11
3878.505424
 21
2081.054246
 31
0.0
  0
ARC
  8
JISSEN
 10
3878.505424
 20
2071.054246
 30
0.0
 40
10.0
 50
270.0
 51
90.0
  0
LINE
  8
JISSEN
 10
3688.505424
 20
2061.054246
 30
0.0
 11
3878.505424
 21
2061.054246
 31
0.0
  0
LINE
  8
JISSEN
 10
3688.505424
 20
2081.054246
 30
0.0
 11
3498.505424
 21
2081.054246
 31
0.0
  0
LINE
  8
JISSEN
 10
3688.505424
 20
2061.054246
 30
0.0
 11
3498.505424
 21
2061.054246
 31
0.0
  0
ARC
  8
JISSEN
 10
3498.505424
 20
2071.054246
 30
0.0
 40
10.0
 50
90.0
 51
270.0
  0
LINE
  8
ITTEN
 10
3438.505424
 20
2071.054246
 30
0.0
 11
3938.505424
 21
2071.054246
 31
0.0
  0
LINE
  8
JISSEN
 10
3688.505424
 20
2381.054246
 30
0.0
 11
3878.505424
 21
2381.054246
 31
0.0
  0
ARC
  8
JISSEN
 10
3878.505424
 20
2371.054246
 30
0.0
 40
10.0
 50
270.0
 51
90.0
  0
LINE
  8
JISSEN
 10
3688.505424
 20
2361.054246
 30
0.0
 11
3878.505424
 21
2361.054246
 31
0.0
  0
LINE
  8
JISSEN
 10
3688.505424
 20
2381.054246
 30
0.0
 11
3498.505424
 21
2381.054246
 31
0.0
  0
LINE
  8
JISSEN
 10
3688.505424
 20
2361.054246
 30
0.0
 11
3498.505424
 21
2361.054246
 31
0.0
  0
ARC
  8
JISSEN
 10
3498.505424
 20
2371.054246
 30
0.0
 40
10.0
 50
90.0
 51
270.0
  0
LINE
  8
ITTEN
 10
3438.505424
 20
2371.054246
 30
0.0
 11
3938.505424
 21
2371.054246
 31
0.0
  0
LINE
  8
SUNPOU
 10
2398.505424
 20
2561.054246
 30
0.0
 11
2398.505424
 21
3093.889404
 31
0.0
  0
LINE
  8
SUNPOU
 10
2588.505424
 20
2529.054246
 30
0.0
 11
2588.505424
 21
3093.889404
 31
0.0
  0
LINE
  8
SUNPOU
 10
4788.505424
 20
2529.054246
 30
0.0
 11
4788.505424
 21
3093.889404
 31
0.0
  0
LINE
  8
SUNPOU
 10
4978.505424
 20
2561.054246
 30
0.0
 11
4978.505424
 21
3093.889404
 31
0.0
  0
LINE
  8
SUNPOU
 10
2526.505424
 20
2561.054246
 30
0.0
 11
2526.505424
 21
2897.700522
 31
0.0
  0
LINE
  8
SUNPOU
 10
4850.505424
 20
2561.054246
 30
0.0
 11
4850.505424
 21
2897.700522
 31
0.0
  0
LINE
  8
SUNPOU
 10
2526.505424
 20
2877.700522
 30
0.0
 11
4850.505424
 21
2877.700522
 31
0.0
  0
INSERT
  8
SUNPOU
  2
ARROWANG
 10
2526.505424
 20
2877.700522
 30
0.0
 41
30.0
 42
30.0
 50
180.0
 43
30.0
  0
INSERT
  8
SUNPOU
  2
ARROWANG
 10
4850.505424
 20
2877.700522
 30
0.0
 41
30.0
 42
30.0
 43
30.0
  0
TEXT
  8
SUNPOU
 10
3572.791148
 20
2907.700522
 30
0.0
 40
60.0
  1
2324
  7
K
 72
     1
 11
3688.505434
 21
2907.700522
 31
0.0
  0
LINE
  8
SUNPOU
 10
2535.505424
 20
2529.054246
 30
0.0
 11
2535.505424
 21
2716.518625
 31
0.0
  0
LINE
  8
SUNPOU
 10
4841.505424
 20
2529.054246
 30
0.0
 11
4841.505424
 21
2716.518625
 31
0.0
  0
LINE
  8
SUNPOU
 10
2535.505424
 20
2696.518625
 30
0.0
 11
4841.505424
 21
2696.518625
 31
0.0
  0
INSERT
  8
SUNPOU
  2
ARROWANG
 10
2535.505424
 20
2696.518625
 30
0.0
 41
30.0
 42
30.0
 50
180.0
 43
30.0
  0
INSERT
  8
SUNPOU
  2
ARROWANG
 10
4841.505424
 20
2696.518625
 30
0.0
 41
30.0
 42
30.0
 43
30.0
  0
TEXT
  8
SUNPOU
 10
3574.21972
 20
2726.518625
 30
0.0
 40
60.0
  1
2306
  7
K
 72
     1
 11
3688.505434
 21
2726.518625
 31
0.0
  0
LINE
  8
SUNPOU
 10
2528.505424
 20
1021.054246
 30
0.0
 11
2528.505424
 21
633.738491
 31
0.0
  0
LINE
  8
SUNPOU
 10
4848.505424
 20
1021.054246
 30
0.0
 11
4848.505424
 21
633.738491
 31
0.0
  0
LINE
  8
SUNPOU
 10
2528.505424
 20
653.738491
 30
0.0
 11
4848.505424
 21
653.738491
 31
0.0
  0
INSERT
  8
SUNPOU
  2
ARROWANG
 10
4848.505424
 20
653.738491
 30
0.0
 41
30.0
 42
30.0
 43
30.0
  0
INSERT
  8
SUNPOU
  2
ARROWANG
 10
2528.505424
 20
653.738491
 30
0.0
 41
30.0
 42
30.0
 50
180.0
 43
30.0
  0
TEXT
  8
SUNPOU
 10
3571.607353
 20
683.738491
 30
0.0
 40
60.0
  1
2320
  7
K
 72
     1
 11
3685.893067
 21
683.738491
 31
0.0
  0
LINE
  8
SUNPOU
 10
2540.505424
 20
1001.054246
 30
0.0
 11
2540.505424
 21
814.920388
 31
0.0
  0
LINE
  8
SUNPOU
 10
4836.505424
 20
1001.054246
 30
0.0
 11
4836.505424
 21
814.920388
 31
0.0
  0
LINE
  8
SUNPOU
 10
2540.505424
 20
834.920388
 30
0.0
 11
4836.505424
 21
834.920388
 31
0.0
  0
INSERT
  8
SUNPOU
  2
ARROWANG
 10
2540.505424
 20
834.920388
 30
0.0
 41
30.0
 42
30.0
 50
180.0
 43
30.0
  0
INSERT
  8
SUNPOU
  2
ARROWANG
 10
4836.505424
 20
834.920388
 30
0.0
 41
30.0
 42
30.0
 43
30.0
  0
TEXT
  8
SUNPOU
 10
3574.21972
 20
864.920388
 30
0.0
 40
60.0
  1
2296
  7
K
 72
     1
 11
3688.505434
 21
864.920388
 31
0.0
  0
LINE
  8
SUNPOU
 10
2378.505424
 20
1041.054246
 30
0.0
 11
1945.732124
 21
1041.054246
 31
0.0
  0
LINE
  8
SUNPOU
 10
2378.505424
 20
2541.054246
 30
0.0
 11
1945.732124
 21
2541.054246
 31
0.0
  0
LINE
  8
SUNPOU
 10
1965.732124
 20
1041.054246
 30
0.0
 11
1965.732124
 21
2541.054246
 31
0.0
  0
INSERT
  8
SUNPOU
  2
ARROWANG
 10
1965.732124
 20
1041.054246
 30
0.0
 41
30.0
 42
30.0
 50
270.0
 43
30.0
  0
INSERT
  8
SUNPOU
  2
ARROWANG
 10
1965.732124
 20
2541.054246
 30
0.0
 41
30.0
 42
30.0
 50
90.0
 43
30.0
  0
TEXT
  8
SUNPOU
 10
1935.732124
 20
1672.482818
 30
0.0
 40
60.0
  1
1500
 50
90.0
  7
K
 72
     1
 11
1935.732124
 21
1791.054246
 31
0.0
  0
LINE
  8
SUNPOU
 10
2515.505424
 20
2509.054246
 30
0.0
 11
2173.013473
 21
2509.054246
 31
0.0
  0
LINE
  8
SUNPOU
 10
2378.505424
 20
2541.054246
 30
0.0
 11
2173.013473
 21
2541.054246
 31
0.0
  0
LINE
  8
SUNPOU
 10
2193.013473
 20
2509.054246
 30
0.0
 11
2193.013473
 21
2541.054246
 31
0.0
  0
INSERT
  8
SUNPOU
  2
ARROWANG
 10
2193.013473
 20
2509.054246
 30
0.0
 41
30.0
 42
30.0
 50
90.0
 43
30.0
  0
INSERT
  8
SUNPOU
  2
ARROWANG
 10
2193.013473
 20
2541.054246
 30
0.0
 41
30.0
 42
30.0
 50
270.0
 43
30.0
  0
LINE
  8
SUNPOU
 10
2193.013473
 20
2541.054246
 30
0.0
 11
2193.013473
 21
2673.054246
 31
0.0
  0
LINE
  8
SUNPOU
 10
2193.013473
 20
2509.054246
 30
0.0
 11
2193.013474
 21
2449.054246
 31
0.0
  0
TEXT
  8
SUNPOU
 10
2163.013473
 20
2549.911389
 30
0.0
 40
60.0
  1
32
 50
90.0
  7
K
 72
     1
 11
2163.013473
 21
2607.054246
 31
0.0
  0
LINE
  8
SUNPOU
 10
2520.505424
 20
1021.054246
 30
0.0
 11
2178.396452
 21
1021.054246
 31
0.0
  0
LINE
  8
SUNPOU
 10
2378.505424
 20
1041.054246
 30
0.0
 11
2178.396452
 21
1041.054246
 31
0.0
  0
LINE
  8
SUNPOU
 10
2198.396452
 20
1021.054246
 30
0.0
 11
2198.396452
 21
1041.054246
 31
0.0
  0
INSERT
  8
SUNPOU
  2
ARROWANG
 10
2198.396452
 20
1021.054246
 30
0.0
 41
30.0
 42
30.0
 50
90.0
 43
30.0
  0
INSERT
  8
SUNPOU
  2
ARROWANG
 10
2198.396452
 20
1041.054246
 30
0.0
 41
30.0
 42
30.0
 50
270.0
 43
30.0
  0
LINE
  8
SUNPOU
 10
2198.396452
 20
1021.054246
 30
0.0
 11
2198.396452
 21
889.054246
 31
0.0
  0
LINE
  8
SUNPOU
 10
2198.396452
 20
1041.054246
 30
0.0
 11
2198.396452
 21
1101.054246
 31
0.0
  0
TEXT
  8
SUNPOU
 10
2168.396452
 20
897.911389
 30
0.0
 40
60.0
  1
20
 50
90.0
  7
K
 72
     1
 11
2168.396452
 21
955.054246
 31
0.0
  0
LINE
  8
SUNPOU
 10
3708.505424
 20
1021.054246
 30
0.0
 11
4227.443951
 21
1021.054246
 31
0.0
  0
LINE
  8
SUNPOU
 10
3958.505424
 20
1171.054246
 30
0.0
 11
4227.443951
 21
1171.054246
 31
0.0
  0
LINE
  8
SUNPOU
 10
4207.443951
 20
1021.054246
 30
0.0
 11
4207.443951
 21
1171.054246
 31
0.0
  0
INSERT
  8
SUNPOU
  2
ARROWANG
 10
4207.443951
 20
1021.054246
 30
0.0
 41
30.0
 42
30.0
 50
270.0
 43
30.0
  0
INSERT
  8
SUNPOU
  2
ARROWANG
 10
4207.443951
 20
1171.054246
 30
0.0
 41
30.0
 42
30.0
 50
90.0
 43
30.0
  0
TEXT
  8
SUNPOU
 10
4177.443951
 20
1006.054246
 30
0.0
 40
60.0
  1
150
 50
90.0
  7
K
 72
     1
 11
4177.443951
 21
1096.054246
 31
0.0
  0
LINE
  8
SUNPOU
 10
4207.443951
 20
1171.054246
 30
0.0
 11
4207.443951
 21
1471.054246
 31
0.0
  0
LINE
  8
SUNPOU
 10
3958.505424
 20
1471.054246
 30
0.0
 11
4227.443951
 21
1471.054246
 31
0.0
  0
INSERT
  8
SUNPOU
  2
ARROWANG
 10
4207.443951
 20
1171.054246
 30
0.0
 41
30.0
 42
30.0
 50
270.0
 43
30.0
  0
INSERT
  8
SUNPOU
  2
ARROWANG
 10
4207.443951
 20
1471.054246
 30
0.0
 41
30.0
 42
30.0
 50
90.0
 43
30.0
  0
TEXT
  8
SUNPOU
 10
4177.443951
 20
1235.33996
 30
0.0
 40
60.0
  1
300
 50
90.0
  7
K
 72
     1
 11
4177.443951
 21
1321.054246
 31
0.0
  0
LINE
  8
SUNPOU
 10
4207.443951
 20
1471.054246
 30
0.0
 11
4207.443951
 21
1771.054246
 31
0.0
  0
LINE
  8
SUNPOU
 10
3958.505424
 20
1771.054246
 30
0.0
 11
4227.443951
 21
1771.054246
 31
0.0
  0
INSERT
  8
SUNPOU
  2
ARROWANG
 10
4207.443951
 20
1471.054246
 30
0.0
 41
30.0
 42
30.0
 50
270.0
 43
30.0
  0
INSERT
  8
SUNPOU
  2
ARROWANG
 10
4207.443951
 20
1771.054246
 30
0.0
 41
30.0
 42
30.0
 50
90.0
 43
30.0
  0
TEXT
  8
SUNPOU
 10
4177.443951
 20
1535.33996
 30
0.0
 40
60.0
  1
300
 50
90.0
  7
K
 72
     1
 11
4177.443951
 21
1621.054246
 31
0.0
  0
LINE
  8
SUNPOU
 10
4207.443951
 20
1771.054246
 30
0.0
 11
4207.443951
 21
2071.054246
 31
0.0
  0
INSERT
  8
SUNPOU
  2
ARROWANG
 10
4207.443951
 20
1771.054246
 30
0.0
 41
30.0
 42
30.0
 50
270.0
 43
30.0
  0
INSERT
  8
SUNPOU
  2
ARROWANG
 10
4207.443951
 20
2071.054246
 30
0.0
 41
30.0
 42
30.0
 50
90.0
 43
30.0
  0
TEXT
  8
SUNPOU
 10
4177.443951
 20
1835.33996
 30
0.0
 40
60.0
  1
300
 50
90.0
  7
K
 72
     1
 11
4177.443951
 21
1921.054246
 31
0.0
  0
LINE
  8
SUNPOU
 10
3958.505424
 20
2071.054246
 30
0.0
 11
4227.443951
 21
2071.054246
 31
0.0
  0
LINE
  8
SUNPOU
 10
3958.505424
 20
2371.054246
 30
0.0
 11
4227.443951
 21
2371.054246
 31
0.0
  0
LINE
  8
SUNPOU
 10
4207.443951
 20
2071.054246
 30
0.0
 11
4207.443951
 21
2371.054246
 31
0.0
  0
INSERT
  8
SUNPOU
  2
ARROWANG
 10
4207.443951
 20
2071.054246
 30
0.0
 41
30.0
 42
30.0
 50
270.0
 43
30.0
  0
INSERT
  8
SUNPOU
  2
ARROWANG
 10
4207.443951
 20
2371.054246
 30
0.0
 41
30.0
 42
30.0
 50
90.0
 43
30.0
  0
TEXT
  8
SUNPOU
 10
4177.443951
 20
2135.33996
 30
0.0
 40
60.0
  1
300
 50
90.0
  7
K
 72
     1
 11
4177.443951
 21
2221.054246
 31
0.0
  0
LINE
  8
SUNPOU
 10
6410.266099
 20
2290.439568
 30
0.0
 11
8363.117277
 21
1277.339241
 31
0.0
  0
INSERT
  8
SUNPOU
  2
ARROWANG
 10
6410.266099
 20
2290.439568
 30
0.0
 41
30.0
 42
30.0
 50
152.580614
 43
30.0
  0
INSERT
  8
SUNPOU
  2
ARROWANG
 10
8363.117277
 20
1277.339241
 30
0.0
 41
30.0
 42
30.0
 50
332.580614
 43
30.0
  0
TEXT
  8
SUNPOU
 10
7005.637592
 20
2027.149664
 30
0.0
 40
60.0
  1
%%C2200
 50
332.580614
  7
K
 72
     1
 11
7127.37377
 21
1963.995358
 31
0.0
  0
LINE
  8
SUNPOU
 10
8467.666573
 20
2487.873281
 30
0.0
 11
6305.716803
 21
1079.905528
 31
0.0
  0
INSERT
  8
SUNPOU
  2
ARROWANG
 10
8467.666573
 20
2487.873281
 30
0.0
 41
30.0
 42
30.0
 50
33.074149
 43
30.0
  0
INSERT
  8
SUNPOU
  2
ARROWANG
 10
6305.716803
 20
1079.905528
 30
0.0
 41
30.0
 42
30.0
 50
213.074149
 43
30.0
  0
TEXT
  8
SUNPOU
 10
7484.96476
 20
1892.447828
 30
0.0
 40
60.0
  1
%%C2580
 50
33.074149
  7
K
 72
     1
 11
7599.885678
 21
1967.289968
 31
0.0
  0
POINT
  8
SUNPOU
 10
7385.691688
 20
1783.889404
 30
0.0
  0
LINE
  8
JISSEN
 10
7186.691688
 20
2865.554787
 30
0.0
 11
7186.691688
 21
2743.889404
 31
0.0
  0
LINE
  8
JISSEN
 10
7196.691688
 20
2733.889404
 30
0.0
 11
7576.691688
 21
2733.889404
 31
0.0
  0
LINE
  8
JISSEN
 10
7586.691688
 20
2743.889404
 30
0.0
 11
7586.691688
 21
2865.554787
 31
0.0
  0
LINE
  8
JISSEN
 10
7206.691688
 20
2869.062202
 30
0.0
 11
7206.691688
 21
2763.889404
 31
0.0
  0
LINE
  8
JISSEN
 10
7216.691688
 20
2753.889404
 30
0.0
 11
7556.691688
 21
2753.889404
 31
0.0
  0
LINE
  8
JISSEN
 10
7566.691688
 20
2763.889404
 30
0.0
 11
7566.691688
 21
2869.062202
 31
0.0
  0
ARC
  8
JISSEN
 10
7196.691688
 20
2743.889404
 30
0.0
 40
10.0
 50
180.0
 51
270.0
  0
ARC
  8
JISSEN
 10
7216.691688
 20
2763.889404
 30
0.0
 40
10.0
 50
180.0
 51
270.0
  0
ARC
  8
JISSEN
 10
7556.691688
 20
2763.889404
 30
0.0
 40
10.0
 50
270.0
 51
0.0
  0
ARC
  8
JISSEN
 10
7576.691688
 20
2743.889404
 30
0.0
 40
10.0
 50
270.0
 51
0.0
  0
TEXT
  8
SUNPOU
 10
5143.360877
 20
3888.401968
 30
0.0
 40
60.0
  1
150
 50
90.0
  7
K
 72
     1
 11
5143.360877
 21
3978.401968
 31
0.0
  0
INSERT
  8
SUNPOU
  2
ARROWANG
 10
5173.360877
 20
4053.401968
 30
0.0
 41
30.0
 42
30.0
 50
90.0
 43
30.0
  0
INSERT
  8
SUNPOU
  2
ARROWANG
 10
5173.360877
 20
3903.401968
 30
0.0
 41
30.0
 42
30.0
 50
270.0
 43
30.0
  0
LINE
  8
SUNPOU
 10
5173.360877
 20
3903.401968
 30
0.0
 11
5173.360877
 21
4053.401968
 31
0.0
  0
LINE
  8
SUNPOU
 10
4620.673172
 20
4053.401968
 30
0.0
 11
5193.360877
 21
4053.401968
 31
0.0
  0
LINE
  8
SUNPOU
 10
4998.505424
 20
3903.401968
 30
0.0
 11
5193.360877
 21
3903.401968
 31
0.0
  0
TEXT
  8
SUNPOU
 10
5121.124314
 20
5838.401968
 30
0.0
 40
60.0
  1
150
 50
90.0
  7
K
 72
     1
 11
5121.124314
 21
5928.401968
 31
0.0
  0
INSERT
  8
SUNPOU
  2
ARROWANG
 10
5151.124314
 20
6003.401968
 30
0.0
 41
30.0
 42
30.0
 50
90.0
 43
30.0
  0
INSERT
  8
SUNPOU
  2
ARROWANG
 10
5151.124314
 20
5853.401968
 30
0.0
 41
30.0
 42
30.0
 50
270.0
 43
30.0
  0
LINE
  8
SUNPOU
 10
5151.124314
 20
5853.401968
 30
0.0
 11
5151.124314
 21
6003.401968
 31
0.0
  0
LINE
  8
SUNPOU
 10
4998.505424
 20
6003.401968
 30
0.0
 11
5171.124314
 21
6003.401968
 31
0.0
  0
LINE
  8
SUNPOU
 10
4902.817729
 20
5853.401968
 30
0.0
 11
5171.124314
 21
5853.401968
 31
0.0
  0
LINE
  8
ITTEN
 10
4575.673172
 20
4053.401968
 30
0.0
 11
4625.673172
 21
4053.401968
 31
0.0
  0
LINE
  8
ITTEN
 10
4600.673172
 20
4078.401968
 30
0.0
 11
4600.673172
 21
4028.401968
 31
0.0
  0
CIRCLE
  8
HASEN
 10
4600.673172
 20
4053.401968
 30
0.0
 40
15.0
  0
CIRCLE
  8
HASEN
 10
4600.673172
 20
5853.401968
 30
0.0
 40
15.0
  0
LINE
  8
ITTEN
 10
4600.673172
 20
5878.401968
 30
0.0
 11
4600.673172
 21
5828.401968
 31
0.0
  0
LINE
  8
ITTEN
 10
4575.673172
 20
5853.401968
 30
0.0
 11
4625.673172
 21
5853.401968
 31
0.0
  0
CIRCLE
  8
HASEN
 10
4882.817729
 20
5853.401968
 30
0.0
 40
15.0
  0
LINE
  8
ITTEN
 10
4857.817729
 20
5853.401968
 30
0.0
 11
4907.817729
 21
5853.401968
 31
0.0
  0
LINE
  8
ITTEN
 10
4882.817729
 20
5878.401968
 30
0.0
 11
4882.817729
 21
5828.401968
 31
0.0
  0
TEXT
  8
SUNPOU
 10
4377.825453
 20
5606.25911
 30
0.0
 40
60.0
  1
620
 50
90.0
  7
K
 72
     1
 11
4377.825453
 21
5693.401968
 31
0.0
  0
INSERT
  8
SUNPOU
  2
ARROWANG
 10
4407.825453
 20
6003.401968
 30
0.0
 41
30.0
 42
30.0
 50
90.0
 43
30.0
  0
INSERT
  8
SUNPOU
  2
ARROWANG
 10
4407.825453
 20
5383.401968
 30
0.0
 41
30.0
 42
30.0
 50
270.0
 43
30.0
  0
LINE
  8
SUNPOU
 10
4407.825453
 20
5383.401968
 30
0.0
 11
4407.825453
 21
6003.401968
 31
0.0
  0
LINE
  8
SUNPOU
 10
3708.505424
 20
6003.401968
 30
0.0
 11
4427.825453
 21
6003.401968
 31
0.0
  0
LINE
  8
ITTEN
 10
3688.505424
 20
5428.401968
 30
0.0
 11
3688.505424
 21
5338.401968
 31
0.0
  0
TEXT
  8
SUNPOU
 10
2869.976764
 20
4198.625405
 30
0.0
 40
60.0
  1
埋込みアンカー
  7
K
  0
INSERT
  8
SUNPOU
  2
ARROWANG
 10
2774.064835
 20
4056.559795
 30
0.0
 41
30.0
 42
30.0
 50
235.488023
 43
30.0
  0
LINE
  8
SUNPOU
 10
2774.064835
 20
4056.559795
 30
0.0
 11
2857.99578
 21
4178.625405
 31
0.0
  0
LINE
  8
SUNPOU
 10
2857.99578
 20
4178.625405
 30
0.0
 11
3326.887928
 21
4178.625405
 31
0.0
  0
CIRCLE
  8
HASEN
 10
2776.337676
 20
4053.401968
 30
0.0
 40
15.0
  0
LINE
  8
ITTEN
 10
2776.337676
 20
4078.401968
 30
0.0
 11
2776.337676
 21
4028.401968
 31
0.0
  0
LINE
  8
ITTEN
 10
2801.337676
 20
4053.401968
 30
0.0
 11
2751.337676
 21
4053.401968
 31
0.0
  0
LINE
  8
ITTEN
 10
2494.19312
 20
5878.401968
 30
0.0
 11
2494.19312
 21
5828.401968
 31
0.0
  0
LINE
  8
ITTEN
 10
2519.19312
 20
5853.401968
 30
0.0
 11
2469.19312
 21
5853.401968
 31
0.0
  0
CIRCLE
  8
HASEN
 10
2494.19312
 20
5853.401968
 30
0.0
 40
15.0
  0
LINE
  8
ITTEN
 10
2801.337676
 20
5853.401968
 30
0.0
 11
2751.337676
 21
5853.401968
 31
0.0
  0
LINE
  8
ITTEN
 10
2776.337676
 20
5878.401968
 30
0.0
 11
2776.337676
 21
5828.401968
 31
0.0
  0
CIRCLE
  8
HASEN
 10
2776.337676
 20
5853.401968
 30
0.0
 40
15.0
  0
LINE
  8
SUNPOU
 10
2800.091406
 20
5670.137052
 30
0.0
 11
3313.095359
 21
5670.137052
 31
0.0
  0
TEXT
  8
SUNPOU
 10
2800.091406
 20
5690.137052
 30
0.0
 40
60.0
  1
埋込みアンカー
  7
K
  0
LINE
  8
SUNPOU
 10
2776.337676
 20
5853.401968
 30
0.0
 11
2800.091406
 21
5670.137052
 31
0.0
  0
INSERT
  8
SUNPOU
  2
ARROWANG
 10
2776.337676
 20
5853.401968
 30
0.0
 41
30.0
 42
30.0
 50
97.385172
 43
30.0
  0
INSERT
  8
SUNPOU
  2
ARROWANG
 10
2494.19312
 20
5853.401968
 30
0.0
 41
30.0
 42
30.0
 50
149.074002
 43
30.0
  0
LINE
  8
SUNPOU
 10
2494.19312
 20
5853.401968
 30
0.0
 11
2800.091406
 21
5670.137052
 31
0.0
  0
TEXT
  8
SUNPOU
 10
4793.505424
 20
6566.237126
 30
0.0
 40
60.0
  1
190
  7
K
 72
     1
 11
4883.505424
 21
6566.237126
 31
0.0
  0
INSERT
  8
SUNPOU
  2
ARROWANG
 10
4978.505424
 20
6536.237126
 30
0.0
 41
30.0
 42
30.0
 43
30.0
  0
INSERT
  8
SUNPOU
  2
ARROWANG
 10
4788.505424
 20
6536.237126
 30
0.0
 41
30.0
 42
30.0
 50
180.0
 43
30.0
  0
LINE
  8
SUNPOU
 10
4788.505424
 20
6536.237126
 30
0.0
 11
4978.505424
 21
6536.237126
 31
0.0
  0
TEXT
  8
SUNPOU
 10
3574.21971
 20
6566.237126
 30
0.0
 40
60.0
  1
2200
  7
K
 72
     1
 11
3688.505424
 21
6566.237126
 31
0.0
  0
INSERT
  8
SUNPOU
  2
ARROWANG
 10
4788.505424
 20
6536.237126
 30
0.0
 41
30.0
 42
30.0
 43
30.0
  0
INSERT
  8
SUNPOU
  2
ARROWANG
 10
2588.505424
 20
6536.237126
 30
0.0
 41
30.0
 42
30.0
 50
180.0
 43
30.0
  0
LINE
  8
SUNPOU
 10
2588.505424
 20
6536.237126
 30
0.0
 11
4788.505424
 21
6536.237126
 31
0.0
  0
TEXT
  8
SUNPOU
 10
2403.505434
 20
6566.237126
 30
0.0
 40
60.0
  1
190
  7
K
 72
     1
 11
2493.505434
 21
6566.237126
 31
0.0
  0
INSERT
  8
SUNPOU
  2
ARROWANG
 10
2588.505424
 20
6536.237126
 30
0.0
 41
30.0
 42
30.0
 43
30.0
  0
INSERT
  8
SUNPOU
  2
ARROWANG
 10
2398.505424
 20
6536.237126
 30
0.0
 41
30.0
 42
30.0
 50
180.0
 43
30.0
  0
LINE
  8
SUNPOU
 10
2398.505424
 20
6536.237126
 30
0.0
 11
2588.505424
 21
6536.237126
 31
0.0
  0
LINE
  8
JISSEN
 10
4788.505424
 20
5971.401968
 30
0.0
 11
4788.505424
 21
3883.401968
 31
0.0
  0
LINE
  8
JISSEN
 10
4978.505424
 20
6003.401968
 30
0.0
 11
4978.505424
 21
3903.401968
 31
0.0
  0
LINE
  8
JISSEN
 10
2526.505424
 20
6003.401968
 30
0.0
 11
4850.505424
 21
6003.401968
 31
0.0
  0
LINE
  8
JISSEN
 10
2588.505424
 20
5971.401968
 30
0.0
 11
2588.505424
 21
3883.401968
 31
0.0
  0
LINE
  8
JISSEN
 10
2398.505424
 20
6003.401968
 30
0.0
 11
2398.505424
 21
3903.401968
 31
0.0
  0
LINE
  8
JISSEN
 10
4836.505424
 20
3883.401968
 30
0.0
 11
3688.505424
 21
3883.401968
 31
0.0
  0
LINE
  8
JISSEN
 10
4848.505424
 20
3903.401968
 30
0.0
 11
4836.505424
 21
3883.401968
 31
0.0
  0
LINE
  8
JISSEN
 10
4978.505424
 20
3903.401968
 30
0.0
 11
4848.505424
 21
3903.401968
 31
0.0
  0
LINE
  8
ITTEN
 10
3688.505424
 20
3783.401968
 30
0.0
 11
3688.505424
 21
6103.401968
 31
0.0
  0
LINE
  8
JISSEN
 10
2540.505424
 20
3883.401968
 30
0.0
 11
3688.505424
 21
3883.401968
 31
0.0
  0
LINE
  8
JISSEN
 10
2528.505424
 20
3903.401968
 30
0.0
 11
2540.505424
 21
3883.401968
 31
0.0
  0
LINE
  8
JISSEN
 10
2398.505424
 20
3903.401968
 30
0.0
 11
2528.505424
 21
3903.401968
 31
0.0
  0
LINE
  8
JISSEN
 10
2398.505424
 20
6003.401968
 30
0.0
 11
2528.505424
 21
6003.401968
 31
0.0
  0
LINE
  8
JISSEN
 10
2526.505424
 20
6003.401968
 30
0.0
 11
2535.505424
 21
5971.401968
 31
0.0
  0
LINE
  8
JISSEN
 10
2535.505424
 20
5971.401968
 30
0.0
 11
2588.505424
 21
5971.401968
 31
0.0
  0
LINE
  8
JISSEN
 10
2788.505424
 20
5971.401968
 30
0.0
 11
3688.505424
 21
5971.401968
 31
0.0
  0
LINE
  8
JISSEN
 10
2588.505424
 20
5971.401968
 30
0.0
 11
2788.505424
 21
5971.401968
 31
0.0
  0
LINE
  8
JISSEN
 10
4788.505424
 20
5971.401968
 30
0.0
 11
4588.505424
 21
5971.401968
 31
0.0
  0
LINE
  8
JISSEN
 10
4588.505424
 20
5971.401968
 30
0.0
 11
3688.505424
 21
5971.401968
 31
0.0
  0
LINE
  8
JISSEN
 10
4841.505424
 20
5971.401968
 30
0.0
 11
4788.505424
 21
5971.401968
 31
0.0
  0
LINE
  8
JISSEN
 10
4850.505424
 20
6003.401968
 30
0.0
 11
4841.505424
 21
5971.401968
 31
0.0
  0
LINE
  8
JISSEN
 10
4978.505424
 20
6003.401968
 30
0.0
 11
4848.505424
 21
6003.401968
 31
0.0
  0
LINE
  8
ITTEN
 10
3438.505424
 20
5833.401968
 30
0.0
 11
3938.505424
 21
5833.401968
 31
0.0
  0
ARC
  8
JISSEN
 10
3498.505424
 20
5833.401968
 30
0.0
 40
10.0
 50
90.0
 51
270.0
  0
LINE
  8
JISSEN
 10
3688.505424
 20
5823.401968
 30
0.0
 11
3498.505424
 21
5823.401968
 31
0.0
  0
LINE
  8
JISSEN
 10
3688.505424
 20
5843.401968
 30
0.0
 11
3498.505424
 21
5843.401968
 31
0.0
  0
LINE
  8
JISSEN
 10
3688.505424
 20
5823.401968
 30
0.0
 11
3878.505424
 21
5823.401968
 31
0.0
  0
ARC
  8
JISSEN
 10
3878.505424
 20
5833.401968
 30
0.0
 40
10.0
 50
270.0
 51
90.0
  0
LINE
  8
JISSEN
 10
3688.505424
 20
5843.401968
 30
0.0
 11
3878.505424
 21
5843.401968
 31
0.0
  0
LINE
  8
ITTEN
 10
3438.505424
 20
5533.401968
 30
0.0
 11
3938.505424
 21
5533.401968
 31
0.0
  0
ARC
  8
JISSEN
 10
3498.505424
 20
5533.401968
 30
0.0
 40
10.0
 50
90.0
 51
270.0
  0
LINE
  8
JISSEN
 10
3688.505424
 20
5523.401968
 30
0.0
 11
3498.505424
 21
5523.401968
 31
0.0
  0
LINE
  8
JISSEN
 10
3688.505424
 20
5543.401968
 30
0.0
 11
3498.505424
 21
5543.401968
 31
0.0
  0
LINE
  8
JISSEN
 10
3688.505424
 20
5523.401968
 30
0.0
 11
3878.505424
 21
5523.401968
 31
0.0
  0
ARC
  8
JISSEN
 10
3878.505424
 20
5533.401968
 30
0.0
 40
10.0
 50
270.0
 51
90.0
  0
LINE
  8
JISSEN
 10
3688.505424
 20
5543.401968
 30
0.0
 11
3878.505424
 21
5543.401968
 31
0.0
  0
LINE
  8
ITTEN
 10
3438.505424
 20
5233.401968
 30
0.0
 11
3938.505424
 21
5233.401968
 31
0.0
  0
ARC
  8
JISSEN
 10
3498.505424
 20
5233.401968
 30
0.0
 40
10.0
 50
90.0
 51
270.0
  0
LINE
  8
JISSEN
 10
3688.505424
 20
5223.401968
 30
0.0
 11
3498.505424
 21
5223.401968
 31
0.0
  0
LINE
  8
JISSEN
 10
3688.505424
 20
5243.401968
 30
0.0
 11
3498.505424
 21
5243.401968
 31
0.0
  0
LINE
  8
JISSEN
 10
3688.505424
 20
5223.401968
 30
0.0
 11
3878.505424
 21
5223.401968
 31
0.0
  0
ARC
  8
JISSEN
 10
3878.505424
 20
5233.401968
 30
0.0
 40
10.0
 50
270.0
 51
90.0
  0
LINE
  8
JISSEN
 10
3688.505424
 20
5243.401968
 30
0.0
 11
3878.505424
 21
5243.401968
 31
0.0
  0
LINE
  8
ITTEN
 10
3438.505424
 20
4933.401968
 30
0.0
 11
3938.505424
 21
4933.401968
 31
0.0
  0
ARC
  8
JISSEN
 10
3498.505424
 20
4933.401968
 30
0.0
 40
10.0
 50
90.0
 51
270.0
  0
LINE
  8
JISSEN
 10
3688.505424
 20
4923.401968
 30
0.0
 11
3498.505424
 21
4923.401968
 31
0.0
  0
LINE
  8
JISSEN
 10
3688.505424
 20
4943.401968
 30
0.0
 11
3498.505424
 21
4943.401968
 31
0.0
  0
LINE
  8
JISSEN
 10
3688.505424
 20
4923.401968
 30
0.0
 11
3878.505424
 21
4923.401968
 31
0.0
  0
ARC
  8
JISSEN
 10
3878.505424
 20
4933.401968
 30
0.0
 40
10.0
 50
270.0
 51
90.0
  0
LINE
  8
JISSEN
 10
3688.505424
 20
4943.401968
 30
0.0
 11
3878.505424
 21
4943.401968
 31
0.0
  0
LINE
  8
JISSEN
 10
3688.505424
 20
4643.401968
 30
0.0
 11
3878.505424
 21
4643.401968
 31
0.0
  0
ARC
  8
JISSEN
 10
3878.505424
 20
4633.401968
 30
0.0
 40
10.0
 50
270.0
 51
90.0
  0
LINE
  8
JISSEN
 10
3688.505424
 20
4623.401968
 30
0.0
 11
3878.505424
 21
4623.401968
 31
0.0
  0
LINE
  8
JISSEN
 10
3688.505424
 20
4643.401968
 30
0.0
 11
3498.505424
 21
4643.401968
 31
0.0
  0
LINE
  8
JISSEN
 10
3688.505424
 20
4623.401968
 30
0.0
 11
3498.505424
 21
4623.401968
 31
0.0
  0
ARC
  8
JISSEN
 10
3498.505424
 20
4633.401968
 30
0.0
 40
10.0
 50
90.0
 51
270.0
  0
LINE
  8
ITTEN
 10
3438.505424
 20
4633.401968
 30
0.0
 11
3938.505424
 21
4633.401968
 31
0.0
  0
LINE
  8
ITTEN
 10
3438.505424
 20
4333.401968
 30
0.0
 11
3938.505424
 21
4333.401968
 31
0.0
  0
ARC
  8
JISSEN
 10
3498.505424
 20
4333.401968
 30
0.0
 40
10.0
 50
90.0
 51
270.0
  0
LINE
  8
JISSEN
 10
3688.505424
 20
4323.401968
 30
0.0
 11
3498.505424
 21
4323.401968
 31
0.0
  0
LINE
  8
JISSEN
 10
3688.505424
 20
4343.401968
 30
0.0
 11
3498.505424
 21
4343.401968
 31
0.0
  0
LINE
  8
JISSEN
 10
3688.505424
 20
4323.401968
 30
0.0
 11
3878.505424
 21
4323.401968
 31
0.0
  0
ARC
  8
JISSEN
 10
3878.505424
 20
4333.401968
 30
0.0
 40
10.0
 50
270.0
 51
90.0
  0
LINE
  8
JISSEN
 10
3688.505424
 20
4343.401968
 30
0.0
 11
3878.505424
 21
4343.401968
 31
0.0
  0
LINE
  8
ITTEN
 10
3438.505424
 20
4033.401968
 30
0.0
 11
3938.505424
 21
4033.401968
 31
0.0
  0
ARC
  8
JISSEN
 10
3498.505424
 20
4033.401968
 30
0.0
 40
10.0
 50
90.0
 51
270.0
  0
LINE
  8
JISSEN
 10
3688.505424
 20
4023.401968
 30
0.0
 11
3498.505424
 21
4023.401968
 31
0.0
  0
LINE
  8
JISSEN
 10
3688.505424
 20
4043.401968
 30
0.0
 11
3498.505424
 21
4043.401968
 31
0.0
  0
LINE
  8
JISSEN
 10
3688.505424
 20
4023.401968
 30
0.0
 11
3878.505424
 21
4023.401968
 31
0.0
  0
ARC
  8
JISSEN
 10
3878.505424
 20
4033.401968
 30
0.0
 40
10.0
 50
270.0
 51
90.0
  0
LINE
  8
JISSEN
 10
3688.505424
 20
4043.401968
 30
0.0
 11
3878.505424
 21
4043.401968
 31
0.0
  0
TEXT
  8
SUNPOU
 10
3574.21972
 20
6188.866347
 30
0.0
 40
60.0
  1
2306
  7
K
 72
     1
 11
3688.505434
 21
6188.866347
 31
0.0
  0
INSERT
  8
SUNPOU
  2
ARROWANG
 10
4841.505424
 20
6158.866347
 30
0.0
 41
30.0
 42
30.0
 43
30.0
  0
INSERT
  8
SUNPOU
  2
ARROWANG
 10
2535.505424
 20
6158.866347
 30
0.0
 41
30.0
 42
30.0
 50
180.0
 43
30.0
  0
LINE
  8
SUNPOU
 10
2535.505424
 20
6158.866347
 30
0.0
 11
4841.505424
 21
6158.866347
 31
0.0
  0
LINE
  8
SUNPOU
 10
4841.505424
 20
5991.401968
 30
0.0
 11
4841.505424
 21
6178.866347
 31
0.0
  0
LINE
  8
SUNPOU
 10
2535.505424
 20
5991.401968
 30
0.0
 11
2535.505424
 21
6178.866347
 31
0.0
  0
TEXT
  8
SUNPOU
 10
3572.791148
 20
6370.048244
 30
0.0
 40
60.0
  1
2324
  7
K
 72
     1
 11
3688.505434
 21
6370.048244
 31
0.0
  0
INSERT
  8
SUNPOU
  2
ARROWANG
 10
4850.505424
 20
6340.048244
 30
0.0
 41
30.0
 42
30.0
 43
30.0
  0
INSERT
  8
SUNPOU
  2
ARROWANG
 10
2526.505424
 20
6340.048244
 30
0.0
 41
30.0
 42
30.0
 50
180.0
 43
30.0
  0
LINE
  8
SUNPOU
 10
2526.505424
 20
6340.048244
 30
0.0
 11
4850.505424
 21
6340.048244
 31
0.0
  0
LINE
  8
SUNPOU
 10
4850.505424
 20
6023.401968
 30
0.0
 11
4850.505424
 21
6360.048244
 31
0.0
  0
LINE
  8
SUNPOU
 10
2526.505424
 20
6023.401968
 30
0.0
 11
2526.505424
 21
6360.048244
 31
0.0
  0
LINE
  8
SUNPOU
 10
4978.505424
 20
6023.401968
 30
0.0
 11
4978.505424
 21
6556.237126
 31
0.0
  0
LINE
  8
SUNPOU
 10
4788.505424
 20
5991.401968
 30
0.0
 11
4788.505424
 21
6556.237126
 31
0.0
  0
LINE
  8
SUNPOU
 10
2588.505424
 20
5991.401968
 30
0.0
 11
2588.505424
 21
6556.237126
 31
0.0
  0
LINE
  8
SUNPOU
 10
2398.505424
 20
6023.401968
 30
0.0
 11
2398.505424
 21
6556.237126
 31
0.0
  0
TEXT
  8
SUNPOU
 10
3574.21972
 20
3727.268109
 30
0.0
 40
60.0
  1
2296
  7
K
 72
     1
 11
3688.505434
 21
3727.268109
 31
0.0
  0
INSERT
  8
SUNPOU
  2
ARROWANG
 10
4836.505424
 20
3697.268109
 30
0.0
 41
30.0
 42
30.0
 43
30.0
  0
INSERT
  8
SUNPOU
  2
ARROWANG
 10
2540.505424
 20
3697.268109
 30
0.0
 41
30.0
 42
30.0
 50
180.0
 43
30.0
  0
LINE
  8
SUNPOU
 10
2540.505424
 20
3697.268109
 30
0.0
 11
4836.505424
 21
3697.268109
 31
0.0
  0
LINE
  8
SUNPOU
 10
4836.505424
 20
3863.401968
 30
0.0
 11
4836.505424
 21
3677.268109
 31
0.0
  0
LINE
  8
SUNPOU
 10
2540.505424
 20
3863.401968
 30
0.0
 11
2540.505424
 21
3677.268109
 31
0.0
  0
TEXT
  8
SUNPOU
 10
3571.607353
 20
3546.086212
 30
0.0
 40
60.0
  1
2320
  7
K
 72
     1
 11
3685.893067
 21
3546.086212
 31
0.0
  0
INSERT
  8
SUNPOU
  2
ARROWANG
 10
2528.505424
 20
3516.086212
 30
0.0
 41
30.0
 42
30.0
 50
180.0
 43
30.0
  0
INSERT
  8
SUNPOU
  2
ARROWANG
 10
4848.505424
 20
3516.086212
 30
0.0
 41
30.0
 42
30.0
 43
30.0
  0
LINE
  8
SUNPOU
 10
2528.505424
 20
3516.086212
 30
0.0
 11
4848.505424
 21
3516.086212
 31
0.0
  0
LINE
  8
SUNPOU
 10
4848.505424
 20
3883.401968
 30
0.0
 11
4848.505424
 21
3496.086212
 31
0.0
  0
LINE
  8
SUNPOU
 10
2528.505424
 20
3883.401968
 30
0.0
 11
2528.505424
 21
3496.086212
 31
0.0
  0
LINE
  8
SUNPOU
 10
2378.505424
 20
3903.401968
 30
0.0
 11
1890.804043
 21
3903.401968
 31
0.0
  0
LINE
  8
SUNPOU
 10
2378.505424
 20
6003.401968
 30
0.0
 11
1890.804043
 21
6003.401968
 31
0.0
  0
LINE
  8
SUNPOU
 10
1910.804043
 20
3903.401968
 30
0.0
 11
1910.804043
 21
6003.401968
 31
0.0
  0
INSERT
  8
SUNPOU
  2
ARROWANG
 10
1910.804043
 20
3903.401968
 30
0.0
 41
30.0
 42
30.0
 50
270.0
 43
30.0
  0
INSERT
  8
SUNPOU
  2
ARROWANG
 10
1910.804043
 20
6003.401968
 30
0.0
 41
30.0
 42
30.0
 50
90.0
 43
30.0
  0
TEXT
  8
SUNPOU
 10
1880.804043
 20
4839.116253
 30
0.0
 40
60.0
  1
2100
 50
90.0
  7
K
 72
     1
 11
1880.804043
 21
4953.401968
 31
0.0
  0
LINE
  8
SUNPOU
 10
2568.505424
 20
5971.401968
 30
0.0
 11
2164.48294
 21
5971.401968
 31
0.0
  0
LINE
  8
SUNPOU
 10
2378.505424
 20
6003.401968
 30
0.0
 11
2164.48294
 21
6003.401968
 31
0.0
  0
LINE
  8
SUNPOU
 10
2184.48294
 20
5971.401968
 30
0.0
 11
2184.48294
 21
6003.401968
 31
0.0
  0
INSERT
  8
SUNPOU
  2
ARROWANG
 10
2184.48294
 20
5971.401968
 30
0.0
 41
30.0
 42
30.0
 50
90.0
 43
30.0
  0
INSERT
  8
SUNPOU
  2
ARROWANG
 10
2184.48294
 20
6003.401968
 30
0.0
 41
30.0
 42
30.0
 50
270.0
 43
30.0
  0
LINE
  8
SUNPOU
 10
2184.48294
 20
6003.401968
 30
0.0
 11
2184.48294
 21
6135.401968
 31
0.0
  0
LINE
  8
SUNPOU
 10
2184.48294
 20
5971.401968
 30
0.0
 11
2184.482941
 21
5911.401968
 31
0.0
  0
TEXT
  8
SUNPOU
 10
2154.48294
 20
6012.25911
 30
0.0
 40
60.0
  1
32
 50
90.0
  7
K
 72
     1
 11
2154.48294
 21
6069.401968
 31
0.0
  0
LINE
  8
SUNPOU
 10
2520.505424
 20
3883.401968
 30
0.0
 11
2172.268117
 21
3883.401968
 31
0.0
  0
LINE
  8
SUNPOU
 10
2378.505424
 20
3903.401968
 30
0.0
 11
2172.268117
 21
3903.401968
 31
0.0
  0
LINE
  8
SUNPOU
 10
2192.268117
 20
3883.401968
 30
0.0
 11
2192.268117
 21
3903.401968
 31
0.0
  0
INSERT
  8
SUNPOU
  2
ARROWANG
 10
2192.268117
 20
3883.401968
 30
0.0
 41
30.0
 42
30.0
 50
90.0
 43
30.0
  0
INSERT
  8
SUNPOU
  2
ARROWANG
 10
2192.268117
 20
3903.401968
 30
0.0
 41
30.0
 42
30.0
 50
270.0
 43
30.0
  0
LINE
  8
SUNPOU
 10
2192.268117
 20
3883.401968
 30
0.0
 11
2192.268117
 21
3751.401968
 31
0.0
  0
LINE
  8
SUNPOU
 10
2192.268117
 20
3903.401968
 30
0.0
 11
2192.268117
 21
3963.401968
 31
0.0
  0
TEXT
  8
SUNPOU
 10
2162.268117
 20
3760.25911
 30
0.0
 40
60.0
  1
20
 50
90.0
  7
K
 72
     1
 11
2162.268117
 21
3817.401968
 31
0.0
  0
LINE
  8
SUNPOU
 10
3708.505424
 20
3883.401968
 30
0.0
 11
4147.183905
 21
3883.401968
 31
0.0
  0
LINE
  8
SUNPOU
 10
3958.505424
 20
4033.401968
 30
0.0
 11
4147.183905
 21
4033.401968
 31
0.0
  0
LINE
  8
SUNPOU
 10
4127.183905
 20
3883.401968
 30
0.0
 11
4127.183905
 21
4033.401968
 31
0.0
  0
INSERT
  8
SUNPOU
  2
ARROWANG
 10
4127.183905
 20
3883.401968
 30
0.0
 41
30.0
 42
30.0
 50
270.0
 43
30.0
  0
INSERT
  8
SUNPOU
  2
ARROWANG
 10
4127.183905
 20
4033.401968
 30
0.0
 41
30.0
 42
30.0
 50
90.0
 43
30.0
  0
TEXT
  8
SUNPOU
 10
4097.183905
 20
3868.401968
 30
0.0
 40
60.0
  1
150
 50
90.0
  7
K
 72
     1
 11
4097.183905
 21
3958.401968
 31
0.0
  0
LINE
  8
SUNPOU
 10
4127.183905
 20
4033.401968
 30
0.0
 11
4127.183905
 21
4333.401968
 31
0.0
  0
LINE
  8
SUNPOU
 10
3958.505424
 20
4333.401968
 30
0.0
 11
4147.183905
 21
4333.401968
 31
0.0
  0
INSERT
  8
SUNPOU
  2
ARROWANG
 10
4127.183905
 20
4033.401968
 30
0.0
 41
30.0
 42
30.0
 50
270.0
 43
30.0
  0
INSERT
  8
SUNPOU
  2
ARROWANG
 10
4127.183905
 20
4333.401968
 30
0.0
 41
30.0
 42
30.0
 50
90.0
 43
30.0
  0
TEXT
  8
SUNPOU
 10
4097.183905
 20
4097.687682
 30
0.0
 40
60.0
  1
300
 50
90.0
  7
K
 72
     1
 11
4097.183905
 21
4183.401968
 31
0.0
  0
LINE
  8
SUNPOU
 10
4127.183905
 20
4333.401968
 30
0.0
 11
4127.183905
 21
4633.401968
 31
0.0
  0
LINE
  8
SUNPOU
 10
3958.505424
 20
4633.401968
 30
0.0
 11
4147.183905
 21
4633.401968
 31
0.0
  0
INSERT
  8
SUNPOU
  2
ARROWANG
 10
4127.183905
 20
4333.401968
 30
0.0
 41
30.0
 42
30.0
 50
270.0
 43
30.0
  0
INSERT
  8
SUNPOU
  2
ARROWANG
 10
4127.183905
 20
4633.401968
 30
0.0
 41
30.0
 42
30.0
 50
90.0
 43
30.0
  0
TEXT
  8
SUNPOU
 10
4097.183905
 20
4397.687682
 30
0.0
 40
60.0
  1
300
 50
90.0
  7
K
 72
     1
 11
4097.183905
 21
4483.401968
 31
0.0
  0
LINE
  8
SUNPOU
 10
4127.183905
 20
4633.401968
 30
0.0
 11
4127.183905
 21
4933.401968
 31
0.0
  0
LINE
  8
SUNPOU
 10
3958.505424
 20
4933.401968
 30
0.0
 11
4147.183905
 21
4933.401968
 31
0.0
  0
INSERT
  8
SUNPOU
  2
ARROWANG
 10
4127.183905
 20
4633.401968
 30
0.0
 41
30.0
 42
30.0
 50
270.0
 43
30.0
  0
INSERT
  8
SUNPOU
  2
ARROWANG
 10
4127.183905
 20
4933.401968
 30
0.0
 41
30.0
 42
30.0
 50
90.0
 43
30.0
  0
TEXT
  8
SUNPOU
 10
4097.183905
 20
4697.687682
 30
0.0
 40
60.0
  1
300
 50
90.0
  7
K
 72
     1
 11
4097.183905
 21
4783.401968
 31
0.0
  0
LINE
  8
SUNPOU
 10
4127.183905
 20
4933.401968
 30
0.0
 11
4127.183905
 21
5233.401968
 31
0.0
  0
LINE
  8
SUNPOU
 10
3958.505424
 20
5233.401968
 30
0.0
 11
4147.183905
 21
5233.401968
 31
0.0
  0
INSERT
  8
SUNPOU
  2
ARROWANG
 10
4127.183905
 20
4933.401968
 30
0.0
 41
30.0
 42
30.0
 50
270.0
 43
30.0
  0
INSERT
  8
SUNPOU
  2
ARROWANG
 10
4127.183905
 20
5233.401968
 30
0.0
 41
30.0
 42
30.0
 50
90.0
 43
30.0
  0
TEXT
  8
SUNPOU
 10
4097.183905
 20
4997.687682
 30
0.0
 40
60.0
  1
300
 50
90.0
  7
K
 72
     1
 11
4097.183905
 21
5083.401968
 31
0.0
  0
LINE
  8
SUNPOU
 10
4127.183905
 20
5233.401968
 30
0.0
 11
4127.183905
 21
5533.401968
 31
0.0
  0
LINE
  8
SUNPOU
 10
3958.505424
 20
5533.401968
 30
0.0
 11
4147.183905
 21
5533.401968
 31
0.0
  0
INSERT
  8
SUNPOU
  2
ARROWANG
 10
4127.183905
 20
5233.401968
 30
0.0
 41
30.0
 42
30.0
 50
270.0
 43
30.0
  0
INSERT
  8
SUNPOU
  2
ARROWANG
 10
4127.183905
 20
5533.401968
 30
0.0
 41
30.0
 42
30.0
 50
90.0
 43
30.0
  0
TEXT
  8
SUNPOU
 10
4097.183905
 20
5297.687682
 30
0.0
 40
60.0
  1
300
 50
90.0
  7
K
 72
     1
 11
4097.183905
 21
5383.401968
 31
0.0
  0
LINE
  8
SUNPOU
 10
4127.183905
 20
5533.401968
 30
0.0
 11
4127.183905
 21
5833.401968
 31
0.0
  0
LINE
  8
SUNPOU
 10
3958.505424
 20
5833.401968
 30
0.0
 11
4147.183905
 21
5833.401968
 31
0.0
  0
INSERT
  8
SUNPOU
  2
ARROWANG
 10
4127.183905
 20
5533.401968
 30
0.0
 41
30.0
 42
30.0
 50
270.0
 43
30.0
  0
INSERT
  8
SUNPOU
  2
ARROWANG
 10
4127.183905
 20
5833.401968
 30
0.0
 41
30.0
 42
30.0
 50
90.0
 43
30.0
  0
TEXT
  8
SUNPOU
 10
4097.183905
 20
5597.687682
 30
0.0
 40
60.0
  1
300
 50
90.0
  7
K
 72
     1
 11
4097.183905
 21
5683.401968
 31
0.0
  0
TEXT
  8
TEXT
 10
5333.832579
 20
6603.27792
 30
0.0
 40
120.0
  1
直  壁
  7
K
  0
TEXT
  8
TEXT
 10
1690.663628
 20
667.497177
 30
0.0
 40
120.0
  1
M5S150
  7
K
  0
TEXT
  8
TEXT
 10
2830.290802
 20
2117.516607
 30
0.0
 40
60.0
  1
M20 8ケ所
  7
K
  0
TEXT
  8
TEXT
 10
2873.067902
 20
1230.890542
 30
0.0
 40
60.0
  1
M20 4ケ所
  7
K
  0
TEXT
  8
TEXT
 10
2858.778015
 20
5587.886759
 30
0.0
 40
60.0
  1
M20 8ケ所
  7
K
  0
TEXT
  8
TEXT
 10
2886.920845
 20
4097.782948
 30
0.0
 40
60.0
  1
M20 4ケ所
  7
K
  0
POINT
  8
TEXT
 10
7387.597996
 20
1783.466786
 30
0.0
  0
ARC
  8
JISSEN
 10
4238.20011
 20
1921.054246
 30
0.0
 40
50.242185
 50
95.627968
 51
264.372032
  0
ARC
  8
JISSEN
 10
4228.346603
 20
1921.054246
 30
0.0
 40
50.2421
 50
275.626988
 51
84.373012
  0
ARC
  8
JISSEN
 10
4236.721954
 20
1921.054246
 30
0.0
 40
35.169529
 50
95.627968
 51
264.372032
  0
ARC
  8
JISSEN
 10
4229.823895
 20
1921.054246
 30
0.0
 40
35.169529
 50
275.627968
 51
84.372032
  0
ARC
  8
JISSEN
 10
4229.823895
 20
5383.401968
 30
0.0
 40
35.169529
 50
275.627968
 51
84.372032
  0
ARC
  8
JISSEN
 10
4236.721954
 20
5383.401968
 30
0.0
 40
35.169529
 50
95.627968
 51
264.372032
  0
ARC
  8
JISSEN
 10
4228.346603
 20
5383.401968
 30
0.0
 40
50.2421
 50
275.626988
 51
84.373012
  0
ARC
  8
JISSEN
 10
4238.20011
 20
5383.401968
 30
0.0
 40
50.242185
 50
95.627968
 51
264.372032
  0
LINE
  8
SUNPOU
 10
4233.272925
 20
5458.401968
 30
0.0
 11
4233.272925
 21
5308.401968
 31
0.0
  0
LINE
  8
SUNPOU
 10
4154.477695
 20
5383.401968
 30
0.0
 11
4427.825453
 21
5383.401968
 31
0.0
  0
LINE
  8
SUNPOU
 10
4233.272925
 20
1996.054246
 30
0.0
 11
4233.272925
 21
1846.054246
 31
0.0
  0
LINE
  8
SUNPOU
 10
4148.093598
 20
1921.054246
 30
0.0
 11
4400.226475
 21
1921.054246
 31
0.0
  0
LINE
  8
SUNPOU
 10
7852.663959
 20
5380.846955
 30
0.0
 11
8126.011717
 21
5380.846955
 31
0.0
  0
LINE
  8
SUNPOU
 10
7931.459189
 20
5455.846955
 30
0.0
 11
7931.459189
 21
5305.846955
 31
0.0
  0
ARC
  8
JISSEN
 10
7936.386374
 20
5380.846955
 30
0.0
 40
50.242185
 50
95.627968
 51
264.372032
  0
ARC
  8
JISSEN
 10
7926.532867
 20
5380.846955
 30
0.0
 40
50.2421
 50
275.626988
 51
84.373012
  0
ARC
  8
JISSEN
 10
7934.908218
 20
5380.846955
 30
0.0
 40
35.169529
 50
95.627968
 51
264.372032
  0
ARC
  8
JISSEN
 10
7928.010159
 20
5380.846955
 30
0.0
 40
35.169529
 50
275.627968
 51
84.372032
  0
TEXT
  8
TEXT
 10
6585.107109
 20
3795.227936
 30
0.0
 40
60.0
  1
M20 4ケ所
  7
K
  0
TEXT
  8
TEXT
 10
6556.964279
 20
5585.331747
 30
0.0
 40
60.0
  1
M20 8ケ所
  7
K
  0
TEXT
  8
SUNPOU
 10
7795.370169
 20
5595.13267
 30
0.0
 40
60.0
  1
300
 50
90.0
  7
K
 72
     1
 11
7795.370169
 21
5680.846955
 31
0.0
  0
INSERT
  8
SUNPOU
  2
ARROWANG
 10
7825.370169
 20
5830.846955
 30
0.0
 41
30.0
 42
30.0
 50
90.0
 43
30.0
  0
INSERT
  8
SUNPOU
  2
ARROWANG
 10
7825.370169
 20
5530.846955
 30
0.0
 41
30.0
 42
30.0
 50
270.0
 43
30.0
  0
LINE
  8
SUNPOU
 10
7656.691688
 20
5830.846955
 30
0.0
 11
7845.370169
 21
5830.846955
 31
0.0
  0
LINE
  8
SUNPOU
 10
7825.370169
 20
5530.846955
 30
0.0
 11
7825.370169
 21
5830.846955
 31
0.0
  0
TEXT
  8
SUNPOU
 10
7795.370169
 20
5295.13267
 30
0.0
 40
60.0
  1
300
 50
90.0
  7
K
 72
     1
 11
7795.370169
 21
5380.846955
 31
0.0
  0
INSERT
  8
SUNPOU
  2
ARROWANG
 10
7825.370169
 20
5530.846955
 30
0.0
 41
30.0
 42
30.0
 50
90.0
 43
30.0
  0
INSERT
  8
SUNPOU
  2
ARROWANG
 10
7825.370169
 20
5230.846955
 30
0.0
 41
30.0
 42
30.0
 50
270.0
 43
30.0
  0
LINE
  8
SUNPOU
 10
7656.691688
 20
5530.846955
 30
0.0
 11
7845.370169
 21
5530.846955
 31
0.0
  0
LINE
  8
SUNPOU
 10
7825.370169
 20
5230.846955
 30
0.0
 11
7825.370169
 21
5530.846955
 31
0.0
  0
TEXT
  8
SUNPOU
 10
7795.370169
 20
4995.13267
 30
0.0
 40
60.0
  1
300
 50
90.0
  7
K
 72
     1
 11
7795.370169
 21
5080.846955
 31
0.0
  0
INSERT
  8
SUNPOU
  2
ARROWANG
 10
7825.370169
 20
5230.846955
 30
0.0
 41
30.0
 42
30.0
 50
90.0
 43
30.0
  0
INSERT
  8
SUNPOU
  2
ARROWANG
 10
7825.370169
 20
4930.846955
 30
0.0
 41
30.0
 42
30.0
 50
270.0
 43
30.0
  0
LINE
  8
SUNPOU
 10
7656.691688
 20
5230.846955
 30
0.0
 11
7845.370169
 21
5230.846955
 31
0.0
  0
LINE
  8
SUNPOU
 10
7825.370169
 20
4930.846955
 30
0.0
 11
7825.370169
 21
5230.846955
 31
0.0
  0
TEXT
  8
SUNPOU
 10
7795.370169
 20
4695.13267
 30
0.0
 40
60.0
  1
300
 50
90.0
  7
K
 72
     1
 11
7795.370169
 21
4780.846955
 31
0.0
  0
INSERT
  8
SUNPOU
  2
ARROWANG
 10
7825.370169
 20
4930.846955
 30
0.0
 41
30.0
 42
30.0
 50
90.0
 43
30.0
  0
INSERT
  8
SUNPOU
  2
ARROWANG
 10
7825.370169
 20
4630.846955
 30
0.0
 41
30.0
 42
30.0
 50
270.0
 43
30.0
  0
LINE
  8
SUNPOU
 10
7656.691688
 20
4930.846955
 30
0.0
 11
7845.370169
 21
4930.846955
 31
0.0
  0
LINE
  8
SUNPOU
 10
7825.370169
 20
4630.846955
 30
0.0
 11
7825.370169
 21
4930.846955
 31
0.0
  0
TEXT
  8
SUNPOU
 10
7795.370169
 20
4095.13267
 30
0.0
 40
60.0
  1
300
 50
90.0
  7
K
 72
     1
 11
7795.370169
 21
4180.846955
 31
0.0
  0
INSERT
  8
SUNPOU
  2
ARROWANG
 10
7825.370169
 20
4630.846955
 30
0.0
 41
30.0
 42
30.0
 50
90.0
 43
30.0
  0
INSERT
  8
SUNPOU
  2
ARROWANG
 10
7825.370169
 20
4030.846955
 30
0.0
 41
30.0
 42
30.0
 50
270.0
 43
30.0
  0
LINE
  8
SUNPOU
 10
7656.691688
 20
4630.846955
 30
0.0
 11
7845.370169
 21
4630.846955
 31
0.0
  0
LINE
  8
SUNPOU
 10
7825.370169
 20
4030.846955
 30
0.0
 11
7825.370169
 21
4630.846955
 31
0.0
  0
TEXT
  8
SUNPOU
 10
7795.370169
 20
3795.13267
 30
0.0
 40
60.0
  1
300
 50
90.0
  7
K
 72
     1
 11
7795.370169
 21
3880.846955
 31
0.0
  0
INSERT
  8
SUNPOU
  2
ARROWANG
 10
7825.370169
 20
4030.846955
 30
0.0
 41
30.0
 42
30.0
 50
90.0
 43
30.0
  0
INSERT
  8
SUNPOU
  2
ARROWANG
 10
7825.370169
 20
3730.846955
 30
0.0
 41
30.0
 42
30.0
 50
270.0
 43
30.0
  0
LINE
  8
SUNPOU
 10
7656.691688
 20
4030.846955
 30
0.0
 11
7845.370169
 21
4030.846955
 31
0.0
  0
LINE
  8
SUNPOU
 10
7825.370169
 20
3730.846955
 30
0.0
 11
7825.370169
 21
4030.846955
 31
0.0
  0
TEXT
  8
SUNPOU
 10
7795.370169
 20
3565.846955
 30
0.0
 40
60.0
  1
150
 50
90.0
  7
K
 72
     1
 11
7795.370169
 21
3655.846955
 31
0.0
  0
INSERT
  8
SUNPOU
  2
ARROWANG
 10
7825.370169
 20
3730.846955
 30
0.0
 41
30.0
 42
30.0
 50
90.0
 43
30.0
  0
INSERT
  8
SUNPOU
  2
ARROWANG
 10
7825.370169
 20
3580.846955
 30
0.0
 41
30.0
 42
30.0
 50
270.0
 43
30.0
  0
LINE
  8
SUNPOU
 10
7825.370169
 20
3580.846955
 30
0.0
 11
7825.370169
 21
3730.846955
 31
0.0
  0
LINE
  8
SUNPOU
 10
7656.691688
 20
3730.846955
 30
0.0
 11
7845.370169
 21
3730.846955
 31
0.0
  0
LINE
  8
SUNPOU
 10
7406.691688
 20
3580.846955
 30
0.0
 11
7845.370169
 21
3580.846955
 31
0.0
  0
TEXT
  8
SUNPOU
 10
5860.454381
 20
3457.704098
 30
0.0
 40
60.0
  1
20
 50
90.0
  7
K
 72
     1
 11
5860.454381
 21
3514.846955
 31
0.0
  0
LINE
  8
SUNPOU
 10
5890.454381
 20
3600.846955
 30
0.0
 11
5890.454381
 21
3660.846955
 31
0.0
  0
LINE
  8
SUNPOU
 10
5890.454381
 20
3580.846955
 30
0.0
 11
5890.454381
 21
3448.846955
 31
0.0
  0
INSERT
  8
SUNPOU
  2
ARROWANG
 10
5890.454381
 20
3600.846955
 30
0.0
 41
30.0
 42
30.0
 50
270.0
 43
30.0
  0
INSERT
  8
SUNPOU
  2
ARROWANG
 10
5890.454381
 20
3580.846955
 30
0.0
 41
30.0
 42
30.0
 50
90.0
 43
30.0
  0
LINE
  8
SUNPOU
 10
5890.454381
 20
3580.846955
 30
0.0
 11
5890.454381
 21
3600.846955
 31
0.0
  0
LINE
  8
SUNPOU
 10
6076.691688
 20
3600.846955
 30
0.0
 11
5870.454381
 21
3600.846955
 31
0.0
  0
LINE
  8
SUNPOU
 10
6218.691688
 20
3580.846955
 30
0.0
 11
5870.454381
 21
3580.846955
 31
0.0
  0
TEXT
  8
SUNPOU
 10
5852.669204
 20
6009.704098
 30
0.0
 40
60.0
  1
32
 50
90.0
  7
K
 72
     1
 11
5852.669204
 21
6066.846955
 31
0.0
  0
LINE
  8
SUNPOU
 10
5882.669204
 20
5968.846955
 30
0.0
 11
5882.669205
 21
5908.846955
 31
0.0
  0
LINE
  8
SUNPOU
 10
5882.669204
 20
6000.846955
 30
0.0
 11
5882.669204
 21
6132.846955
 31
0.0
  0
INSERT
  8
SUNPOU
  2
ARROWANG
 10
5882.669204
 20
6000.846955
 30
0.0
 41
30.0
 42
30.0
 50
270.0
 43
30.0
  0
INSERT
  8
SUNPOU
  2
ARROWANG
 10
5882.669204
 20
5968.846955
 30
0.0
 41
30.0
 42
30.0
 50
90.0
 43
30.0
  0
LINE
  8
SUNPOU
 10
5882.669204
 20
5968.846955
 30
0.0
 11
5882.669204
 21
6000.846955
 31
0.0
  0
LINE
  8
SUNPOU
 10
6076.691688
 20
6000.846955
 30
0.0
 11
5862.669204
 21
6000.846955
 31
0.0
  0
LINE
  8
SUNPOU
 10
6266.691688
 20
5968.846955
 30
0.0
 11
5862.669204
 21
5968.846955
 31
0.0
  0
TEXT
  8
SUNPOU
 10
5566.365501
 20
4621.950407
 30
0.0
 40
60.0
  1
2400
 50
90.0
  7
K
 72
     1
 11
5566.365501
 21
4736.236121
 31
0.0
  0
INSERT
  8
SUNPOU
  2
ARROWANG
 10
5608.990307
 20
6000.846955
 30
0.0
 41
30.0
 42
30.0
 50
90.0
 43
30.0
  0
INSERT
  8
SUNPOU
  2
ARROWANG
 10
5608.990307
 20
3600.846955
 30
0.0
 41
30.0
 42
30.0
 50
270.0
 43
30.0
  0
LINE
  8
SUNPOU
 10
5608.990307
 20
3600.846955
 30
0.0
 11
5608.990307
 21
6000.846955
 31
0.0
  0
LINE
  8
SUNPOU
 10
6076.691688
 20
6000.846955
 30
0.0
 11
5588.990307
 21
6000.846955
 31
0.0
  0
LINE
  8
SUNPOU
 10
6076.691688
 20
3600.846955
 30
0.0
 11
5588.990307
 21
3600.846955
 31
0.0
  0
LINE
  8
SUNPOU
 10
6226.691688
 20
3580.846955
 30
0.0
 11
6226.691688
 21
3193.5312
 31
0.0
  0
LINE
  8
SUNPOU
 10
8546.691688
 20
3580.846955
 30
0.0
 11
8546.691688
 21
3193.5312
 31
0.0
  0
LINE
  8
SUNPOU
 10
6226.691688
 20
3213.5312
 30
0.0
 11
8546.691688
 21
3213.5312
 31
0.0
  0
INSERT
  8
SUNPOU
  2
ARROWANG
 10
8546.691688
 20
3213.5312
 30
0.0
 41
30.0
 42
30.0
 43
30.0
  0
INSERT
  8
SUNPOU
  2
ARROWANG
 10
6226.691688
 20
3213.5312
 30
0.0
 41
30.0
 42
30.0
 50
180.0
 43
30.0
  0
TEXT
  8
SUNPOU
 10
7269.793617
 20
3243.5312
 30
0.0
 40
60.0
  1
2320
  7
K
 72
     1
 11
7384.079331
 21
3243.5312
 31
0.0
  0
LINE
  8
SUNPOU
 10
6238.691688
 20
3560.846955
 30
0.0
 11
6238.691688
 21
3374.713097
 31
0.0
  0
LINE
  8
SUNPOU
 10
8534.691688
 20
3560.846955
 30
0.0
 11
8534.691688
 21
3374.713097
 31
0.0
  0
LINE
  8
SUNPOU
 10
6238.691688
 20
3394.713097
 30
0.0
 11
8534.691688
 21
3394.713097
 31
0.0
  0
INSERT
  8
SUNPOU
  2
ARROWANG
 10
6238.691688
 20
3394.713097
 30
0.0
 41
30.0
 42
30.0
 50
180.0
 43
30.0
  0
INSERT
  8
SUNPOU
  2
ARROWANG
 10
8534.691688
 20
3394.713097
 30
0.0
 41
30.0
 42
30.0
 43
30.0
  0
TEXT
  8
SUNPOU
 10
7272.405984
 20
3424.713097
 30
0.0
 40
60.0
  1
2296
  7
K
 72
     1
 11
7386.691698
 21
3424.713097
 31
0.0
  0
LINE
  8
SUNPOU
 10
6096.691688
 20
6020.846955
 30
0.0
 11
6096.691688
 21
6553.682114
 31
0.0
  0
LINE
  8
SUNPOU
 10
6286.691688
 20
5988.846955
 30
0.0
 11
6286.691688
 21
6553.682114
 31
0.0
  0
LINE
  8
SUNPOU
 10
8486.691688
 20
5988.846955
 30
0.0
 11
8486.691688
 21
6553.682114
 31
0.0
  0
LINE
  8
SUNPOU
 10
8676.691688
 20
6020.846955
 30
0.0
 11
8676.691688
 21
6553.682114
 31
0.0
  0
LINE
  8
SUNPOU
 10
6224.691688
 20
6020.846955
 30
0.0
 11
6224.691688
 21
6357.493231
 31
0.0
  0
LINE
  8
SUNPOU
 10
8548.691688
 20
6020.846955
 30
0.0
 11
8548.691688
 21
6357.493231
 31
0.0
  0
LINE
  8
SUNPOU
 10
6224.691688
 20
6337.493231
 30
0.0
 11
8548.691688
 21
6337.493231
 31
0.0
  0
INSERT
  8
SUNPOU
  2
ARROWANG
 10
6224.691688
 20
6337.493231
 30
0.0
 41
30.0
 42
30.0
 50
180.0
 43
30.0
  0
INSERT
  8
SUNPOU
  2
ARROWANG
 10
8548.691688
 20
6337.493231
 30
0.0
 41
30.0
 42
30.0
 43
30.0
  0
TEXT
  8
SUNPOU
 10
7270.977412
 20
6367.493231
 30
0.0
 40
60.0
  1
2324
  7
K
 72
     1
 11
7386.691698
 21
6367.493231
 31
0.0
  0
LINE
  8
SUNPOU
 10
6233.691688
 20
5988.846955
 30
0.0
 11
6233.691688
 21
6176.311335
 31
0.0
  0
LINE
  8
SUNPOU
 10
8539.691688
 20
5988.846955
 30
0.0
 11
8539.691688
 21
6176.311335
 31
0.0
  0
LINE
  8
SUNPOU
 10
6233.691688
 20
6156.311335
 30
0.0
 11
8539.691688
 21
6156.311335
 31
0.0
  0
INSERT
  8
SUNPOU
  2
ARROWANG
 10
6233.691688
 20
6156.311335
 30
0.0
 41
30.0
 42
30.0
 50
180.0
 43
30.0
  0
INSERT
  8
SUNPOU
  2
ARROWANG
 10
8539.691688
 20
6156.311335
 30
0.0
 41
30.0
 42
30.0
 43
30.0
  0
TEXT
  8
SUNPOU
 10
7272.405984
 20
6186.311335
 30
0.0
 40
60.0
  1
2306
  7
K
 72
     1
 11
7386.691698
 21
6186.311335
 31
0.0
  0
LINE
  8
JISSEN
 10
7386.691688
 20
3740.846955
 30
0.0
 11
7576.691688
 21
3740.846955
 31
0.0
  0
ARC
  8
JISSEN
 10
7576.691688
 20
3730.846955
 30
0.0
 40
10.0
 50
270.0
 51
90.0
  0
LINE
  8
JISSEN
 10
7386.691688
 20
3720.846955
 30
0.0
 11
7576.691688
 21
3720.846955
 31
0.0
  0
LINE
  8
JISSEN
 10
7386.691688
 20
3740.846955
 30
0.0
 11
7196.691688
 21
3740.846955
 31
0.0
  0
LINE
  8
JISSEN
 10
7386.691688
 20
3720.846955
 30
0.0
 11
7196.691688
 21
3720.846955
 31
0.0
  0
ARC
  8
JISSEN
 10
7196.691688
 20
3730.846955
 30
0.0
 40
10.0
 50
90.0
 51
270.0
  0
LINE
  8
ITTEN
 10
7136.691688
 20
3730.846955
 30
0.0
 11
7636.691688
 21
3730.846955
 31
0.0
  0
LINE
  8
JISSEN
 10
7386.691688
 20
4040.846955
 30
0.0
 11
7576.691688
 21
4040.846955
 31
0.0
  0
ARC
  8
JISSEN
 10
7576.691688
 20
4030.846955
 30
0.0
 40
10.0
 50
270.0
 51
90.0
  0
LINE
  8
JISSEN
 10
7386.691688
 20
4020.846955
 30
0.0
 11
7576.691688
 21
4020.846955
 31
0.0
  0
LINE
  8
JISSEN
 10
7386.691688
 20
4040.846955
 30
0.0
 11
7196.691688
 21
4040.846955
 31
0.0
  0
LINE
  8
JISSEN
 10
7386.691688
 20
4020.846955
 30
0.0
 11
7196.691688
 21
4020.846955
 31
0.0
  0
ARC
  8
JISSEN
 10
7196.691688
 20
4030.846955
 30
0.0
 40
10.0
 50
90.0
 51
270.0
  0
LINE
  8
ITTEN
 10
7136.691688
 20
4030.846955
 30
0.0
 11
7636.691688
 21
4030.846955
 31
0.0
  0
LINE
  8
ITTEN
 10
7136.691688
 20
4630.846955
 30
0.0
 11
7636.691688
 21
4630.846955
 31
0.0
  0
ARC
  8
JISSEN
 10
7196.691688
 20
4630.846955
 30
0.0
 40
10.0
 50
90.0
 51
270.0
  0
LINE
  8
JISSEN
 10
7386.691688
 20
4620.846955
 30
0.0
 11
7196.691688
 21
4620.846955
 31
0.0
  0
LINE
  8
JISSEN
 10
7386.691688
 20
4640.846955
 30
0.0
 11
7196.691688
 21
4640.846955
 31
0.0
  0
LINE
  8
JISSEN
 10
7386.691688
 20
4620.846955
 30
0.0
 11
7576.691688
 21
4620.846955
 31
0.0
  0
ARC
  8
JISSEN
 10
7576.691688
 20
4630.846955
 30
0.0
 40
10.0
 50
270.0
 51
90.0
  0
LINE
  8
JISSEN
 10
7386.691688
 20
4640.846955
 30
0.0
 11
7576.691688
 21
4640.846955
 31
0.0
  0
LINE
  8
JISSEN
 10
7386.691688
 20
4940.846955
 30
0.0
 11
7576.691688
 21
4940.846955
 31
0.0
  0
ARC
  8
JISSEN
 10
7576.691688
 20
4930.846955
 30
0.0
 40
10.0
 50
270.0
 51
90.0
  0
LINE
  8
JISSEN
 10
7386.691688
 20
4920.846955
 30
0.0
 11
7576.691688
 21
4920.846955
 31
0.0
  0
LINE
  8
JISSEN
 10
7386.691688
 20
4940.846955
 30
0.0
 11
7196.691688
 21
4940.846955
 31
0.0
  0
LINE
  8
JISSEN
 10
7386.691688
 20
4920.846955
 30
0.0
 11
7196.691688
 21
4920.846955
 31
0.0
  0
ARC
  8
JISSEN
 10
7196.691688
 20
4930.846955
 30
0.0
 40
10.0
 50
90.0
 51
270.0
  0
LINE
  8
ITTEN
 10
7136.691688
 20
4930.846955
 30
0.0
 11
7636.691688
 21
4930.846955
 31
0.0
  0
LINE
  8
JISSEN
 10
7386.691688
 20
5240.846955
 30
0.0
 11
7576.691688
 21
5240.846955
 31
0.0
  0
ARC
  8
JISSEN
 10
7576.691688
 20
5230.846955
 30
0.0
 40
10.0
 50
270.0
 51
90.0
  0
LINE
  8
JISSEN
 10
7386.691688
 20
5220.846955
 30
0.0
 11
7576.691688
 21
5220.846955
 31
0.0
  0
LINE
  8
JISSEN
 10
7386.691688
 20
5240.846955
 30
0.0
 11
7196.691688
 21
5240.846955
 31
0.0
  0
LINE
  8
JISSEN
 10
7386.691688
 20
5220.846955
 30
0.0
 11
7196.691688
 21
5220.846955
 31
0.0
  0
ARC
  8
JISSEN
 10
7196.691688
 20
5230.846955
 30
0.0
 40
10.0
 50
90.0
 51
270.0
  0
LINE
  8
ITTEN
 10
7136.691688
 20
5230.846955
 30
0.0
 11
7636.691688
 21
5230.846955
 31
0.0
  0
LINE
  8
JISSEN
 10
7386.691688
 20
5540.846955
 30
0.0
 11
7576.691688
 21
5540.846955
 31
0.0
  0
ARC
  8
JISSEN
 10
7576.691688
 20
5530.846955
 30
0.0
 40
10.0
 50
270.0
 51
90.0
  0
LINE
  8
JISSEN
 10
7386.691688
 20
5520.846955
 30
0.0
 11
7576.691688
 21
5520.846955
 31
0.0
  0
LINE
  8
JISSEN
 10
7386.691688
 20
5540.846955
 30
0.0
 11
7196.691688
 21
5540.846955
 31
0.0
  0
LINE
  8
JISSEN
 10
7386.691688
 20
5520.846955
 30
0.0
 11
7196.691688
 21
5520.846955
 31
0.0
  0
ARC
  8
JISSEN
 10
7196.691688
 20
5530.846955
 30
0.0
 40
10.0
 50
90.0
 51
270.0
  0
LINE
  8
ITTEN
 10
7136.691688
 20
5530.846955
 30
0.0
 11
7636.691688
 21
5530.846955
 31
0.0
  0
LINE
  8
JISSEN
 10
7386.691688
 20
5840.846955
 30
0.0
 11
7576.691688
 21
5840.846955
 31
0.0
  0
ARC
  8
JISSEN
 10
7576.691688
 20
5830.846955
 30
0.0
 40
10.0
 50
270.0
 51
90.0
  0
LINE
  8
JISSEN
 10
7386.691688
 20
5820.846955
 30
0.0
 11
7576.691688
 21
5820.846955
 31
0.0
  0
LINE
  8
JISSEN
 10
7386.691688
 20
5840.846955
 30
0.0
 11
7196.691688
 21
5840.846955
 31
0.0
  0
LINE
  8
JISSEN
 10
7386.691688
 20
5820.846955
 30
0.0
 11
7196.691688
 21
5820.846955
 31
0.0
  0
ARC
  8
JISSEN
 10
7196.691688
 20
5830.846955
 30
0.0
 40
10.0
 50
90.0
 51
270.0
  0
LINE
  8
ITTEN
 10
7136.691688
 20
5830.846955
 30
0.0
 11
7636.691688
 21
5830.846955
 31
0.0
  0
LINE
  8
JISSEN
 10
8676.691688
 20
6000.846955
 30
0.0
 11
8546.691688
 21
6000.846955
 31
0.0
  0
LINE
  8
JISSEN
 10
8548.691688
 20
6000.846955
 30
0.0
 11
8539.691688
 21
5968.846955
 31
0.0
  0
LINE
  8
JISSEN
 10
8539.691688
 20
5968.846955
 30
0.0
 11
8486.691688
 21
5968.846955
 31
0.0
  0
LINE
  8
JISSEN
 10
8286.691688
 20
5968.846955
 30
0.0
 11
7386.691688
 21
5968.846955
 31
0.0
  0
LINE
  8
JISSEN
 10
8486.691688
 20
5968.846955
 30
0.0
 11
8286.691688
 21
5968.846955
 31
0.0
  0
LINE
  8
JISSEN
 10
6286.691688
 20
5968.846955
 30
0.0
 11
6486.691688
 21
5968.846955
 31
0.0
  0
LINE
  8
JISSEN
 10
6486.691688
 20
5968.846955
 30
0.0
 11
7386.691688
 21
5968.846955
 31
0.0
  0
LINE
  8
JISSEN
 10
6233.691688
 20
5968.846955
 30
0.0
 11
6286.691688
 21
5968.846955
 31
0.0
  0
LINE
  8
JISSEN
 10
6224.691688
 20
6000.846955
 30
0.0
 11
6233.691688
 21
5968.846955
 31
0.0
  0
LINE
  8
JISSEN
 10
6096.691688
 20
6000.846955
 30
0.0
 11
6226.691688
 21
6000.846955
 31
0.0
  0
LINE
  8
JISSEN
 10
6096.691688
 20
3600.846955
 30
0.0
 11
6226.691688
 21
3600.846955
 31
0.0
  0
LINE
  8
JISSEN
 10
6226.691688
 20
3600.846955
 30
0.0
 11
6238.691688
 21
3580.846955
 31
0.0
  0
LINE
  8
JISSEN
 10
6238.691688
 20
3580.846955
 30
0.0
 11
7386.691688
 21
3580.846955
 31
0.0
  0
LINE
  8
ITTEN
 10
7386.691688
 20
3480.846955
 30
0.0
 11
7386.691688
 21
6100.846955
 31
0.0
  0
LINE
  8
JISSEN
 10
8676.691688
 20
3600.846955
 30
0.0
 11
8546.691688
 21
3600.846955
 31
0.0
  0
LINE
  8
JISSEN
 10
8546.691688
 20
3600.846955
 30
0.0
 11
8534.691688
 21
3580.846955
 31
0.0
  0
LINE
  8
JISSEN
 10
8534.691688
 20
3580.846955
 30
0.0
 11
7386.691688
 21
3580.846955
 31
0.0
  0
LINE
  8
JISSEN
 10
6096.691688
 20
6000.846955
 30
0.0
 11
6096.691688
 21
3600.846955
 31
0.0
  0
LINE
  8
JISSEN
 10
6286.691688
 20
5968.846955
 30
0.0
 11
6286.691688
 21
3580.846955
 31
0.0
  0
LINE
  8
JISSEN
 10
6224.691688
 20
6000.846955
 30
0.0
 11
8548.691688
 21
6000.846955
 31
0.0
  0
LINE
  8
JISSEN
 10
8676.691688
 20
6000.846955
 30
0.0
 11
8676.691688
 21
3600.846955
 31
0.0
  0
LINE
  8
JISSEN
 10
8486.691688
 20
5968.846955
 30
0.0
 11
8486.691688
 21
3580.846955
 31
0.0
  0
LINE
  8
SUNPOU
 10
6096.691688
 20
6533.682114
 30
0.0
 11
6286.691688
 21
6533.682114
 31
0.0
  0
INSERT
  8
SUNPOU
  2
ARROWANG
 10
6096.691688
 20
6533.682114
 30
0.0
 41
30.0
 42
30.0
 50
180.0
 43
30.0
  0
INSERT
  8
SUNPOU
  2
ARROWANG
 10
6286.691688
 20
6533.682114
 30
0.0
 41
30.0
 42
30.0
 43
30.0
  0
TEXT
  8
SUNPOU
 10
6101.691698
 20
6563.682114
 30
0.0
 40
60.0
  1
190
  7
K
 72
     1
 11
6191.691698
 21
6563.682114
 31
0.0
  0
LINE
  8
SUNPOU
 10
6286.691688
 20
6533.682114
 30
0.0
 11
8486.691688
 21
6533.682114
 31
0.0
  0
INSERT
  8
SUNPOU
  2
ARROWANG
 10
6286.691688
 20
6533.682114
 30
0.0
 41
30.0
 42
30.0
 50
180.0
 43
30.0
  0
INSERT
  8
SUNPOU
  2
ARROWANG
 10
8486.691688
 20
6533.682114
 30
0.0
 41
30.0
 42
30.0
 43
30.0
  0
TEXT
  8
SUNPOU
 10
7272.405974
 20
6563.682114
 30
0.0
 40
60.0
  1
2200
  7
K
 72
     1
 11
7386.691688
 21
6563.682114
 31
0.0
  0
LINE
  8
SUNPOU
 10
8486.691688
 20
6533.682114
 30
0.0
 11
8676.691688
 21
6533.682114
 31
0.0
  0
INSERT
  8
SUNPOU
  2
ARROWANG
 10
8486.691688
 20
6533.682114
 30
0.0
 41
30.0
 42
30.0
 50
180.0
 43
30.0
  0
INSERT
  8
SUNPOU
  2
ARROWANG
 10
8676.691688
 20
6533.682114
 30
0.0
 41
30.0
 42
30.0
 43
30.0
  0
TEXT
  8
SUNPOU
 10
8491.691688
 20
6563.682114
 30
0.0
 40
60.0
  1
190
  7
K
 72
     1
 11
8581.691688
 21
6563.682114
 31
0.0
  0
LINE
  8
SUNPOU
 10
6192.379384
 20
5850.846955
 30
0.0
 11
6498.27767
 21
5667.58204
 31
0.0
  0
INSERT
  8
SUNPOU
  2
ARROWANG
 10
6192.379384
 20
5850.846955
 30
0.0
 41
30.0
 42
30.0
 50
149.074002
 43
30.0
  0
INSERT
  8
SUNPOU
  2
ARROWANG
 10
6474.52394
 20
5850.846955
 30
0.0
 41
30.0
 42
30.0
 50
97.385172
 43
30.0
  0
LINE
  8
SUNPOU
 10
6474.52394
 20
5850.846955
 30
0.0
 11
6498.27767
 21
5667.58204
 31
0.0
  0
TEXT
  8
SUNPOU
 10
6498.27767
 20
5687.58204
 30
0.0
 40
60.0
  1
埋込みアンカー
  7
K
  0
LINE
  8
SUNPOU
 10
6498.27767
 20
5667.58204
 30
0.0
 11
7011.281623
 21
5667.58204
 31
0.0
  0
CIRCLE
  8
HASEN
 10
6474.52394
 20
5850.846955
 30
0.0
 40
15.0
  0
LINE
  8
ITTEN
 10
6474.52394
 20
5875.846955
 30
0.0
 11
6474.52394
 21
5825.846955
 31
0.0
  0
LINE
  8
ITTEN
 10
6499.52394
 20
5850.846955
 30
0.0
 11
6449.52394
 21
5850.846955
 31
0.0
  0
CIRCLE
  8
HASEN
 10
6192.379384
 20
5850.846955
 30
0.0
 40
15.0
  0
LINE
  8
ITTEN
 10
6217.379384
 20
5850.846955
 30
0.0
 11
6167.379384
 21
5850.846955
 31
0.0
  0
LINE
  8
ITTEN
 10
6192.379384
 20
5875.846955
 30
0.0
 11
6192.379384
 21
5825.846955
 31
0.0
  0
LINE
  8
ITTEN
 10
6499.52394
 20
3750.846955
 30
0.0
 11
6449.52394
 21
3750.846955
 31
0.0
  0
LINE
  8
ITTEN
 10
6474.52394
 20
3775.846955
 30
0.0
 11
6474.52394
 21
3725.846955
 31
0.0
  0
CIRCLE
  8
HASEN
 10
6474.52394
 20
3750.846955
 30
0.0
 40
15.0
  0
LINE
  8
SUNPOU
 10
6556.182044
 20
3876.070393
 30
0.0
 11
7025.074192
 21
3876.070393
 31
0.0
  0
LINE
  8
SUNPOU
 10
6472.251099
 20
3754.004782
 30
0.0
 11
6556.182044
 21
3876.070393
 31
0.0
  0
INSERT
  8
SUNPOU
  2
ARROWANG
 10
6472.251099
 20
3754.004782
 30
0.0
 41
30.0
 42
30.0
 50
235.488023
 43
30.0
  0
TEXT
  8
SUNPOU
 10
6568.163028
 20
3896.070393
 30
0.0
 40
60.0
  1
埋込みアンカー
  7
K
  0
LINE
  8
ITTEN
 10
7386.691688
 20
5425.846955
 30
0.0
 11
7386.691688
 21
5335.846955
 31
0.0
  0
LINE
  8
SUNPOU
 10
7406.691688
 20
6000.846955
 30
0.0
 11
8126.011717
 21
6000.846955
 31
0.0
  0
LINE
  8
SUNPOU
 10
8106.011717
 20
5380.846955
 30
0.0
 11
8106.011717
 21
6000.846955
 31
0.0
  0
INSERT
  8
SUNPOU
  2
ARROWANG
 10
8106.011717
 20
5380.846955
 30
0.0
 41
30.0
 42
30.0
 50
270.0
 43
30.0
  0
INSERT
  8
SUNPOU
  2
ARROWANG
 10
8106.011717
 20
6000.846955
 30
0.0
 41
30.0
 42
30.0
 50
90.0
 43
30.0
  0
TEXT
  8
SUNPOU
 10
8076.011717
 20
5603.704098
 30
0.0
 40
60.0
  1
620
 50
90.0
  7
K
 72
     1
 11
8076.011717
 21
5690.846955
 31
0.0
  0
LINE
  8
ITTEN
 10
8581.003993
 20
5875.846955
 30
0.0
 11
8581.003993
 21
5825.846955
 31
0.0
  0
LINE
  8
ITTEN
 10
8556.003993
 20
5850.846955
 30
0.0
 11
8606.003993
 21
5850.846955
 31
0.0
  0
CIRCLE
  8
HASEN
 10
8581.003993
 20
5850.846955
 30
0.0
 40
15.0
  0
LINE
  8
ITTEN
 10
8273.859436
 20
5850.846955
 30
0.0
 11
8323.859436
 21
5850.846955
 31
0.0
  0
LINE
  8
ITTEN
 10
8298.859436
 20
5875.846955
 30
0.0
 11
8298.859436
 21
5825.846955
 31
0.0
  0
CIRCLE
  8
HASEN
 10
8298.859436
 20
5850.846955
 30
0.0
 40
15.0
  0
CIRCLE
  8
HASEN
 10
8298.859436
 20
3750.846955
 30
0.0
 40
15.0
  0
LINE
  8
ITTEN
 10
8298.859436
 20
3775.846955
 30
0.0
 11
8298.859436
 21
3725.846955
 31
0.0
  0
LINE
  8
ITTEN
 10
8273.859436
 20
3750.846955
 30
0.0
 11
8323.859436
 21
3750.846955
 31
0.0
  0
LINE
  8
SUNPOU
 10
8601.003993
 20
5850.846955
 30
0.0
 11
8869.310578
 21
5850.846955
 31
0.0
  0
LINE
  8
SUNPOU
 10
8696.691688
 20
6000.846955
 30
0.0
 11
8869.310578
 21
6000.846955
 31
0.0
  0
LINE
  8
SUNPOU
 10
8849.310578
 20
5850.846955
 30
0.0
 11
8849.310578
 21
6000.846955
 31
0.0
  0
INSERT
  8
SUNPOU
  2
ARROWANG
 10
8849.310578
 20
5850.846955
 30
0.0
 41
30.0
 42
30.0
 50
270.0
 43
30.0
  0
INSERT
  8
SUNPOU
  2
ARROWANG
 10
8849.310578
 20
6000.846955
 30
0.0
 41
30.0
 42
30.0
 50
90.0
 43
30.0
  0
TEXT
  8
SUNPOU
 10
8819.310578
 20
5835.846955
 30
0.0
 40
60.0
  1
150
 50
90.0
  7
K
 72
     1
 11
8819.310578
 21
5925.846955
 31
0.0
  0
LINE
  8
SUNPOU
 10
8696.691688
 20
3600.846955
 30
0.0
 11
8891.547141
 21
3600.846955
 31
0.0
  0
LINE
  8
SUNPOU
 10
8318.859436
 20
3750.846955
 30
0.0
 11
8891.547141
 21
3750.846955
 31
0.0
  0
LINE
  8
SUNPOU
 10
8871.547141
 20
3600.846955
 30
0.0
 11
8871.547141
 21
3750.846955
 31
0.0
  0
INSERT
  8
SUNPOU
  2
ARROWANG
 10
8871.547141
 20
3600.846955
 30
0.0
 41
30.0
 42
30.0
 50
270.0
 43
30.0
  0
INSERT
  8
SUNPOU
  2
ARROWANG
 10
8871.547141
 20
3750.846955
 30
0.0
 41
30.0
 42
30.0
 50
90.0
 43
30.0
  0
TEXT
  8
SUNPOU
 10
8841.547141
 20
3585.846955
 30
0.0
 40
60.0
  1
150
 50
90.0
  7
K
 72
     1
 11
8841.547141
 21
3675.846955
 31
0.0
  0
LINE
  8
JISSEN
 10
7386.691688
 20
4340.846955
 30
0.0
 11
7576.691688
 21
4340.846955
 31
0.0
  0
ARC
  8
JISSEN
 10
7576.691688
 20
4330.846955
 30
0.0
 40
10.0
 50
270.0
 51
90.0
  0
LINE
  8
JISSEN
 10
7386.691688
 20
4320.846955
 30
0.0
 11
7576.691688
 21
4320.846955
 31
0.0
  0
LINE
  8
JISSEN
 10
7386.691688
 20
4340.846955
 30
0.0
 11
7196.691688
 21
4340.846955
 31
0.0
  0
LINE
  8
JISSEN
 10
7386.691688
 20
4320.846955
 30
0.0
 11
7196.691688
 21
4320.846955
 31
0.0
  0
ARC
  8
JISSEN
 10
7196.691688
 20
4330.846955
 30
0.0
 40
10.0
 50
90.0
 51
270.0
  0
LINE
  8
ITTEN
 10
7136.691688
 20
4330.846955
 30
0.0
 11
7636.691688
 21
4330.846955
 31
0.0
  0
LINE
  8
SUNPOU
 10
7656.691688
 20
4330.846955
 30
0.0
 11
7845.370169
 21
4330.846955
 31
0.0
  0
INSERT
  8
SUNPOU
  2
ARROWANG
 10
7825.370169
 20
4330.846955
 30
0.0
 41
30.0
 42
30.0
 50
90.0
 43
30.0
  0
INSERT
  8
SUNPOU
  2
ARROWANG
 10
7825.370169
 20
4330.846955
 30
0.0
 41
30.0
 42
30.0
 50
270.0
 43
30.0
  0
TEXT
  8
SUNPOU
 10
7795.370169
 20
4395.13267
 30
0.0
 40
60.0
  1
300
 50
90.0
  7
K
 72
     1
 11
7795.370169
 21
4480.846955
 31
0.0
  0
TEXT
  8
TEXT
 10
1666.06178
 20
3509.813782
 30
0.0
 40
120.0
  1
M5S210
  7
K
  0
TEXT
  8
TEXT
 10
8733.575316
 20
3346.814136
 30
0.0
 40
120.0
  1
M5S240
  7
K
  0
POLYLINE
  8
WAKU
 66
     1
 10
0.0
 20
0.0
 30
0.0
 70
     1
  0
VERTEX
  8
WAKU
 10
0.0
 20
0.0
 30
0.0
  0
VERTEX
  8
WAKU
 10
9875.0
 20
0.0
 30
0.0
  0
VERTEX
  8
WAKU
 10
9875.0
 20
6825.0
 30
0.0
  0
VERTEX
  8
WAKU
 10
0.0
 20
6825.0
 30
0.0
  0
SEQEND
  8
WAKU
  0
TEXT
  8
TEXT
 10
21.260959
 20
6223.825357
 30
0.0
 40
200.0
  1
（内径２２００ｍｍ）
  7
K
  0
TEXT
  8
TEXT
 10
9268.496657
 20
705.816375
 30
0.0
 40
120.0
  1
1/25
  7
K
  0
ENDSEC
  0
EOF
