  0
SECTION
  2
HEADER
  9
$ACADVER
  1
AC1009
  9
$INSBASE
 10
0.0
 20
0.0
 30
0.0
  9
$EXTMIN
 10
0.0
 20
0.0
 30
0.0
  9
$EXTMAX
 10
7900.0
 20
5460.0
 30
0.0
  9
$LIMMIN
 10
0.0
 20
0.0
  9
$LIMMAX
 10
7900.0
 20
5460.0
  9
$ORTHOMODE
 70
     0
  9
$REGENMODE
 70
     1
  9
$FILLMODE
 70
     1
  9
$QTEXTMODE
 70
     0
  9
$MIRRTEXT
 70
     0
  9
$DRAGMODE
 70
     2
  9
$LTSCALE
 40
100.0
  9
$OSMODE
 70
    33
  9
$ATTMODE
 70
     1
  9
$TEXTSIZE
 40
45.0
  9
$TRACEWID
 40
0.05
  9
$TEXTSTYLE
  7
K
  9
$CLAYER
  8
SUNPOU
  9
$CELTYPE
  6
BYLAYER
  9
$CECOLOR
 62
   256
  9
$DIMSCALE
 40
20.0
  9
$DIMASZ
 40
1.5
  9
$DIMEXO
 40
1.0
  9
$DIMDLI
 40
6.0
  9
$DIMRND
 40
0.0
  9
$DIMDLE
 40
0.0
  9
$DIMEXE
 40
1.0
  9
$DIMTP
 40
495.0
  9
$DIMTM
 40
0.0
  9
$DIMTXT
 40
3.0
  9
$DIMCEN
 40
0.0
  9
$DIMTSZ
 40
0.0
  9
$DIMTOL
 70
     0
  9
$DIMLIM
 70
     0
  9
$DIMTIH
 70
     0
  9
$DIMTOH
 70
     0
  9
$DIMSE1
 70
     0
  9
$DIMSE2
 70
     0
  9
$DIMTAD
 70
     1
  9
$DIMZIN
 70
     8
  9
$DIMBLK
  1
ARROW
  9
$DIMASO
 70
     0
  9
$DIMSHO
 70
     0
  9
$DIMPOST
  1

  9
$DIMAPOST
  1

  9
$DIMALT
 70
     0
  9
$DIMALTD
 70
     2
  9
$DIMALTF
 40
25.4
  9
$DIMLFAC
 40
1.0
  9
$DIMTOFL
 70
     1
  9
$DIMTVP
 40
0.0
  9
$DIMTIX
 70
     1
  9
$DIMSOXD
 70
     0
  9
$DIMSAH
 70
     0
  9
$DIMBLK1
  1

  9
$DIMBLK2
  1

  9
$DIMSTYLE
  2
*UNNAMED
  9
$DIMCLRD
 70
     0
  9
$DIMCLRE
 70
     0
  9
$DIMCLRT
 70
     0
  9
$DIMTFAC
 40
1.0
  9
$DIMGAP
 40
0.09
  9
$LUNITS
 70
     2
  9
$LUPREC
 70
     2
  9
$AXISMODE
 70
     0
  9
$AXISUNIT
 10
100.0
 20
100.0
  9
$SKETCHINC
 40
0.1
  9
$FILLETRAD
 40
300.0
  9
$AUNITS
 70
     0
  9
$AUPREC
 70
     2
  9
$MENU
  1
G:STDGX5
  9
$ELEVATION
 40
0.0
  9
$PELEVATION
 40
0.0
  9
$THICKNESS
 40
0.0
  9
$LIMCHECK
 70
     0
  9
$BLIPMODE
 70
     1
  9
$CHAMFERA
 40
0.0
  9
$CHAMFERB
 40
0.0
  9
$SKPOLY
 70
     0
  9
$TDCREATE
 40
2450249.496226851
  9
$TDUPDATE
 40
2450249.500624999
  9
$TDINDWG
 40
0.0017939815
  9
$TDUSRTIMER
 40
0.0017939815
  9
$USRTIMER
 70
     1
  9
$ANGBASE
 50
0.0
  9
$ANGDIR
 70
     0
  9
$PDMODE
 70
     0
  9
$PDSIZE
 40
0.0
  9
$PLINEWID
 40
0.0
  9
$COORDS
 70
     2
  9
$SPLFRAME
 70
     0
  9
$SPLINETYPE
 70
     6
  9
$SPLINESEGS
 70
     8
  9
$ATTDIA
 70
     0
  9
$ATTREQ
 70
     1
  9
$HANDLING
 70
     0
  9
$HANDSEED
  5
0
  9
$SURFTAB1
 70
     6
  9
$SURFTAB2
 70
     6
  9
$SURFTYPE
 70
     6
  9
$SURFU
 70
     6
  9
$SURFV
 70
     6
  9
$UCSNAME
  2

  9
$UCSORG
 10
0.0
 20
0.0
 30
0.0
  9
$UCSXDIR
 10
1.0
 20
0.0
 30
0.0
  9
$UCSYDIR
 10
0.0
 20
1.0
 30
0.0
  9
$PUCSNAME
  2

  9
$PUCSORG
 10
0.0
 20
0.0
 30
0.0
  9
$PUCSXDIR
 10
1.0
 20
0.0
 30
0.0
  9
$PUCSYDIR
 10
0.0
 20
1.0
 30
0.0
  9
$USERI1
 70
     3
  9
$USERI2
 70
    33
  9
$USERI3
 70
     0
  9
$USERI4
 70
     1
  9
$USERI5
 70
     0
  9
$USERR1
 40
20.0
  9
$USERR2
 40
3.0
  9
$USERR3
 40
3.0
  9
$USERR4
 40
1.5
  9
$USERR5
 40
10.0
  9
$WORLDVIEW
 70
     1
  9
$SHADEDGE
 70
     3
  9
$SHADEDIF
 70
    70
  9
$TILEMODE
 70
     1
  9
$MAXACTVP
 70
    16
  9
$PINSBASE
 10
0.0
 20
0.0
 30
0.0
  9
$PLIMCHECK
 70
     0
  9
$PEXTMIN
 10
1.000000E+20
 20
1.000000E+20
 30
1.000000E+20
  9
$PEXTMAX
 10
-1.000000E+20
 20
-1.000000E+20
 30
-1.000000E+20
  9
$PLIMMIN
 10
0.0
 20
0.0
  9
$PLIMMAX
 10
12.0
 20
9.0
  9
$UNITMODE
 70
     0
  9
$VISRETAIN
 70
     0
  0
ENDSEC
  0
SECTION
  2
TABLES
  0
TABLE
  2
VPORT
 70
    10
  0
VPORT
  2
*ACTIVE
 70
     0
 10
0.0
 20
0.0
 11
1.0
 21
1.0
 12
4461.010491
 22
2730.0
 13
0.0
 23
0.0
 14
1.0
 24
1.0
 15
10.0
 25
10.0
 16
0.0
 26
0.0
 36
1.0
 17
0.0
 27
0.0
 37
0.0
 40
5460.0
 41
1.63407
 42
50.0
 43
0.0
 44
0.0
 50
0.0
 51
0.0
 71
     0
 72
   500
 73
     1
 74
     0
 75
     0
 76
     0
 77
     0
 78
     0
  0
VPORT
  2
2
 70
     0
 10
0.5
 20
0.0
 11
1.0
 21
1.0
 12
0.924031
 22
1.052651
 13
0.0
 23
0.0
 14
1.0
 24
1.0
 15
10.0
 25
10.0
 16
0.0
 26
0.0
 36
1.0
 17
0.0
 27
0.0
 37
0.0
 40
2.105302
 41
0.877814
 42
50.0
 43
0.0
 44
0.0
 50
0.0
 51
0.0
 71
     0
 72
   500
 73
     1
 74
     1
 75
     0
 76
     0
 77
     0
 78
     0
  0
VPORT
  2
2
 70
     0
 10
0.0
 20
0.0
 11
0.5
 21
1.0
 12
0.924031
 22
1.052651
 13
0.0
 23
0.0
 14
1.0
 24
1.0
 15
10.0
 25
10.0
 16
0.0
 26
0.0
 36
1.0
 17
0.0
 27
0.0
 37
0.0
 40
2.105302
 41
0.877814
 42
50.0
 43
0.0
 44
0.0
 50
0.0
 51
0.0
 71
     0
 72
   500
 73
     1
 74
     1
 75
     0
 76
     0
 77
     0
 78
     0
  0
VPORT
  2
3
 70
     0
 10
0.0
 20
0.5
 11
1.0
 21
1.0
 12
2.83217
 22
1.052651
 13
0.0
 23
0.0
 14
1.0
 24
1.0
 15
10.0
 25
10.0
 16
0.0
 26
0.0
 36
1.0
 17
0.0
 27
0.0
 37
0.0
 40
2.105302
 41
3.571429
 42
50.0
 43
0.0
 44
0.0
 50
0.0
 51
0.0
 71
     0
 72
   500
 73
     1
 74
     1
 75
     0
 76
     0
 77
     0
 78
     0
  0
VPORT
  2
3
 70
     0
 10
0.0
 20
0.0
 11
1.0
 21
0.5
 12
2.856742
 22
1.052651
 13
0.0
 23
0.0
 14
1.0
 24
1.0
 15
10.0
 25
10.0
 16
0.0
 26
0.0
 36
1.0
 17
0.0
 27
0.0
 37
0.0
 40
2.105302
 41
3.594771
 42
50.0
 43
0.0
 44
0.0
 50
0.0
 51
0.0
 71
     0
 72
   500
 73
     1
 74
     1
 75
     0
 76
     0
 77
     0
 78
     0
  0
VPORT
  2
4
 70
     0
 10
0.5
 20
0.0
 11
1.0
 21
0.5
 12
2.886858
 22
1.052651
 13
0.0
 23
0.0
 14
1.0
 24
1.0
 15
10.0
 25
10.0
 16
0.0
 26
0.0
 36
1.0
 17
0.0
 27
0.0
 37
0.0
 40
4.275207
 41
1.784314
 42
50.0
 43
0.0
 44
0.0
 50
0.0
 51
0.0
 71
     0
 72
   500
 73
     1
 74
     1
 75
     0
 76
     0
 77
     0
 78
     0
  0
VPORT
  2
4
 70
     0
 10
0.5
 20
0.5
 11
1.0
 21
1.0
 12
2.86209
 22
1.052651
 13
0.0
 23
0.0
 14
1.0
 24
1.0
 15
10.0
 25
10.0
 16
0.0
 26
0.0
 36
1.0
 17
0.0
 27
0.0
 37
0.0
 40
4.275207
 41
1.772727
 42
50.0
 43
0.0
 44
0.0
 50
0.0
 51
0.0
 71
     0
 72
   500
 73
     1
 74
     1
 75
     0
 76
     0
 77
     0
 78
     0
  0
VPORT
  2
4
 70
     0
 10
0.0
 20
0.5
 11
0.5
 21
1.0
 12
2.86209
 22
1.052651
 13
0.0
 23
0.0
 14
1.0
 24
1.0
 15
10.0
 25
10.0
 16
0.0
 26
0.0
 36
1.0
 17
0.0
 27
0.0
 37
0.0
 40
4.275207
 41
1.772727
 42
50.0
 43
0.0
 44
0.0
 50
0.0
 51
0.0
 71
     0
 72
   500
 73
     1
 74
     1
 75
     0
 76
     0
 77
     0
 78
     0
  0
VPORT
  2
4
 70
     0
 10
0.0
 20
0.0
 11
0.5
 21
0.5
 12
2.886858
 22
1.052651
 13
0.0
 23
0.0
 14
1.0
 24
1.0
 15
10.0
 25
10.0
 16
0.0
 26
0.0
 36
1.0
 17
0.0
 27
0.0
 37
0.0
 40
4.275207
 41
1.784314
 42
50.0
 43
0.0
 44
0.0
 50
0.0
 51
0.0
 71
     0
 72
   500
 73
     1
 74
     1
 75
     0
 76
     0
 77
     0
 78
     0
  0
ENDTAB
  0
TABLE
  2
LTYPE
 70
     5
  0
LTYPE
  2
CONTINUOUS
 70
    64
  3
実線
 72
    65
 73
     0
 40
0.0
  0
LTYPE
  2
DASHED
 70
    64
  3
__ __ __ __ __ __ __ __ __ __ __ __ __ __ __
 72
    65
 73
     2
 40
0.75
 49
0.5
 49
-0.25
  0
LTYPE
  2
CENTER
 70
    64
  3
____ _ ____ _ ____ _ ____ _ ____ _ ____ _ ____
 72
    65
 73
     4
 40
2.0
 49
1.25
 49
-0.25
 49
0.25
 49
-0.25
  0
LTYPE
  2
PHANTOM
 70
    64
  3
_____ _ _ _____ _ _ _____ _ _ _____ _ _ ____
 72
    65
 73
     6
 40
2.5
 49
1.25
 49
-0.25
 49
0.25
 49
-0.25
 49
0.25
 49
-0.25
  0
LTYPE
  2
HIDDEN
 70
    64
  3
_ _ _ _ _ _ _ _ _ _ _ _ _ _ _ _ _ _ _ _ _ _ _
 72
    65
 73
     2
 40
0.375
 49
0.25
 49
-0.125
  0
ENDTAB
  0
TABLE
  2
LAYER
 70
    14
  0
LAYER
  2
0
 70
     0
 62
     7
  6
CONTINUOUS
  0
LAYER
  2
ITTEN
 70
    64
 62
     1
  6
CENTER
  0
LAYER
  2
SUNPOU
 70
    64
 62
     3
  6
CONTINUOUS
  0
LAYER
  2
TEXT
 70
    64
 62
     3
  6
CONTINUOUS
  0
LAYER
  2
JISSEN
 70
    64
 62
     7
  6
CONTINUOUS
  0
LAYER
  2
TENSEN
 70
    64
 62
     2
  6
HIDDEN
  0
LAYER
  2
WAKU
 70
    64
 62
    -5
  6
CONTINUOUS
  0
ENDTAB
  0
TABLE
  2
STYLE
 70
     2
  0
STYLE
  2
STANDARD
 70
     0
 40
0.0
 41
1.0
 50
0.0
 71
     0
 42
0.2
  3
ROMANS
  4
EXTFONT
  0
STYLE
  2
K
 70
    64
 40
0.0
 41
1.0
 50
0.0
 71
     0
 42
45.0
  3
ROMANS
  4
EXTFONT
  0
ENDTAB
  0
TABLE
  2
VIEW
 70
     0
  0
ENDTAB
  0
TABLE
  2
UCS
 70
     0
  0
ENDTAB
  0
TABLE
  2
APPID
 70
     1
  0
APPID
  2
ACAD
 70
    64
  0
ENDTAB
  0
TABLE
  2
DIMSTYLE
 70
     0
  0
ENDTAB
  0
ENDSEC
  0
SECTION
  2
BLOCKS
  0
BLOCK
  8
SUNPOU
  2
ARROWANG
 70
    64
 10
0.0
 20
0.0
 30
0.0
  3
ARROWANG
  0
LINE
  8
SUNPOU
 10
0.0
 20
0.0
 30
0.0
 11
-1.5
 21
0.401924
 31
0.0
  0
LINE
  8
SUNPOU
 10
0.0
 20
0.0
 30
0.0
 11
-1.5
 21
-0.401924
 31
0.0
  0
ENDBLK
  8
SUNPOU
  0
ENDSEC
  0
SECTION
  2
ENTITIES
  0
TEXT
  8
SUNPOU
 10
4406.292188
 20
2775.706193
 30
0.0
 40
45.0
  1
592
 50
90.0
  7
K
 72
     1
 11
4406.292188
 21
2839.991907
 31
0.0
  0
INSERT
  8
SUNPOU
  2
ARROWANG
 10
4421.056108
 20
3137.533869
 30
0.0
 41
30.0
 42
30.0
 50
90.0
 43
30.0
  0
INSERT
  8
SUNPOU
  2
ARROWANG
 10
4421.056108
 20
2545.533869
 30
0.0
 41
30.0
 42
30.0
 50
270.0
 43
30.0
  0
LINE
  8
SUNPOU
 10
4421.056108
 20
2545.533869
 30
0.0
 11
4421.056108
 21
3137.533869
 31
0.0
  0
LINE
  8
SUNPOU
 10
4391.056108
 20
3137.533869
 30
0.0
 11
4391.056108
 21
3137.533869
 31
0.0
  0
LINE
  8
SUNPOU
 10
4391.056108
 20
2545.533869
 30
0.0
 11
4391.056108
 21
2545.533869
 31
0.0
  0
TEXT
  8
SUNPOU
 10
3901.056108
 20
2795.176726
 30
0.0
 40
45.0
  1
600
 50
90.0
  7
K
 72
     1
 11
3901.056108
 21
2860.533869
 31
0.0
  0
INSERT
  8
SUNPOU
  2
ARROWANG
 10
3946.056108
 20
3160.533869
 30
0.0
 41
30.0
 42
30.0
 50
90.0
 43
30.0
  0
INSERT
  8
SUNPOU
  2
ARROWANG
 10
3946.056108
 20
2560.533869
 30
0.0
 41
30.0
 42
30.0
 50
270.0
 43
30.0
  0
LINE
  8
SUNPOU
 10
3946.056108
 20
2560.533869
 30
0.0
 11
3946.056108
 21
3160.533869
 31
0.0
  0
LINE
  8
SUNPOU
 10
3916.056108
 20
3160.533869
 30
0.0
 11
3916.056108
 21
3160.533869
 31
0.0
  0
LINE
  8
SUNPOU
 10
3916.056108
 20
2560.533869
 30
0.0
 11
3916.056108
 21
2560.533869
 31
0.0
  0
LINE
  8
JISSEN
 10
4246.056108
 20
3160.533869
 30
0.0
 11
4286.056108
 21
3160.533869
 31
0.0
  0
LINE
  8
JISSEN
 10
4286.056108
 20
3160.533869
 30
0.0
 11
4293.056108
 21
3137.533869
 31
0.0
  0
LINE
  8
JISSEN
 10
4293.056108
 20
3137.533869
 30
0.0
 11
4321.056108
 21
3137.533869
 31
0.0
  0
LINE
  8
JISSEN
 10
4246.056108
 20
3160.533869
 30
0.0
 11
4246.056108
 21
2560.533869
 31
0.0
  0
LINE
  8
JISSEN
 10
4246.056108
 20
2560.533869
 30
0.0
 11
4287.056108
 21
2560.533869
 31
0.0
  0
LINE
  8
JISSEN
 10
4287.056108
 20
2560.533869
 30
0.0
 11
4296.056108
 21
2545.533869
 31
0.0
  0
LINE
  8
JISSEN
 10
4296.056108
 20
2545.533869
 30
0.0
 11
4321.056108
 21
2545.533869
 31
0.0
  0
LINE
  8
JISSEN
 10
4321.056108
 20
3137.533869
 30
0.0
 11
4321.056108
 21
2545.533869
 31
0.0
  0
LINE
  8
JISSEN
 10
4321.056108
 20
3137.533869
 30
0.0
 11
4621.056108
 21
3137.533869
 31
0.0
  0
LINE
  8
JISSEN
 10
4321.056108
 20
2545.533869
 30
0.0
 11
4621.056108
 21
2545.533869
 31
0.0
  0
LINE
  8
TENSEN
 10
4287.056108
 20
2560.533869
 30
0.0
 11
4621.056108
 21
2560.533869
 31
0.0
  0
LINE
  8
JISSEN
 10
4286.056108
 20
3160.533869
 30
0.0
 11
4621.056108
 21
3160.533869
 31
0.0
  0
LINE
  8
JISSEN
 10
4956.056108
 20
3160.533869
 30
0.0
 11
4621.056108
 21
3160.533869
 31
0.0
  0
LINE
  8
JISSEN
 10
4955.056108
 20
2560.533869
 30
0.0
 11
4621.056108
 21
2560.533869
 31
0.0
  0
LINE
  8
JISSEN
 10
4921.056108
 20
2545.533869
 30
0.0
 11
4621.056108
 21
2545.533869
 31
0.0
  0
LINE
  8
TENSEN
 10
4921.056108
 20
3137.533869
 30
0.0
 11
4621.056108
 21
3137.533869
 31
0.0
  0
LINE
  8
TENSEN
 10
4921.056108
 20
3137.533869
 30
0.0
 11
4921.056108
 21
2545.533869
 31
0.0
  0
LINE
  8
JISSEN
 10
4946.056108
 20
2545.533869
 30
0.0
 11
4921.056108
 21
2545.533869
 31
0.0
  0
LINE
  8
JISSEN
 10
4955.056108
 20
2560.533869
 30
0.0
 11
4946.056108
 21
2545.533869
 31
0.0
  0
LINE
  8
JISSEN
 10
4996.056108
 20
2560.533869
 30
0.0
 11
4955.056108
 21
2560.533869
 31
0.0
  0
LINE
  8
JISSEN
 10
4996.056108
 20
3160.533869
 30
0.0
 11
4996.056108
 21
2560.533869
 31
0.0
  0
LINE
  8
TENSEN
 10
4949.056108
 20
3137.533869
 30
0.0
 11
4921.056108
 21
3137.533869
 31
0.0
  0
LINE
  8
TENSEN
 10
4956.056108
 20
3160.533869
 30
0.0
 11
4949.056108
 21
3137.533869
 31
0.0
  0
LINE
  8
JISSEN
 10
4996.056108
 20
3160.533869
 30
0.0
 11
4956.056108
 21
3160.533869
 31
0.0
  0
LINE
  8
ITTEN
 10
4621.056108
 20
3260.533869
 30
0.0
 11
4621.056108
 21
2494.756519
 31
0.0
  0
LINE
  8
ITTEN
 10
4913.721151
 20
3060.533869
 30
0.0
 11
4858.721151
 21
3060.533869
 31
0.0
  0
LINE
  8
ITTEN
 10
4886.221151
 20
3088.033869
 30
0.0
 11
4886.221151
 21
3033.033869
 31
0.0
  0
CIRCLE
  8
JISSEN
 10
4886.221151
 20
3060.533869
 30
0.0
 40
7.5
  0
CIRCLE
  8
TENSEN
 10
4355.891065
 20
3060.533869
 30
0.0
 40
7.5
  0
LINE
  8
ITTEN
 10
4355.891065
 20
3088.033869
 30
0.0
 11
4355.891065
 21
3033.033869
 31
0.0
  0
LINE
  8
ITTEN
 10
4328.391065
 20
3060.533869
 30
0.0
 11
4383.391065
 21
3060.533869
 31
0.0
  0
LINE
  8
ITTEN
 10
4328.391065
 20
2645.533869
 30
0.0
 11
4383.391065
 21
2645.533869
 31
0.0
  0
LINE
  8
ITTEN
 10
4355.891065
 20
2673.033869
 30
0.0
 11
4355.891065
 21
2618.033869
 31
0.0
  0
CIRCLE
  8
TENSEN
 10
4355.891065
 20
2645.533869
 30
0.0
 40
7.5
  0
LINE
  8
SUNPOU
 10
4246.056108
 20
3190.533869
 30
0.0
 11
4246.056108
 21
3640.533869
 31
0.0
  0
LINE
  8
SUNPOU
 10
4321.056108
 20
3167.533869
 30
0.0
 11
4321.056108
 21
3640.533869
 31
0.0
  0
LINE
  8
SUNPOU
 10
4246.056108
 20
3610.533869
 30
0.0
 11
4321.056108
 21
3610.533869
 31
0.0
  0
INSERT
  8
SUNPOU
  2
ARROWANG
 10
4321.056108
 20
3610.533869
 30
0.0
 41
30.0
 42
30.0
 50
180.0
 43
30.0
  0
INSERT
  8
SUNPOU
  2
ARROWANG
 10
4246.056108
 20
3610.533869
 30
0.0
 41
30.0
 42
30.0
 43
30.0
  0
TEXT
  8
SUNPOU
 10
4240.69898
 20
3655.533869
 30
0.0
 40
45.0
  1
75
  7
K
 72
     1
 11
4283.556123
 21
3655.533869
 31
0.0
  0
LINE
  8
SUNPOU
 10
4321.056108
 20
3610.533869
 30
0.0
 11
4381.056108
 21
3610.533869
 31
0.0
  0
LINE
  8
SUNPOU
 10
4246.056108
 20
3610.533869
 30
0.0
 11
4186.056108
 21
3610.533869
 31
0.0
  0
LINE
  8
SUNPOU
 10
4321.056108
 20
3580.533869
 30
0.0
 11
4321.056108
 21
3580.533869
 31
0.0
  0
LINE
  8
SUNPOU
 10
4921.056108
 20
3167.533869
 30
0.0
 11
4921.056108
 21
3640.533869
 31
0.0
  0
LINE
  8
SUNPOU
 10
4321.056108
 20
3610.533869
 30
0.0
 11
4921.056108
 21
3610.533869
 31
0.0
  0
INSERT
  8
SUNPOU
  2
ARROWANG
 10
4321.056108
 20
3610.533869
 30
0.0
 41
30.0
 42
30.0
 50
180.0
 43
30.0
  0
INSERT
  8
SUNPOU
  2
ARROWANG
 10
4921.056108
 20
3610.533869
 30
0.0
 41
30.0
 42
30.0
 43
30.0
  0
TEXT
  8
SUNPOU
 10
4539.627551
 20
3655.533869
 30
0.0
 40
45.0
  1
%%C600
  7
K
 72
     1
 11
4621.056123
 21
3655.533869
 31
0.0
  0
LINE
  8
SUNPOU
 10
4921.056108
 20
3640.533869
 30
0.0
 11
4921.056108
 21
3640.533869
 31
0.0
  0
LINE
  8
SUNPOU
 10
4996.056108
 20
3190.533869
 30
0.0
 11
4996.056108
 21
3640.533869
 31
0.0
  0
LINE
  8
SUNPOU
 10
4921.056108
 20
3610.533869
 30
0.0
 11
4996.056108
 21
3610.533869
 31
0.0
  0
INSERT
  8
SUNPOU
  2
ARROWANG
 10
4996.056108
 20
3610.533869
 30
0.0
 41
30.0
 42
30.0
 50
180.0
 43
30.0
  0
INSERT
  8
SUNPOU
  2
ARROWANG
 10
4921.056108
 20
3610.533869
 30
0.0
 41
30.0
 42
30.0
 43
30.0
  0
TEXT
  8
SUNPOU
 10
4915.69898
 20
3655.533869
 30
0.0
 40
45.0
  1
75
  7
K
 72
     1
 11
4958.556123
 21
3655.533869
 31
0.0
  0
LINE
  8
SUNPOU
 10
4996.056108
 20
3610.533869
 30
0.0
 11
5056.056108
 21
3610.533869
 31
0.0
  0
LINE
  8
SUNPOU
 10
4921.056108
 20
3610.533869
 30
0.0
 11
4861.056108
 21
3610.533869
 31
0.0
  0
LINE
  8
SUNPOU
 10
4286.056108
 20
3190.533869
 30
0.0
 11
4286.056108
 21
3490.533869
 31
0.0
  0
LINE
  8
SUNPOU
 10
4956.056108
 20
3190.533869
 30
0.0
 11
4956.056108
 21
3490.533869
 31
0.0
  0
LINE
  8
SUNPOU
 10
4286.056108
 20
3430.533869
 30
0.0
 11
4286.056108
 21
3430.533869
 31
0.0
  0
LINE
  8
SUNPOU
 10
4956.056108
 20
3430.533869
 30
0.0
 11
4956.056108
 21
3430.533869
 31
0.0
  0
LINE
  8
SUNPOU
 10
4286.056108
 20
3460.533869
 30
0.0
 11
4956.056108
 21
3460.533869
 31
0.0
  0
INSERT
  8
SUNPOU
  2
ARROWANG
 10
4286.056108
 20
3460.533869
 30
0.0
 41
30.0
 42
30.0
 50
180.0
 43
30.0
  0
INSERT
  8
SUNPOU
  2
ARROWANG
 10
4956.056108
 20
3460.533869
 30
0.0
 41
30.0
 42
30.0
 43
30.0
  0
TEXT
  8
SUNPOU
 10
4555.69898
 20
3505.533869
 30
0.0
 40
45.0
  1
670
  7
K
 72
     1
 11
4621.056123
 21
3505.533869
 31
0.0
  0
LINE
  8
SUNPOU
 10
4293.056108
 20
3167.533869
 30
0.0
 11
4293.056108
 21
3340.533869
 31
0.0
  0
LINE
  8
SUNPOU
 10
4949.056108
 20
3167.533869
 30
0.0
 11
4949.056108
 21
3340.533869
 31
0.0
  0
LINE
  8
SUNPOU
 10
4293.056108
 20
3310.533869
 30
0.0
 11
4949.056108
 21
3310.533869
 31
0.0
  0
INSERT
  8
SUNPOU
  2
ARROWANG
 10
4293.056108
 20
3310.533869
 30
0.0
 41
30.0
 42
30.0
 50
180.0
 43
30.0
  0
INSERT
  8
SUNPOU
  2
ARROWANG
 10
4949.056108
 20
3310.533869
 30
0.0
 41
30.0
 42
30.0
 43
30.0
  0
TEXT
  8
SUNPOU
 10
4555.69898
 20
3355.533869
 30
0.0
 40
45.0
  1
656
  7
K
 72
     1
 11
4621.056123
 21
3355.533869
 31
0.0
  0
LINE
  8
SUNPOU
 10
4216.056108
 20
2560.533869
 30
0.0
 11
3916.056108
 21
2560.533869
 31
0.0
  0
LINE
  8
SUNPOU
 10
4216.056108
 20
3160.533869
 30
0.0
 11
3916.056108
 21
3160.533869
 31
0.0
  0
LINE
  8
SUNPOU
 10
4263.056108
 20
3137.533869
 30
0.0
 11
4066.056108
 21
3137.533869
 31
0.0
  0
LINE
  8
SUNPOU
 10
4126.056108
 20
3160.533869
 30
0.0
 11
4126.056108
 21
3160.533869
 31
0.0
  0
LINE
  8
SUNPOU
 10
4096.056108
 20
3137.533869
 30
0.0
 11
4096.056108
 21
3160.533869
 31
0.0
  0
INSERT
  8
SUNPOU
  2
ARROWANG
 10
4096.056108
 20
3137.533869
 30
0.0
 41
30.0
 42
30.0
 50
90.0
 43
30.0
  0
INSERT
  8
SUNPOU
  2
ARROWANG
 10
4096.056108
 20
3160.533869
 30
0.0
 41
30.0
 42
30.0
 50
270.0
 43
30.0
  0
LINE
  8
SUNPOU
 10
4096.056108
 20
3137.533869
 30
0.0
 11
4096.056108
 21
3038.533869
 31
0.0
  0
LINE
  8
SUNPOU
 10
4096.056108
 20
3160.533869
 30
0.0
 11
4096.056108
 21
3220.533869
 31
0.0
  0
TEXT
  8
SUNPOU
 10
4051.056108
 20
3045.176726
 30
0.0
 40
45.0
  1
23
 50
90.0
  7
K
 72
     1
 11
4051.056108
 21
3088.033869
 31
0.0
  0
LINE
  8
SUNPOU
 10
4263.056108
 20
2545.533869
 30
0.0
 11
4066.056108
 21
2545.533869
 31
0.0
  0
LINE
  8
SUNPOU
 10
4126.056108
 20
2560.533869
 30
0.0
 11
4126.056108
 21
2560.533869
 31
0.0
  0
LINE
  8
SUNPOU
 10
4096.056108
 20
2545.533869
 30
0.0
 11
4096.056108
 21
2560.533869
 31
0.0
  0
INSERT
  8
SUNPOU
  2
ARROWANG
 10
4096.056108
 20
2545.533869
 30
0.0
 41
30.0
 42
30.0
 50
90.0
 43
30.0
  0
INSERT
  8
SUNPOU
  2
ARROWANG
 10
4096.056108
 20
2560.533869
 30
0.0
 41
30.0
 42
30.0
 50
270.0
 43
30.0
  0
LINE
  8
SUNPOU
 10
4096.056108
 20
2560.533869
 30
0.0
 11
4096.056108
 21
2659.533869
 31
0.0
  0
LINE
  8
SUNPOU
 10
4096.056108
 20
2545.533869
 30
0.0
 11
4096.056109
 21
2485.533869
 31
0.0
  0
TEXT
  8
SUNPOU
 10
4051.056108
 20
2563.96244
 30
0.0
 40
45.0
  1
15
 50
90.0
  7
K
 72
     1
 11
4051.056108
 21
2610.033869
 31
0.0
  0
LINE
  8
SUNPOU
 10
4916.221151
 20
3060.533869
 30
0.0
 11
5176.056108
 21
3060.533869
 31
0.0
  0
LINE
  8
SUNPOU
 10
5026.056108
 20
3160.533869
 30
0.0
 11
5176.056108
 21
3160.533869
 31
0.0
  0
LINE
  8
SUNPOU
 10
5146.056108
 20
3060.533869
 30
0.0
 11
5146.056108
 21
3160.533869
 31
0.0
  0
INSERT
  8
SUNPOU
  2
ARROWANG
 10
5146.056108
 20
3060.533869
 30
0.0
 41
30.0
 42
30.0
 50
90.0
 43
30.0
  0
INSERT
  8
SUNPOU
  2
ARROWANG
 10
5146.056108
 20
3160.533869
 30
0.0
 41
30.0
 42
30.0
 50
270.0
 43
30.0
  0
LINE
  8
SUNPOU
 10
5146.056108
 20
3060.533869
 30
0.0
 11
5146.056108
 21
2912.033869
 31
0.0
  0
LINE
  8
SUNPOU
 10
5146.056108
 20
3160.533869
 30
0.0
 11
5146.056108
 21
3220.533869
 31
0.0
  0
TEXT
  8
SUNPOU
 10
5101.056108
 20
2918.783869
 30
0.0
 40
45.0
  1
100
 50
90.0
  7
K
 72
     1
 11
5101.056108
 21
2986.283869
 31
0.0
  0
LINE
  8
SUNPOU
 10
4287.056108
 20
2530.533869
 30
0.0
 11
4287.056108
 21
2215.533869
 31
0.0
  0
LINE
  8
SUNPOU
 10
4955.056108
 20
2530.533869
 30
0.0
 11
4955.056108
 21
2215.533869
 31
0.0
  0
LINE
  8
SUNPOU
 10
4287.056108
 20
2245.533869
 30
0.0
 11
4955.056108
 21
2245.533869
 31
0.0
  0
INSERT
  8
SUNPOU
  2
ARROWANG
 10
4287.056108
 20
2245.533869
 30
0.0
 41
30.0
 42
30.0
 50
180.0
 43
30.0
  0
INSERT
  8
SUNPOU
  2
ARROWANG
 10
4955.056108
 20
2245.533869
 30
0.0
 41
30.0
 42
30.0
 43
30.0
  0
TEXT
  8
SUNPOU
 10
4555.69898
 20
2290.533869
 30
0.0
 40
45.0
  1
668
  7
K
 72
     1
 11
4621.056123
 21
2290.533869
 31
0.0
  0
LINE
  8
SUNPOU
 10
4296.056108
 20
2515.533869
 30
0.0
 11
4296.056108
 21
2365.533869
 31
0.0
  0
LINE
  8
SUNPOU
 10
4946.056108
 20
2515.533869
 30
0.0
 11
4946.056108
 21
2365.533869
 31
0.0
  0
LINE
  8
SUNPOU
 10
4296.056108
 20
2395.533869
 30
0.0
 11
4946.056108
 21
2395.533869
 31
0.0
  0
INSERT
  8
SUNPOU
  2
ARROWANG
 10
4296.056108
 20
2395.533869
 30
0.0
 41
30.0
 42
30.0
 50
180.0
 43
30.0
  0
INSERT
  8
SUNPOU
  2
ARROWANG
 10
4946.056108
 20
2395.533869
 30
0.0
 41
30.0
 42
30.0
 43
30.0
  0
TEXT
  8
SUNPOU
 10
4555.69898
 20
2440.533869
 30
0.0
 40
45.0
  1
650
  7
K
 72
     1
 11
4621.056123
 21
2440.533869
 31
0.0
  0
TEXT
  8
SUNPOU
 10
2607.132079
 20
2624.164231
 30
0.0
 40
45.0
  1
892
 50
90.0
  7
K
 72
     1
 11
2607.132079
 21
2688.449945
 31
0.0
  0
INSERT
  8
SUNPOU
  2
ARROWANG
 10
2621.056108
 20
3137.533869
 30
0.0
 41
30.0
 42
30.0
 50
90.0
 43
30.0
  0
INSERT
  8
SUNPOU
  2
ARROWANG
 10
2621.056108
 20
2245.533869
 30
0.0
 41
30.0
 42
30.0
 50
270.0
 43
30.0
  0
LINE
  8
SUNPOU
 10
2621.056108
 20
2245.533869
 30
0.0
 11
2621.056108
 21
3137.533869
 31
0.0
  0
LINE
  8
SUNPOU
 10
2591.056108
 20
3137.533869
 30
0.0
 11
2591.056108
 21
3137.533869
 31
0.0
  0
LINE
  8
SUNPOU
 10
2591.056108
 20
2245.533869
 30
0.0
 11
2591.056108
 21
2245.533869
 31
0.0
  0
TEXT
  8
SUNPOU
 10
2755.69898
 20
2140.533869
 30
0.0
 40
45.0
  1
650
  7
K
 72
     1
 11
2821.056123
 21
2140.533869
 31
0.0
  0
INSERT
  8
SUNPOU
  2
ARROWANG
 10
3146.056108
 20
2095.533869
 30
0.0
 41
30.0
 42
30.0
 43
30.0
  0
INSERT
  8
SUNPOU
  2
ARROWANG
 10
2496.056108
 20
2095.533869
 30
0.0
 41
30.0
 42
30.0
 50
180.0
 43
30.0
  0
LINE
  8
SUNPOU
 10
2496.056108
 20
2095.533869
 30
0.0
 11
3146.056108
 21
2095.533869
 31
0.0
  0
LINE
  8
SUNPOU
 10
3146.056108
 20
2215.533869
 30
0.0
 11
3146.056108
 21
2065.533869
 31
0.0
  0
LINE
  8
SUNPOU
 10
2496.056108
 20
2215.533869
 30
0.0
 11
2496.056108
 21
2065.533869
 31
0.0
  0
TEXT
  8
SUNPOU
 10
2755.69898
 20
1990.533869
 30
0.0
 40
45.0
  1
668
  7
K
 72
     1
 11
2821.056123
 21
1990.533869
 31
0.0
  0
INSERT
  8
SUNPOU
  2
ARROWANG
 10
3155.056108
 20
1945.533869
 30
0.0
 41
30.0
 42
30.0
 43
30.0
  0
INSERT
  8
SUNPOU
  2
ARROWANG
 10
2487.056108
 20
1945.533869
 30
0.0
 41
30.0
 42
30.0
 50
180.0
 43
30.0
  0
LINE
  8
SUNPOU
 10
2487.056108
 20
1945.533869
 30
0.0
 11
3155.056108
 21
1945.533869
 31
0.0
  0
LINE
  8
SUNPOU
 10
3155.056108
 20
2230.533869
 30
0.0
 11
3155.056108
 21
1915.533869
 31
0.0
  0
LINE
  8
SUNPOU
 10
2487.056108
 20
2230.533869
 30
0.0
 11
2487.056108
 21
1915.533869
 31
0.0
  0
TEXT
  8
SUNPOU
 10
3301.056108
 20
2918.783869
 30
0.0
 40
45.0
  1
100
 50
90.0
  7
K
 72
     1
 11
3301.056108
 21
2986.283869
 31
0.0
  0
LINE
  8
SUNPOU
 10
3346.056108
 20
3160.533869
 30
0.0
 11
3346.056108
 21
3220.533869
 31
0.0
  0
LINE
  8
SUNPOU
 10
3346.056108
 20
3060.533869
 30
0.0
 11
3346.056108
 21
2912.033869
 31
0.0
  0
INSERT
  8
SUNPOU
  2
ARROWANG
 10
3346.056108
 20
3160.533869
 30
0.0
 41
30.0
 42
30.0
 50
270.0
 43
30.0
  0
INSERT
  8
SUNPOU
  2
ARROWANG
 10
3346.056108
 20
3060.533869
 30
0.0
 41
30.0
 42
30.0
 50
90.0
 43
30.0
  0
LINE
  8
SUNPOU
 10
3346.056108
 20
3060.533869
 30
0.0
 11
3346.056108
 21
3160.533869
 31
0.0
  0
LINE
  8
SUNPOU
 10
3226.056108
 20
3160.533869
 30
0.0
 11
3376.056108
 21
3160.533869
 31
0.0
  0
LINE
  8
SUNPOU
 10
3116.221151
 20
3060.533869
 30
0.0
 11
3376.056108
 21
3060.533869
 31
0.0
  0
TEXT
  8
SUNPOU
 10
2251.056108
 20
2263.96244
 30
0.0
 40
45.0
  1
15
 50
90.0
  7
K
 72
     1
 11
2251.056108
 21
2310.033869
 31
0.0
  0
LINE
  8
SUNPOU
 10
2296.056108
 20
2245.533869
 30
0.0
 11
2296.056109
 21
2185.533869
 31
0.0
  0
LINE
  8
SUNPOU
 10
2296.056108
 20
2260.533869
 30
0.0
 11
2296.056108
 21
2359.533869
 31
0.0
  0
INSERT
  8
SUNPOU
  2
ARROWANG
 10
2296.056108
 20
2260.533869
 30
0.0
 41
30.0
 42
30.0
 50
270.0
 43
30.0
  0
INSERT
  8
SUNPOU
  2
ARROWANG
 10
2296.056108
 20
2245.533869
 30
0.0
 41
30.0
 42
30.0
 50
90.0
 43
30.0
  0
LINE
  8
SUNPOU
 10
2296.056108
 20
2245.533869
 30
0.0
 11
2296.056108
 21
2260.533869
 31
0.0
  0
LINE
  8
SUNPOU
 10
2326.056108
 20
2260.533869
 30
0.0
 11
2326.056108
 21
2260.533869
 31
0.0
  0
LINE
  8
SUNPOU
 10
2463.056108
 20
2245.533869
 30
0.0
 11
2266.056108
 21
2245.533869
 31
0.0
  0
TEXT
  8
SUNPOU
 10
2251.056108
 20
3045.176726
 30
0.0
 40
45.0
  1
23
 50
90.0
  7
K
 72
     1
 11
2251.056108
 21
3088.033869
 31
0.0
  0
LINE
  8
SUNPOU
 10
2296.056108
 20
3160.533869
 30
0.0
 11
2296.056108
 21
3220.533869
 31
0.0
  0
LINE
  8
SUNPOU
 10
2296.056108
 20
3137.533869
 30
0.0
 11
2296.056108
 21
3038.533869
 31
0.0
  0
INSERT
  8
SUNPOU
  2
ARROWANG
 10
2296.056108
 20
3160.533869
 30
0.0
 41
30.0
 42
30.0
 50
270.0
 43
30.0
  0
INSERT
  8
SUNPOU
  2
ARROWANG
 10
2296.056108
 20
3137.533869
 30
0.0
 41
30.0
 42
30.0
 50
90.0
 43
30.0
  0
LINE
  8
SUNPOU
 10
2296.056108
 20
3137.533869
 30
0.0
 11
2296.056108
 21
3160.533869
 31
0.0
  0
LINE
  8
SUNPOU
 10
2326.056108
 20
3160.533869
 30
0.0
 11
2326.056108
 21
3160.533869
 31
0.0
  0
LINE
  8
SUNPOU
 10
2463.056108
 20
3137.533869
 30
0.0
 11
2266.056108
 21
3137.533869
 31
0.0
  0
TEXT
  8
SUNPOU
 10
2101.056108
 20
2646.248155
 30
0.0
 40
45.0
  1
900
 50
90.0
  7
K
 72
     1
 11
2101.056108
 21
2710.533869
 31
0.0
  0
INSERT
  8
SUNPOU
  2
ARROWANG
 10
2146.056108
 20
3160.533869
 30
0.0
 41
30.0
 42
30.0
 50
90.0
 43
30.0
  0
INSERT
  8
SUNPOU
  2
ARROWANG
 10
2146.056108
 20
2260.533869
 30
0.0
 41
30.0
 42
30.0
 50
270.0
 43
30.0
  0
LINE
  8
SUNPOU
 10
2146.056108
 20
2260.533869
 30
0.0
 11
2146.056108
 21
3160.533869
 31
0.0
  0
LINE
  8
SUNPOU
 10
2416.056108
 20
3160.533869
 30
0.0
 11
2116.056108
 21
3160.533869
 31
0.0
  0
LINE
  8
SUNPOU
 10
2416.056108
 20
2260.533869
 30
0.0
 11
2116.056108
 21
2260.533869
 31
0.0
  0
TEXT
  8
SUNPOU
 10
2755.69898
 20
3355.533869
 30
0.0
 40
45.0
  1
656
  7
K
 72
     1
 11
2821.056123
 21
3355.533869
 31
0.0
  0
INSERT
  8
SUNPOU
  2
ARROWANG
 10
3149.056108
 20
3310.533869
 30
0.0
 41
30.0
 42
30.0
 43
30.0
  0
INSERT
  8
SUNPOU
  2
ARROWANG
 10
2493.056108
 20
3310.533869
 30
0.0
 41
30.0
 42
30.0
 50
180.0
 43
30.0
  0
LINE
  8
SUNPOU
 10
2493.056108
 20
3310.533869
 30
0.0
 11
3149.056108
 21
3310.533869
 31
0.0
  0
LINE
  8
SUNPOU
 10
3149.056108
 20
3167.533869
 30
0.0
 11
3149.056108
 21
3340.533869
 31
0.0
  0
LINE
  8
SUNPOU
 10
2493.056108
 20
3167.533869
 30
0.0
 11
2493.056108
 21
3340.533869
 31
0.0
  0
TEXT
  8
SUNPOU
 10
2755.69898
 20
3505.533869
 30
0.0
 40
45.0
  1
670
  7
K
 72
     1
 11
2821.056123
 21
3505.533869
 31
0.0
  0
INSERT
  8
SUNPOU
  2
ARROWANG
 10
3156.056108
 20
3460.533869
 30
0.0
 41
30.0
 42
30.0
 43
30.0
  0
INSERT
  8
SUNPOU
  2
ARROWANG
 10
2486.056108
 20
3460.533869
 30
0.0
 41
30.0
 42
30.0
 50
180.0
 43
30.0
  0
LINE
  8
SUNPOU
 10
2486.056108
 20
3460.533869
 30
0.0
 11
3156.056108
 21
3460.533869
 31
0.0
  0
LINE
  8
SUNPOU
 10
3156.056108
 20
3430.533869
 30
0.0
 11
3156.056108
 21
3430.533869
 31
0.0
  0
LINE
  8
SUNPOU
 10
2486.056108
 20
3430.533869
 30
0.0
 11
2486.056108
 21
3430.533869
 31
0.0
  0
LINE
  8
SUNPOU
 10
3156.056108
 20
3190.533869
 30
0.0
 11
3156.056108
 21
3490.533869
 31
0.0
  0
LINE
  8
SUNPOU
 10
2486.056108
 20
3190.533869
 30
0.0
 11
2486.056108
 21
3490.533869
 31
0.0
  0
LINE
  8
SUNPOU
 10
3121.056108
 20
3610.533869
 30
0.0
 11
3061.056108
 21
3610.533869
 31
0.0
  0
LINE
  8
SUNPOU
 10
3196.056108
 20
3610.533869
 30
0.0
 11
3256.056108
 21
3610.533869
 31
0.0
  0
TEXT
  8
SUNPOU
 10
3115.69898
 20
3655.533869
 30
0.0
 40
45.0
  1
75
  7
K
 72
     1
 11
3158.556123
 21
3655.533869
 31
0.0
  0
INSERT
  8
SUNPOU
  2
ARROWANG
 10
3121.056108
 20
3610.533869
 30
0.0
 41
30.0
 42
30.0
 43
30.0
  0
INSERT
  8
SUNPOU
  2
ARROWANG
 10
3196.056108
 20
3610.533869
 30
0.0
 41
30.0
 42
30.0
 50
180.0
 43
30.0
  0
LINE
  8
SUNPOU
 10
3121.056108
 20
3610.533869
 30
0.0
 11
3196.056108
 21
3610.533869
 31
0.0
  0
LINE
  8
SUNPOU
 10
3196.056108
 20
3190.533869
 30
0.0
 11
3196.056108
 21
3640.533869
 31
0.0
  0
LINE
  8
SUNPOU
 10
3121.056108
 20
3640.533869
 30
0.0
 11
3121.056108
 21
3640.533869
 31
0.0
  0
TEXT
  8
SUNPOU
 10
2739.627551
 20
3655.533869
 30
0.0
 40
45.0
  1
%%C600
  7
K
 72
     1
 11
2821.056123
 21
3655.533869
 31
0.0
  0
INSERT
  8
SUNPOU
  2
ARROWANG
 10
3121.056108
 20
3610.533869
 30
0.0
 41
30.0
 42
30.0
 43
30.0
  0
INSERT
  8
SUNPOU
  2
ARROWANG
 10
2521.056108
 20
3610.533869
 30
0.0
 41
30.0
 42
30.0
 50
180.0
 43
30.0
  0
LINE
  8
SUNPOU
 10
2521.056108
 20
3610.533869
 30
0.0
 11
3121.056108
 21
3610.533869
 31
0.0
  0
LINE
  8
SUNPOU
 10
3121.056108
 20
3167.533869
 30
0.0
 11
3121.056108
 21
3640.533869
 31
0.0
  0
LINE
  8
SUNPOU
 10
2521.056108
 20
3580.533869
 30
0.0
 11
2521.056108
 21
3580.533869
 31
0.0
  0
LINE
  8
SUNPOU
 10
2446.056108
 20
3610.533869
 30
0.0
 11
2386.056108
 21
3610.533869
 31
0.0
  0
LINE
  8
SUNPOU
 10
2521.056108
 20
3610.533869
 30
0.0
 11
2581.056108
 21
3610.533869
 31
0.0
  0
TEXT
  8
SUNPOU
 10
2440.69898
 20
3655.533869
 30
0.0
 40
45.0
  1
75
  7
K
 72
     1
 11
2483.556123
 21
3655.533869
 31
0.0
  0
INSERT
  8
SUNPOU
  2
ARROWANG
 10
2446.056108
 20
3610.533869
 30
0.0
 41
30.0
 42
30.0
 43
30.0
  0
INSERT
  8
SUNPOU
  2
ARROWANG
 10
2521.056108
 20
3610.533869
 30
0.0
 41
30.0
 42
30.0
 50
180.0
 43
30.0
  0
LINE
  8
SUNPOU
 10
2446.056108
 20
3610.533869
 30
0.0
 11
2521.056108
 21
3610.533869
 31
0.0
  0
LINE
  8
SUNPOU
 10
2521.056108
 20
3167.533869
 30
0.0
 11
2521.056108
 21
3640.533869
 31
0.0
  0
LINE
  8
SUNPOU
 10
2446.056108
 20
3190.533869
 30
0.0
 11
2446.056108
 21
3640.533869
 31
0.0
  0
CIRCLE
  8
TENSEN
 10
2555.891065
 20
2345.533869
 30
0.0
 40
7.5
  0
LINE
  8
ITTEN
 10
2555.891065
 20
2373.033869
 30
0.0
 11
2555.891065
 21
2318.033869
 31
0.0
  0
LINE
  8
ITTEN
 10
2528.391065
 20
2345.533869
 30
0.0
 11
2583.391065
 21
2345.533869
 31
0.0
  0
LINE
  8
ITTEN
 10
2528.391065
 20
3060.533869
 30
0.0
 11
2583.391065
 21
3060.533869
 31
0.0
  0
LINE
  8
ITTEN
 10
2555.891065
 20
3088.033869
 30
0.0
 11
2555.891065
 21
3033.033869
 31
0.0
  0
CIRCLE
  8
TENSEN
 10
2555.891065
 20
3060.533869
 30
0.0
 40
7.5
  0
CIRCLE
  8
JISSEN
 10
3086.221151
 20
3060.533869
 30
0.0
 40
7.5
  0
LINE
  8
ITTEN
 10
3086.221151
 20
3088.033869
 30
0.0
 11
3086.221151
 21
3033.033869
 31
0.0
  0
LINE
  8
ITTEN
 10
3113.721151
 20
3060.533869
 30
0.0
 11
3058.721151
 21
3060.533869
 31
0.0
  0
LINE
  8
ITTEN
 10
3296.056108
 20
860.533869
 30
0.0
 11
2346.056108
 21
860.533869
 31
0.0
  0
LINE
  8
ITTEN
 10
2821.056108
 20
1335.533869
 30
0.0
 11
2821.056108
 21
385.533869
 31
0.0
  0
LINE
  8
TENSEN
 10
2550.640802
 20
1120.342573
 30
0.0
 11
2571.800967
 21
1099.182408
 31
0.0
  0
LINE
  8
TENSEN
 10
2571.800967
 20
1099.182408
 30
0.0
 11
2582.407569
 21
1109.789009
 31
0.0
  0
LINE
  8
TENSEN
 10
2582.407569
 20
1109.789009
 30
0.0
 11
2561.247404
 21
1130.949174
 31
0.0
  0
LINE
  8
ITTEN
 10
2541.748929
 20
1139.841048
 30
0.0
 11
2591.246404
 21
1090.343573
 31
0.0
  0
LINE
  8
ITTEN
 10
3100.363286
 20
581.22669
 30
0.0
 11
3050.865812
 21
630.724165
 31
0.0
  0
LINE
  8
TENSEN
 10
3059.704646
 20
611.278729
 30
0.0
 11
3080.864812
 21
590.118563
 31
0.0
  0
LINE
  8
TENSEN
 10
3070.311248
 20
621.88533
 30
0.0
 11
3059.704646
 21
611.278729
 31
0.0
  0
LINE
  8
TENSEN
 10
3091.471413
 20
600.725165
 30
0.0
 11
3070.311248
 21
621.88533
 31
0.0
  0
CIRCLE
  8
JISSEN
 10
2821.056108
 20
860.533869
 30
0.0
 40
375.0
  0
CIRCLE
  8
JISSEN
 10
2821.056108
 20
860.533869
 30
0.0
 40
335.0
  0
CIRCLE
  8
JISSEN
 10
2821.056108
 20
860.533869
 30
0.0
 40
328.0
  0
CIRCLE
  8
JISSEN
 10
2821.056108
 20
860.533869
 30
0.0
 40
300.0
  0
LINE
  8
ITTEN
 10
2821.056108
 20
3260.533869
 30
0.0
 11
2821.056108
 21
2194.756519
 31
0.0
  0
LINE
  8
JISSEN
 10
3196.056108
 20
3160.533869
 30
0.0
 11
3156.056108
 21
3160.533869
 31
0.0
  0
LINE
  8
TENSEN
 10
3156.056108
 20
3160.533869
 30
0.0
 11
3149.056108
 21
3137.533869
 31
0.0
  0
LINE
  8
TENSEN
 10
3149.056108
 20
3137.533869
 30
0.0
 11
3121.056108
 21
3137.533869
 31
0.0
  0
LINE
  8
JISSEN
 10
3196.056108
 20
3160.533869
 30
0.0
 11
3196.056108
 21
2260.533869
 31
0.0
  0
LINE
  8
JISSEN
 10
3196.056108
 20
2260.533869
 30
0.0
 11
3155.056108
 21
2260.533869
 31
0.0
  0
LINE
  8
JISSEN
 10
3155.056108
 20
2260.533869
 30
0.0
 11
3146.056108
 21
2245.533869
 31
0.0
  0
LINE
  8
JISSEN
 10
3146.056108
 20
2245.533869
 30
0.0
 11
3121.056108
 21
2245.533869
 31
0.0
  0
LINE
  8
TENSEN
 10
3121.056108
 20
3137.533869
 30
0.0
 11
3121.056108
 21
2245.533869
 31
0.0
  0
LINE
  8
TENSEN
 10
3121.056108
 20
3137.533869
 30
0.0
 11
2821.056108
 21
3137.533869
 31
0.0
  0
LINE
  8
JISSEN
 10
3121.056108
 20
2245.533869
 30
0.0
 11
2821.056108
 21
2245.533869
 31
0.0
  0
LINE
  8
JISSEN
 10
3155.056108
 20
2260.533869
 30
0.0
 11
2821.056108
 21
2260.533869
 31
0.0
  0
LINE
  8
JISSEN
 10
3156.056108
 20
3160.533869
 30
0.0
 11
2821.056108
 21
3160.533869
 31
0.0
  0
LINE
  8
JISSEN
 10
2486.056108
 20
3160.533869
 30
0.0
 11
2821.056108
 21
3160.533869
 31
0.0
  0
LINE
  8
TENSEN
 10
2487.056108
 20
2260.533869
 30
0.0
 11
2821.056108
 21
2260.533869
 31
0.0
  0
LINE
  8
JISSEN
 10
2521.056108
 20
2245.533869
 30
0.0
 11
2821.056108
 21
2245.533869
 31
0.0
  0
LINE
  8
JISSEN
 10
2521.056108
 20
3137.533869
 30
0.0
 11
2821.056108
 21
3137.533869
 31
0.0
  0
LINE
  8
JISSEN
 10
2521.056108
 20
3137.533869
 30
0.0
 11
2521.056108
 21
2245.533869
 31
0.0
  0
LINE
  8
JISSEN
 10
2496.056108
 20
2245.533869
 30
0.0
 11
2521.056108
 21
2245.533869
 31
0.0
  0
LINE
  8
JISSEN
 10
2487.056108
 20
2260.533869
 30
0.0
 11
2496.056108
 21
2245.533869
 31
0.0
  0
LINE
  8
JISSEN
 10
2446.056108
 20
2260.533869
 30
0.0
 11
2487.056108
 21
2260.533869
 31
0.0
  0
LINE
  8
JISSEN
 10
2446.056108
 20
3160.533869
 30
0.0
 11
2446.056108
 21
2260.533869
 31
0.0
  0
LINE
  8
JISSEN
 10
2493.056108
 20
3137.533869
 30
0.0
 11
2521.056108
 21
3137.533869
 31
0.0
  0
LINE
  8
JISSEN
 10
2486.056108
 20
3160.533869
 30
0.0
 11
2493.056108
 21
3137.533869
 31
0.0
  0
LINE
  8
JISSEN
 10
2446.056108
 20
3160.533869
 30
0.0
 11
2486.056108
 21
3160.533869
 31
0.0
  0
TEXT
  8
SUNPOU
 10
3301.056108
 20
2367.283869
 30
0.0
 40
45.0
  1
100
 50
90.0
  7
K
 72
     1
 11
3301.056108
 21
2434.783869
 31
0.0
  0
LINE
  8
SUNPOU
 10
3346.056108
 20
2360.533869
 30
0.0
 11
3346.056108
 21
2509.033869
 31
0.0
  0
INSERT
  8
SUNPOU
  2
ARROWANG
 10
3346.056108
 20
2360.533869
 30
0.0
 41
30.0
 42
30.0
 50
270.0
 43
30.0
  0
LINE
  8
SUNPOU
 10
3116.221151
 20
2360.533869
 30
0.0
 11
3376.056108
 21
2360.533869
 31
0.0
  0
LINE
  8
ITTEN
 10
3113.721151
 20
2360.533869
 30
0.0
 11
3058.721151
 21
2360.533869
 31
0.0
  0
LINE
  8
ITTEN
 10
3086.221151
 20
2388.033869
 30
0.0
 11
3086.221151
 21
2333.033869
 31
0.0
  0
CIRCLE
  8
JISSEN
 10
3086.221151
 20
2360.533869
 30
0.0
 40
7.5
  0
LINE
  8
SUNPOU
 10
3346.056108
 20
2260.533869
 30
0.0
 11
3346.056109
 21
2200.533869
 31
0.0
  0
INSERT
  8
SUNPOU
  2
ARROWANG
 10
3346.056108
 20
2260.533869
 30
0.0
 41
30.0
 42
30.0
 50
90.0
 43
30.0
  0
LINE
  8
SUNPOU
 10
3346.056108
 20
2260.533869
 30
0.0
 11
3346.056108
 21
2360.533869
 31
0.0
  0
LINE
  8
SUNPOU
 10
3226.056108
 20
2260.533869
 30
0.0
 11
3376.056108
 21
2260.533869
 31
0.0
  0
CIRCLE
  8
JISSEN
 10
4886.221151
 20
2660.533869
 30
0.0
 40
7.5
  0
LINE
  8
ITTEN
 10
4886.221151
 20
2688.033869
 30
0.0
 11
4886.221151
 21
2633.033869
 31
0.0
  0
LINE
  8
ITTEN
 10
4913.721151
 20
2660.533869
 30
0.0
 11
4858.721151
 21
2660.533869
 31
0.0
  0
LINE
  8
SUNPOU
 10
4916.221151
 20
2660.533869
 30
0.0
 11
5176.056108
 21
2660.533869
 31
0.0
  0
INSERT
  8
SUNPOU
  2
ARROWANG
 10
5146.056108
 20
2660.533869
 30
0.0
 41
30.0
 42
30.0
 50
270.0
 43
30.0
  0
LINE
  8
SUNPOU
 10
5146.056108
 20
2660.533869
 30
0.0
 11
5146.056108
 21
2809.033869
 31
0.0
  0
TEXT
  8
SUNPOU
 10
5101.056108
 20
2667.283869
 30
0.0
 40
45.0
  1
100
 50
90.0
  7
K
 72
     1
 11
5101.056108
 21
2734.783869
 31
0.0
  0
LINE
  8
SUNPOU
 10
5026.056108
 20
2560.533869
 30
0.0
 11
5176.056108
 21
2560.533869
 31
0.0
  0
LINE
  8
SUNPOU
 10
5146.056108
 20
2560.533869
 30
0.0
 11
5146.056108
 21
2660.533869
 31
0.0
  0
INSERT
  8
SUNPOU
  2
ARROWANG
 10
5146.056108
 20
2560.533869
 30
0.0
 41
30.0
 42
30.0
 50
90.0
 43
30.0
  0
LINE
  8
SUNPOU
 10
5146.056108
 20
2560.533869
 30
0.0
 11
5146.056109
 21
2500.533869
 31
0.0
  0
ARC
  8
JISSEN
 10
2821.056108
 20
2530.533869
 30
0.0
 40
175.0
 50
90.0
 51
270.0
  0
ARC
  8
TENSEN
 10
2821.056108
 20
2530.533869
 30
0.0
 40
175.0
 50
270.0
 51
90.0
  0
ARC
  8
TENSEN
 10
4621.056108
 20
2830.533869
 30
0.0
 40
175.0
 50
270.0
 51
90.0
  0
ARC
  8
JISSEN
 10
4621.056108
 20
2830.533869
 30
0.0
 40
175.0
 50
90.0
 51
270.0
  0
LINE
  8
TENSEN
 10
2653.556108
 20
1196.046536
 30
0.0
 11
2653.556108
 21
1109.418883
 31
0.0
  0
LINE
  8
TENSEN
 10
3003.556108
 20
1188.129275
 30
0.0
 11
3003.556108
 21
1098.638363
 31
0.0
  0
TEXT
  8
TEXT
 10
3389.508421
 20
4063.105913
 30
0.0
 40
160.0
  1
管取付壁
  7
K
  0
TEXT
  8
TEXT
 10
4371.772678
 20
3753.932619
 30
0.0
 40
100.0
  1
MYB60
  7
K
  0
TEXT
  8
TEXT
 10
2574.564493
 20
3753.670078
 30
0.0
 40
100.0
  1
MYB90
  7
K
  0
TEXT
  8
JISSEN
 10
2102.71165
 20
5136.49301
 30
0.0
 40
200.0
  1
組立マンホール構造図
  7
K
  0
TEXT
  8
JISSEN
 10
4936.876548
 20
5151.91695
 30
0.0
 40
133.333333
  1
( 内径 600mm )
  7
K
  0
POLYLINE
  8
WAKU
 66
     1
 10
0.0
 20
0.0
 30
0.0
 70
     1
  0
VERTEX
  8
WAKU
 10
0.0
 20
0.0
 30
0.0
  0
VERTEX
  8
WAKU
 10
7900.0
 20
0.0
 30
0.0
  0
VERTEX
  8
WAKU
 10
7900.0
 20
5460.0
 30
0.0
  0
VERTEX
  8
WAKU
 10
0.0
 20
5460.0
 30
0.0
  0
SEQEND
  8
WAKU
  0
TEXT
  8
TEXT
 10
7278.304835
 20
428.016943
 30
0.0
 40
100.0
  1
1/20
  7
K
  0
ENDSEC
  0
EOF
