  0
SECTION
  2
HEADER
  9
$ACADVER
  1
AC1009
  9
$INSBASE
 10
0.0
 20
0.0
 30
0.0
  9
$EXTMIN
 10
0.0
 20
0.0
 30
0.0
  9
$EXTMAX
 10
7900.0
 20
5460.0
 30
0.0
  9
$LIMMIN
 10
0.0
 20
0.0
  9
$LIMMAX
 10
7900.0
 20
5460.0
  9
$ORTHOMODE
 70
     0
  9
$REGENMODE
 70
     1
  9
$FILLMODE
 70
     1
  9
$QTEXTMODE
 70
     0
  9
$MIRRTEXT
 70
     0
  9
$DRAGMODE
 70
     2
  9
$LTSCALE
 40
100.0
  9
$OSMODE
 70
    33
  9
$ATTMODE
 70
     1
  9
$TEXTSIZE
 40
45.0
  9
$TRACEWID
 40
0.05
  9
$TEXTSTYLE
  7
K
  9
$CLAYER
  8
SUNPOU
  9
$CELTYPE
  6
BYLAYER
  9
$CECOLOR
 62
   256
  9
$DIMSCALE
 40
20.0
  9
$DIMASZ
 40
1.5
  9
$DIMEXO
 40
1.0
  9
$DIMDLI
 40
6.0
  9
$DIMRND
 40
0.0
  9
$DIMDLE
 40
0.0
  9
$DIMEXE
 40
1.0
  9
$DIMTP
 40
495.0
  9
$DIMTM
 40
0.0
  9
$DIMTXT
 40
3.0
  9
$DIMCEN
 40
0.0
  9
$DIMTSZ
 40
0.0
  9
$DIMTOL
 70
     0
  9
$DIMLIM
 70
     0
  9
$DIMTIH
 70
     0
  9
$DIMTOH
 70
     0
  9
$DIMSE1
 70
     0
  9
$DIMSE2
 70
     0
  9
$DIMTAD
 70
     1
  9
$DIMZIN
 70
     8
  9
$DIMBLK
  1
ARROW
  9
$DIMASO
 70
     0
  9
$DIMSHO
 70
     0
  9
$DIMPOST
  1

  9
$DIMAPOST
  1

  9
$DIMALT
 70
     0
  9
$DIMALTD
 70
     2
  9
$DIMALTF
 40
25.4
  9
$DIMLFAC
 40
1.0
  9
$DIMTOFL
 70
     1
  9
$DIMTVP
 40
0.0
  9
$DIMTIX
 70
     1
  9
$DIMSOXD
 70
     0
  9
$DIMSAH
 70
     0
  9
$DIMBLK1
  1

  9
$DIMBLK2
  1

  9
$DIMSTYLE
  2
*UNNAMED
  9
$DIMCLRD
 70
     0
  9
$DIMCLRE
 70
     0
  9
$DIMCLRT
 70
     0
  9
$DIMTFAC
 40
1.0
  9
$DIMGAP
 40
0.09
  9
$LUNITS
 70
     2
  9
$LUPREC
 70
     2
  9
$AXISMODE
 70
     0
  9
$AXISUNIT
 10
100.0
 20
100.0
  9
$SKETCHINC
 40
0.1
  9
$FILLETRAD
 40
300.0
  9
$AUNITS
 70
     0
  9
$AUPREC
 70
     2
  9
$MENU
  1
G:STDGX5
  9
$ELEVATION
 40
0.0
  9
$PELEVATION
 40
0.0
  9
$THICKNESS
 40
0.0
  9
$LIMCHECK
 70
     0
  9
$BLIPMODE
 70
     1
  9
$CHAMFERA
 40
0.0
  9
$CHAMFERB
 40
0.0
  9
$SKPOLY
 70
     0
  9
$TDCREATE
 40
2450249.504050925
  9
$TDUPDATE
 40
2450255.718900463
  9
$TDINDWG
 40
0.0342245370
  9
$TDUSRTIMER
 40
0.0342245370
  9
$USRTIMER
 70
     1
  9
$ANGBASE
 50
0.0
  9
$ANGDIR
 70
     0
  9
$PDMODE
 70
     0
  9
$PDSIZE
 40
0.0
  9
$PLINEWID
 40
0.0
  9
$COORDS
 70
     2
  9
$SPLFRAME
 70
     0
  9
$SPLINETYPE
 70
     6
  9
$SPLINESEGS
 70
     8
  9
$ATTDIA
 70
     0
  9
$ATTREQ
 70
     1
  9
$HANDLING
 70
     0
  9
$HANDSEED
  5
0
  9
$SURFTAB1
 70
     6
  9
$SURFTAB2
 70
     6
  9
$SURFTYPE
 70
     6
  9
$SURFU
 70
     6
  9
$SURFV
 70
     6
  9
$UCSNAME
  2

  9
$UCSORG
 10
0.0
 20
0.0
 30
0.0
  9
$UCSXDIR
 10
1.0
 20
0.0
 30
0.0
  9
$UCSYDIR
 10
0.0
 20
1.0
 30
0.0
  9
$PUCSNAME
  2

  9
$PUCSORG
 10
0.0
 20
0.0
 30
0.0
  9
$PUCSXDIR
 10
1.0
 20
0.0
 30
0.0
  9
$PUCSYDIR
 10
0.0
 20
1.0
 30
0.0
  9
$USERI1
 70
     3
  9
$USERI2
 70
    33
  9
$USERI3
 70
     0
  9
$USERI4
 70
     1
  9
$USERI5
 70
     0
  9
$USERR1
 40
20.0
  9
$USERR2
 40
3.0
  9
$USERR3
 40
3.0
  9
$USERR4
 40
1.5
  9
$USERR5
 40
10.0
  9
$WORLDVIEW
 70
     1
  9
$SHADEDGE
 70
     3
  9
$SHADEDIF
 70
    70
  9
$TILEMODE
 70
     1
  9
$MAXACTVP
 70
    16
  9
$PINSBASE
 10
0.0
 20
0.0
 30
0.0
  9
$PLIMCHECK
 70
     0
  9
$PEXTMIN
 10
1.000000E+20
 20
1.000000E+20
 30
1.000000E+20
  9
$PEXTMAX
 10
-1.000000E+20
 20
-1.000000E+20
 30
-1.000000E+20
  9
$PLIMMIN
 10
0.0
 20
0.0
  9
$PLIMMAX
 10
12.0
 20
9.0
  9
$UNITMODE
 70
     0
  9
$VISRETAIN
 70
     0
  0
ENDSEC
  0
SECTION
  2
TABLES
  0
TABLE
  2
VPORT
 70
    10
  0
VPORT
  2
*ACTIVE
 70
     0
 10
0.0
 20
0.0
 11
1.0
 21
1.0
 12
4461.010491
 22
2730.0
 13
0.0
 23
0.0
 14
1.0
 24
1.0
 15
10.0
 25
10.0
 16
0.0
 26
0.0
 36
1.0
 17
0.0
 27
0.0
 37
0.0
 40
5460.0
 41
1.63407
 42
50.0
 43
0.0
 44
0.0
 50
0.0
 51
0.0
 71
     0
 72
   500
 73
     1
 74
     0
 75
     0
 76
     0
 77
     0
 78
     0
  0
VPORT
  2
2
 70
     0
 10
0.5
 20
0.0
 11
1.0
 21
1.0
 12
0.924031
 22
1.052651
 13
0.0
 23
0.0
 14
1.0
 24
1.0
 15
10.0
 25
10.0
 16
0.0
 26
0.0
 36
1.0
 17
0.0
 27
0.0
 37
0.0
 40
2.105302
 41
0.877814
 42
50.0
 43
0.0
 44
0.0
 50
0.0
 51
0.0
 71
     0
 72
   500
 73
     1
 74
     1
 75
     0
 76
     0
 77
     0
 78
     0
  0
VPORT
  2
2
 70
     0
 10
0.0
 20
0.0
 11
0.5
 21
1.0
 12
0.924031
 22
1.052651
 13
0.0
 23
0.0
 14
1.0
 24
1.0
 15
10.0
 25
10.0
 16
0.0
 26
0.0
 36
1.0
 17
0.0
 27
0.0
 37
0.0
 40
2.105302
 41
0.877814
 42
50.0
 43
0.0
 44
0.0
 50
0.0
 51
0.0
 71
     0
 72
   500
 73
     1
 74
     1
 75
     0
 76
     0
 77
     0
 78
     0
  0
VPORT
  2
3
 70
     0
 10
0.0
 20
0.5
 11
1.0
 21
1.0
 12
2.83217
 22
1.052651
 13
0.0
 23
0.0
 14
1.0
 24
1.0
 15
10.0
 25
10.0
 16
0.0
 26
0.0
 36
1.0
 17
0.0
 27
0.0
 37
0.0
 40
2.105302
 41
3.571429
 42
50.0
 43
0.0
 44
0.0
 50
0.0
 51
0.0
 71
     0
 72
   500
 73
     1
 74
     1
 75
     0
 76
     0
 77
     0
 78
     0
  0
VPORT
  2
3
 70
     0
 10
0.0
 20
0.0
 11
1.0
 21
0.5
 12
2.856742
 22
1.052651
 13
0.0
 23
0.0
 14
1.0
 24
1.0
 15
10.0
 25
10.0
 16
0.0
 26
0.0
 36
1.0
 17
0.0
 27
0.0
 37
0.0
 40
2.105302
 41
3.594771
 42
50.0
 43
0.0
 44
0.0
 50
0.0
 51
0.0
 71
     0
 72
   500
 73
     1
 74
     1
 75
     0
 76
     0
 77
     0
 78
     0
  0
VPORT
  2
4
 70
     0
 10
0.5
 20
0.0
 11
1.0
 21
0.5
 12
2.886858
 22
1.052651
 13
0.0
 23
0.0
 14
1.0
 24
1.0
 15
10.0
 25
10.0
 16
0.0
 26
0.0
 36
1.0
 17
0.0
 27
0.0
 37
0.0
 40
4.275207
 41
1.784314
 42
50.0
 43
0.0
 44
0.0
 50
0.0
 51
0.0
 71
     0
 72
   500
 73
     1
 74
     1
 75
     0
 76
     0
 77
     0
 78
     0
  0
VPORT
  2
4
 70
     0
 10
0.5
 20
0.5
 11
1.0
 21
1.0
 12
2.86209
 22
1.052651
 13
0.0
 23
0.0
 14
1.0
 24
1.0
 15
10.0
 25
10.0
 16
0.0
 26
0.0
 36
1.0
 17
0.0
 27
0.0
 37
0.0
 40
4.275207
 41
1.772727
 42
50.0
 43
0.0
 44
0.0
 50
0.0
 51
0.0
 71
     0
 72
   500
 73
     1
 74
     1
 75
     0
 76
     0
 77
     0
 78
     0
  0
VPORT
  2
4
 70
     0
 10
0.0
 20
0.5
 11
0.5
 21
1.0
 12
2.86209
 22
1.052651
 13
0.0
 23
0.0
 14
1.0
 24
1.0
 15
10.0
 25
10.0
 16
0.0
 26
0.0
 36
1.0
 17
0.0
 27
0.0
 37
0.0
 40
4.275207
 41
1.772727
 42
50.0
 43
0.0
 44
0.0
 50
0.0
 51
0.0
 71
     0
 72
   500
 73
     1
 74
     1
 75
     0
 76
     0
 77
     0
 78
     0
  0
VPORT
  2
4
 70
     0
 10
0.0
 20
0.0
 11
0.5
 21
0.5
 12
2.886858
 22
1.052651
 13
0.0
 23
0.0
 14
1.0
 24
1.0
 15
10.0
 25
10.0
 16
0.0
 26
0.0
 36
1.0
 17
0.0
 27
0.0
 37
0.0
 40
4.275207
 41
1.784314
 42
50.0
 43
0.0
 44
0.0
 50
0.0
 51
0.0
 71
     0
 72
   500
 73
     1
 74
     1
 75
     0
 76
     0
 77
     0
 78
     0
  0
ENDTAB
  0
TABLE
  2
LTYPE
 70
     5
  0
LTYPE
  2
CONTINUOUS
 70
    64
  3
実線
 72
    65
 73
     0
 40
0.0
  0
LTYPE
  2
DASHED
 70
    64
  3
__ __ __ __ __ __ __ __ __ __ __ __ __ __ __
 72
    65
 73
     2
 40
0.75
 49
0.5
 49
-0.25
  0
LTYPE
  2
CENTER
 70
    64
  3
____ _ ____ _ ____ _ ____ _ ____ _ ____ _ ____
 72
    65
 73
     4
 40
2.0
 49
1.25
 49
-0.25
 49
0.25
 49
-0.25
  0
LTYPE
  2
PHANTOM
 70
    64
  3
_____ _ _ _____ _ _ _____ _ _ _____ _ _ ____
 72
    65
 73
     6
 40
2.5
 49
1.25
 49
-0.25
 49
0.25
 49
-0.25
 49
0.25
 49
-0.25
  0
LTYPE
  2
HIDDEN
 70
    64
  3
_ _ _ _ _ _ _ _ _ _ _ _ _ _ _ _ _ _ _ _ _ _ _
 72
    65
 73
     2
 40
0.375
 49
0.25
 49
-0.125
  0
ENDTAB
  0
TABLE
  2
LAYER
 70
    14
  0
LAYER
  2
0
 70
     0
 62
     7
  6
CONTINUOUS
  0
LAYER
  2
ITTEN
 70
    64
 62
     1
  6
CENTER
  0
LAYER
  2
HATCH
 70
    64
 62
     4
  6
CONTINUOUS
  0
LAYER
  2
SUNPOU
 70
    64
 62
     3
  6
CONTINUOUS
  0
LAYER
  2
TEXT
 70
    64
 62
     3
  6
CONTINUOUS
  0
LAYER
  2
SAISEN
 70
    64
 62
     4
  6
CONTINUOUS
  0
LAYER
  2
JISSEN
 70
    64
 62
     7
  6
CONTINUOUS
  0
LAYER
  2
TENSEN
 70
    64
 62
     2
  6
HIDDEN
  0
LAYER
  2
WAKU
 70
    64
 62
    -5
  6
CONTINUOUS
  0
ENDTAB
  0
TABLE
  2
STYLE
 70
     2
  0
STYLE
  2
STANDARD
 70
     0
 40
0.0
 41
1.0
 50
0.0
 71
     0
 42
0.2
  3
ROMANS
  4
EXTFONT
  0
STYLE
  2
K
 70
    64
 40
0.0
 41
1.0
 50
0.0
 71
     0
 42
45.0
  3
ROMANS
  4
EXTFONT
  0
ENDTAB
  0
TABLE
  2
VIEW
 70
     0
  0
ENDTAB
  0
TABLE
  2
UCS
 70
     0
  0
ENDTAB
  0
TABLE
  2
APPID
 70
     1
  0
APPID
  2
ACAD
 70
    64
  0
ENDTAB
  0
TABLE
  2
DIMSTYLE
 70
     0
  0
ENDTAB
  0
ENDSEC
  0
SECTION
  2
BLOCKS
  0
BLOCK
  8
SUNPOU
  2
ARROWANG
 70
    64
 10
0.0
 20
0.0
 30
0.0
  3
ARROWANG
  0
LINE
  8
SUNPOU
 10
0.0
 20
0.0
 30
0.0
 11
-1.5
 21
0.401924
 31
0.0
  0
LINE
  8
SUNPOU
 10
0.0
 20
0.0
 30
0.0
 11
-1.5
 21
-0.401924
 31
0.0
  0
ENDBLK
  8
SUNPOU
  0
ENDSEC
  0
SECTION
  2
ENTITIES
  0
LINE
  8
JISSEN
 10
2116.280022
 20
1907.178424
 30
0.0
 11
2116.280022
 21
1307.178424
 31
0.0
  0
LINE
  8
JISSEN
 10
2116.280022
 20
1307.178424
 30
0.0
 11
2075.280022
 21
1307.178424
 31
0.0
  0
LINE
  8
JISSEN
 10
2075.280022
 20
1307.178424
 30
0.0
 11
2066.280022
 21
1292.178424
 31
0.0
  0
LINE
  8
JISSEN
 10
2066.280022
 20
1292.178424
 30
0.0
 11
2041.280022
 21
1292.178424
 31
0.0
  0
LINE
  8
JISSEN
 10
2041.280022
 20
1884.178424
 30
0.0
 11
2041.280022
 21
1292.178424
 31
0.0
  0
LINE
  8
JISSEN
 10
1441.280022
 20
1884.178424
 30
0.0
 11
1441.280022
 21
1292.178424
 31
0.0
  0
LINE
  8
JISSEN
 10
1416.280022
 20
1292.178424
 30
0.0
 11
1441.280022
 21
1292.178424
 31
0.0
  0
LINE
  8
JISSEN
 10
1407.280022
 20
1307.178424
 30
0.0
 11
1416.280022
 21
1292.178424
 31
0.0
  0
LINE
  8
JISSEN
 10
1366.280022
 20
1307.178424
 30
0.0
 11
1407.280022
 21
1307.178424
 31
0.0
  0
LINE
  8
JISSEN
 10
1366.280022
 20
1907.178424
 30
0.0
 11
1366.280022
 21
1307.178424
 31
0.0
  0
LINE
  8
JISSEN
 10
1366.280022
 20
2507.178424
 30
0.0
 11
1366.280022
 21
1907.178424
 31
0.0
  0
LINE
  8
JISSEN
 10
1366.280022
 20
1907.178424
 30
0.0
 11
1407.280022
 21
1907.178424
 31
0.0
  0
LINE
  8
JISSEN
 10
1407.280022
 20
1907.178424
 30
0.0
 11
1416.280022
 21
1892.178424
 31
0.0
  0
LINE
  8
JISSEN
 10
1416.280022
 20
1892.178424
 30
0.0
 11
1441.280022
 21
1892.178424
 31
0.0
  0
LINE
  8
JISSEN
 10
1441.280022
 20
2484.178424
 30
0.0
 11
1441.280022
 21
1892.178424
 31
0.0
  0
LINE
  8
JISSEN
 10
1441.280022
 20
1892.178424
 30
0.0
 11
1741.280022
 21
1892.178424
 31
0.0
  0
LINE
  8
JISSEN
 10
2041.280022
 20
1892.178424
 30
0.0
 11
1741.280022
 21
1892.178424
 31
0.0
  0
LINE
  8
JISSEN
 10
2041.280022
 20
2484.178424
 30
0.0
 11
2041.280022
 21
1892.178424
 31
0.0
  0
LINE
  8
JISSEN
 10
2066.280022
 20
1892.178424
 30
0.0
 11
2041.280022
 21
1892.178424
 31
0.0
  0
LINE
  8
JISSEN
 10
2075.280022
 20
1907.178424
 30
0.0
 11
2066.280022
 21
1892.178424
 31
0.0
  0
LINE
  8
JISSEN
 10
2116.280022
 20
1907.178424
 30
0.0
 11
2075.280022
 21
1907.178424
 31
0.0
  0
LINE
  8
JISSEN
 10
2116.280022
 20
2507.178424
 30
0.0
 11
2116.280022
 21
1907.178424
 31
0.0
  0
LINE
  8
JISSEN
 10
2141.280022
 20
1307.178424
 30
0.0
 11
2141.280022
 21
1162.178424
 31
0.0
  0
LINE
  8
JISSEN
 10
2141.280022
 20
1162.178424
 30
0.0
 11
1741.280022
 21
1162.178424
 31
0.0
  0
LINE
  8
JISSEN
 10
2141.280022
 20
1307.178424
 30
0.0
 11
2076.280022
 21
1307.178424
 31
0.0
  0
LINE
  8
JISSEN
 10
2076.280022
 20
1307.178424
 30
0.0
 11
2071.280022
 21
1292.178424
 31
0.0
  0
LINE
  8
JISSEN
 10
2071.280022
 20
1292.178424
 30
0.0
 11
1891.280022
 21
1292.178424
 31
0.0
  0
LINE
  8
JISSEN
 10
1891.280022
 20
1292.178424
 30
0.0
 11
1891.280022
 21
1162.178424
 31
0.0
  0
LINE
  8
JISSEN
 10
1591.280022
 20
1292.178424
 30
0.0
 11
1591.280022
 21
1162.178424
 31
0.0
  0
LINE
  8
JISSEN
 10
1411.280022
 20
1292.178424
 30
0.0
 11
1591.280022
 21
1292.178424
 31
0.0
  0
LINE
  8
JISSEN
 10
1406.280022
 20
1307.178424
 30
0.0
 11
1411.280022
 21
1292.178424
 31
0.0
  0
LINE
  8
JISSEN
 10
1341.280022
 20
1307.178424
 30
0.0
 11
1406.280022
 21
1307.178424
 31
0.0
  0
LINE
  8
JISSEN
 10
1341.280022
 20
1162.178424
 30
0.0
 11
1741.280022
 21
1162.178424
 31
0.0
  0
LINE
  8
JISSEN
 10
1341.280022
 20
1307.178424
 30
0.0
 11
1341.280022
 21
1162.178424
 31
0.0
  0
LINE
  8
JISSEN
 10
2041.280022
 20
2492.178424
 30
0.0
 11
2066.280022
 21
2492.178424
 31
0.0
  0
LINE
  8
JISSEN
 10
2066.280022
 20
2492.178424
 30
0.0
 11
2075.280022
 21
2507.178424
 31
0.0
  0
LINE
  8
JISSEN
 10
2075.280022
 20
2507.178424
 30
0.0
 11
2116.280022
 21
2507.178424
 31
0.0
  0
LINE
  8
JISSEN
 10
2041.280022
 20
2787.178424
 30
0.0
 11
2041.280022
 21
2492.178424
 31
0.0
  0
LINE
  8
JISSEN
 10
2151.280022
 20
2802.178424
 30
0.0
 11
2151.280022
 21
2742.178424
 31
0.0
  0
LINE
  8
JISSEN
 10
2151.280022
 20
2742.178424
 30
0.0
 11
2116.280022
 21
2577.178424
 31
0.0
  0
LINE
  8
JISSEN
 10
2116.280022
 20
2577.178424
 30
0.0
 11
2116.280022
 21
2507.178424
 31
0.0
  0
LINE
  8
JISSEN
 10
2041.280022
 20
2492.178424
 30
0.0
 11
1741.280022
 21
2492.178424
 31
0.0
  0
LINE
  8
JISSEN
 10
1441.280022
 20
2492.178424
 30
0.0
 11
1741.280022
 21
2492.178424
 31
0.0
  0
LINE
  8
JISSEN
 10
1366.280022
 20
2577.178424
 30
0.0
 11
1366.280022
 21
2507.178424
 31
0.0
  0
LINE
  8
JISSEN
 10
1331.280022
 20
2742.178424
 30
0.0
 11
1366.280022
 21
2577.178424
 31
0.0
  0
LINE
  8
JISSEN
 10
1331.280022
 20
2802.178424
 30
0.0
 11
1331.280022
 21
2742.178424
 31
0.0
  0
LINE
  8
JISSEN
 10
1441.280022
 20
2787.178424
 30
0.0
 11
1441.280022
 21
2492.178424
 31
0.0
  0
LINE
  8
JISSEN
 10
1407.280022
 20
2507.178424
 30
0.0
 11
1366.280022
 21
2507.178424
 31
0.0
  0
LINE
  8
JISSEN
 10
1416.280022
 20
2492.178424
 30
0.0
 11
1407.280022
 21
2507.178424
 31
0.0
  0
LINE
  8
JISSEN
 10
1441.280022
 20
2492.178424
 30
0.0
 11
1416.280022
 21
2492.178424
 31
0.0
  0
LINE
  8
JISSEN
 10
2041.280022
 20
2792.178424
 30
0.0
 11
1441.280022
 21
2792.178424
 31
0.0
  0
LINE
  8
JISSEN
 10
1741.280022
 20
2887.178424
 30
0.0
 11
2041.280022
 21
2887.178424
 31
0.0
  0
LINE
  8
JISSEN
 10
1441.280022
 20
2887.178424
 30
0.0
 11
1741.280022
 21
2887.178424
 31
0.0
  0
LINE
  8
JISSEN
 10
1409.280022
 20
2902.178424
 30
0.0
 11
2073.280022
 21
2902.178424
 31
0.0
  0
LINE
  8
JISSEN
 10
2151.280022
 20
2902.178424
 30
0.0
 11
2151.280022
 21
2802.178424
 31
0.0
  0
LINE
  8
JISSEN
 10
2151.280022
 20
2802.178424
 30
0.0
 11
2070.280022
 21
2802.178424
 31
0.0
  0
LINE
  8
JISSEN
 10
2070.280022
 20
2802.178424
 30
0.0
 11
2066.280022
 21
2792.178424
 31
0.0
  0
LINE
  8
JISSEN
 10
2066.280022
 20
2792.178424
 30
0.0
 11
2041.280022
 21
2792.178424
 31
0.0
  0
LINE
  8
JISSEN
 10
2151.280022
 20
2902.178424
 30
0.0
 11
2073.280022
 21
2902.178424
 31
0.0
  0
LINE
  8
JISSEN
 10
2073.280022
 20
2902.178424
 30
0.0
 11
2067.280022
 21
2887.178424
 31
0.0
  0
LINE
  8
JISSEN
 10
2067.280022
 20
2887.178424
 30
0.0
 11
2041.280022
 21
2887.178424
 31
0.0
  0
LINE
  8
JISSEN
 10
2041.280022
 20
2887.178424
 30
0.0
 11
2041.280022
 21
2792.178424
 31
0.0
  0
LINE
  8
JISSEN
 10
1441.280022
 20
2887.178424
 30
0.0
 11
1441.280022
 21
2792.178424
 31
0.0
  0
LINE
  8
JISSEN
 10
1415.280022
 20
2887.178424
 30
0.0
 11
1441.280022
 21
2887.178424
 31
0.0
  0
LINE
  8
JISSEN
 10
1409.280022
 20
2902.178424
 30
0.0
 11
1415.280022
 21
2887.178424
 31
0.0
  0
LINE
  8
JISSEN
 10
1331.280022
 20
2902.178424
 30
0.0
 11
1409.280022
 21
2902.178424
 31
0.0
  0
LINE
  8
JISSEN
 10
1416.280022
 20
2792.178424
 30
0.0
 11
1441.280022
 21
2792.178424
 31
0.0
  0
LINE
  8
JISSEN
 10
1412.280022
 20
2802.178424
 30
0.0
 11
1416.280022
 21
2792.178424
 31
0.0
  0
LINE
  8
JISSEN
 10
1331.280022
 20
2802.178424
 30
0.0
 11
1412.280022
 21
2802.178424
 31
0.0
  0
LINE
  8
JISSEN
 10
1331.280022
 20
2902.178424
 30
0.0
 11
1331.280022
 21
2802.178424
 31
0.0
  0
LINE
  8
JISSEN
 10
1331.280022
 20
2902.178424
 30
0.0
 11
1741.280022
 21
2902.178424
 31
0.0
  0
LINE
  8
JISSEN
 10
1331.280022
 20
2902.178424
 30
0.0
 11
1331.280022
 21
2912.178424
 31
0.0
  0
LINE
  8
JISSEN
 10
1331.280022
 20
2912.178424
 30
0.0
 11
1383.7979
 21
2912.178424
 31
0.0
  0
LINE
  8
JISSEN
 10
1383.7979
 20
2912.178424
 30
0.0
 11
1431.280022
 21
2912.178424
 31
0.0
  0
LINE
  8
JISSEN
 10
1431.280022
 20
2912.178424
 30
0.0
 11
1431.280022
 21
2958.114495
 31
0.0
  0
LINE
  8
JISSEN
 10
1431.280022
 20
2958.114495
 30
0.0
 11
1393.7979
 21
2958.114495
 31
0.0
  0
LINE
  8
JISSEN
 10
1393.7979
 20
2958.114495
 30
0.0
 11
1383.7979
 21
3012.178424
 31
0.0
  0
LINE
  8
JISSEN
 10
1383.7979
 20
3012.178424
 30
0.0
 11
1331.280022
 21
2912.178424
 31
0.0
  0
LINE
  8
JISSEN
 10
1383.7979
 20
3012.178424
 30
0.0
 11
1741.280022
 21
3012.178424
 31
0.0
  0
LINE
  8
JISSEN
 10
1393.7979
 20
3012.178424
 30
0.0
 11
1403.7979
 21
2968.114495
 31
0.0
  0
LINE
  8
JISSEN
 10
1403.7979
 20
2968.114495
 30
0.0
 11
1441.280022
 21
2968.114495
 31
0.0
  0
LINE
  8
JISSEN
 10
1441.280022
 20
2968.114495
 30
0.0
 11
1441.280022
 21
2902.178424
 31
0.0
  0
LINE
  8
JISSEN
 10
1441.280022
 20
2968.114495
 30
0.0
 11
1741.280022
 21
2968.114495
 31
0.0
  0
LINE
  8
JISSEN
 10
2098.762144
 20
3012.178424
 30
0.0
 11
1741.280022
 21
3012.178424
 31
0.0
  0
LINE
  8
JISSEN
 10
2088.762144
 20
3012.178424
 30
0.0
 11
2078.762144
 21
2968.114495
 31
0.0
  0
LINE
  8
JISSEN
 10
2088.762144
 20
2958.114495
 30
0.0
 11
2098.762144
 21
3012.178424
 31
0.0
  0
LINE
  8
JISSEN
 10
2098.762144
 20
3012.178424
 30
0.0
 11
2151.280022
 21
2912.178424
 31
0.0
  0
LINE
  8
JISSEN
 10
2078.762144
 20
2968.114495
 30
0.0
 11
2041.280022
 21
2968.114495
 31
0.0
  0
LINE
  8
JISSEN
 10
2051.280022
 20
2958.114495
 30
0.0
 11
2088.762144
 21
2958.114495
 31
0.0
  0
LINE
  8
JISSEN
 10
2041.280022
 20
2968.114495
 30
0.0
 11
2041.280022
 21
2902.178424
 31
0.0
  0
LINE
  8
JISSEN
 10
2051.280022
 20
2912.178424
 30
0.0
 11
2051.280022
 21
2958.114495
 31
0.0
  0
LINE
  8
JISSEN
 10
2098.762144
 20
2912.178424
 30
0.0
 11
2051.280022
 21
2912.178424
 31
0.0
  0
LINE
  8
JISSEN
 10
2151.280022
 20
2912.178424
 30
0.0
 11
2098.762144
 21
2912.178424
 31
0.0
  0
LINE
  8
JISSEN
 10
2151.280022
 20
2902.178424
 30
0.0
 11
2151.280022
 21
2912.178424
 31
0.0
  0
LINE
  8
JISSEN
 10
2041.280022
 20
2968.114495
 30
0.0
 11
1741.280022
 21
2968.114495
 31
0.0
  0
LINE
  8
JISSEN
 10
2151.280022
 20
2902.178424
 30
0.0
 11
1741.280022
 21
2902.178424
 31
0.0
  0
POLYLINE
  8
HATCH
 66
     1
 10
0.0
 20
0.0
 30
0.0
  0
VERTEX
  8
HATCH
 10
2113.502926
 20
962.215047
 30
0.0
  0
VERTEX
  8
HATCH
 10
2140.31352
 20
962.215047
 30
0.0
  0
VERTEX
  8
HATCH
 10
2141.151351
 20
971.956853
 30
0.0
  0
VERTEX
  8
HATCH
 10
2132.77304
 20
985.800471
 30
0.0
  0
VERTEX
  8
HATCH
 10
2127.746054
 20
979.135025
 30
0.0
  0
VERTEX
  8
HATCH
 10
2116.016419
 20
967.85504
 30
0.0
  0
VERTEX
  8
HATCH
 10
2116.016419
 20
962.215047
 30
0.0
  0
SEQEND
  8
HATCH
  0
POLYLINE
  8
HATCH
 66
     1
 10
0.0
 20
0.0
 30
0.0
  0
VERTEX
  8
HATCH
 10
2131.935209
 20
1116.033029
 30
0.0
  0
VERTEX
  8
HATCH
 10
2136.124365
 20
1127.313014
 30
0.0
  0
VERTEX
  8
HATCH
 10
2141.151351
 20
1142.694813
 30
0.0
  0
VERTEX
  8
HATCH
 10
2132.77304
 20
1159.614791
 30
0.0
  0
VERTEX
  8
HATCH
 10
2122.719068
 20
1159.614791
 30
0.0
  0
VERTEX
  8
HATCH
 10
2110.989433
 20
1153.462071
 30
0.0
  0
VERTEX
  8
HATCH
 10
2112.665095
 20
1149.360259
 30
0.0
  0
VERTEX
  8
HATCH
 10
2120.205575
 20
1132.440281
 30
0.0
  0
VERTEX
  8
HATCH
 10
2126.908223
 20
1120.134842
 30
0.0
  0
VERTEX
  8
HATCH
 10
2131.935209
 20
1116.033029
 30
0.0
  0
SEQEND
  8
HATCH
  0
POLYLINE
  8
HATCH
 66
     1
 10
0.0
 20
0.0
 30
0.0
  0
VERTEX
  8
HATCH
 10
2007.936214
 20
1120.134842
 30
0.0
  0
VERTEX
  8
HATCH
 10
2020.50368
 20
1127.313014
 30
0.0
  0
VERTEX
  8
HATCH
 10
2028.044159
 20
1143.720266
 30
0.0
  0
VERTEX
  8
HATCH
 10
2028.044159
 20
1155.512978
 30
0.0
  0
VERTEX
  8
HATCH
 10
2017.990186
 20
1159.102064
 30
0.0
  0
VERTEX
  8
HATCH
 10
1998.720072
 20
1153.974798
 30
0.0
  0
VERTEX
  8
HATCH
 10
1986.152606
 20
1148.334805
 30
0.0
  0
VERTEX
  8
HATCH
 10
1993.693086
 20
1137.05482
 30
0.0
  0
VERTEX
  8
HATCH
 10
2003.747058
 20
1126.287561
 30
0.0
  0
VERTEX
  8
HATCH
 10
2008.774045
 20
1120.647569
 30
0.0
  0
SEQEND
  8
HATCH
  0
POLYLINE
  8
HATCH
 66
     1
 10
0.0
 20
0.0
 30
0.0
  0
VERTEX
  8
HATCH
 10
2016.314524
 20
962.215047
 30
0.0
  0
VERTEX
  8
HATCH
 10
2028.88199
 20
962.215047
 30
0.0
  0
VERTEX
  8
HATCH
 10
2044.80078
 20
971.956853
 30
0.0
  0
VERTEX
  8
HATCH
 10
2033.908976
 20
986.313198
 30
0.0
  0
VERTEX
  8
HATCH
 10
2021.341511
 20
995.542277
 30
0.0
  0
VERTEX
  8
HATCH
 10
2012.9632
 20
987.851377
 30
0.0
  0
VERTEX
  8
HATCH
 10
2006.260552
 20
983.236838
 30
0.0
  0
VERTEX
  8
HATCH
 10
2008.774045
 20
971.956853
 30
0.0
  0
VERTEX
  8
HATCH
 10
2015.476693
 20
964.77868
 30
0.0
  0
SEQEND
  8
HATCH
  0
POLYLINE
  8
HATCH
 66
     1
 10
0.0
 20
0.0
 30
0.0
  0
VERTEX
  8
HATCH
 10
1893.15336
 20
961.189594
 30
0.0
  0
VERTEX
  8
HATCH
 10
1908.234319
 20
963.753227
 30
0.0
  0
VERTEX
  8
HATCH
 10
1916.612629
 20
977.596845
 30
0.0
  0
VERTEX
  8
HATCH
 10
1905.720825
 20
987.338651
 30
0.0
  0
VERTEX
  8
HATCH
 10
1893.15336
 20
996.055003
 30
0.0
  0
VERTEX
  8
HATCH
 10
1884.775049
 20
987.338651
 30
0.0
  0
VERTEX
  8
HATCH
 10
1883.099387
 20
981.698658
 30
0.0
  0
VERTEX
  8
HATCH
 10
1883.937218
 20
970.931399
 30
0.0
  0
VERTEX
  8
HATCH
 10
1890.639866
 20
961.189594
 30
0.0
  0
SEQEND
  8
HATCH
  0
POLYLINE
  8
HATCH
 66
     1
 10
0.0
 20
0.0
 30
0.0
  0
VERTEX
  8
HATCH
 10
1892.315529
 20
1120.134842
 30
0.0
  0
VERTEX
  8
HATCH
 10
1906.558656
 20
1141.156633
 30
0.0
  0
VERTEX
  8
HATCH
 10
1907.396487
 20
1149.360259
 30
0.0
  0
VERTEX
  8
HATCH
 10
1899.856008
 20
1159.614791
 30
0.0
  0
VERTEX
  8
HATCH
 10
1887.288542
 20
1158.076611
 30
0.0
  0
VERTEX
  8
HATCH
 10
1878.072401
 20
1153.974798
 30
0.0
  0
VERTEX
  8
HATCH
 10
1869.69409
 20
1147.822079
 30
0.0
  0
VERTEX
  8
HATCH
 10
1869.69409
 20
1139.618453
 30
0.0
  0
VERTEX
  8
HATCH
 10
1875.558907
 20
1130.389374
 30
0.0
  0
VERTEX
  8
HATCH
 10
1881.423725
 20
1123.211202
 30
0.0
  0
VERTEX
  8
HATCH
 10
1888.126373
 20
1119.109389
 30
0.0
  0
SEQEND
  8
HATCH
  0
POLYLINE
  8
HATCH
 66
     1
 10
0.0
 20
0.0
 30
0.0
  0
VERTEX
  8
HATCH
 10
1735.57108
 20
1133.463212
 30
0.0
  0
VERTEX
  8
HATCH
 10
1748.138545
 20
1134.488666
 30
0.0
  0
VERTEX
  8
HATCH
 10
1763.219504
 20
1141.666838
 30
0.0
  0
VERTEX
  8
HATCH
 10
1756.516856
 20
1154.485003
 30
0.0
  0
VERTEX
  8
HATCH
 10
1744.787221
 20
1158.586816
 30
0.0
  0
VERTEX
  8
HATCH
 10
1729.706262
 20
1154.485003
 30
0.0
  0
VERTEX
  8
HATCH
 10
1728.868431
 20
1148.332284
 30
0.0
  0
VERTEX
  8
HATCH
 10
1730.544093
 20
1139.103205
 30
0.0
  0
SEQEND
  8
HATCH
  0
POLYLINE
  8
HATCH
 66
     1
 10
0.0
 20
0.0
 30
0.0
  0
VERTEX
  8
HATCH
 10
1744.787221
 20
961.187072
 30
0.0
  0
VERTEX
  8
HATCH
 10
1762.381673
 20
969.390698
 30
0.0
  0
VERTEX
  8
HATCH
 10
1767.40866
 20
979.64523
 30
0.0
  0
VERTEX
  8
HATCH
 10
1754.003363
 20
990.925216
 30
0.0
  0
VERTEX
  8
HATCH
 10
1734.733249
 20
1002.205201
 30
0.0
  0
VERTEX
  8
HATCH
 10
1727.192769
 20
996.052482
 30
0.0
  0
VERTEX
  8
HATCH
 10
1720.490121
 20
983.234317
 30
0.0
  0
VERTEX
  8
HATCH
 10
1731.381924
 20
966.827065
 30
0.0
  0
VERTEX
  8
HATCH
 10
1738.084573
 20
962.212526
 30
0.0
  0
VERTEX
  8
HATCH
 10
1742.273728
 20
962.212526
 30
0.0
  0
SEQEND
  8
HATCH
  0
POLYLINE
  8
HATCH
 66
     1
 10
0.0
 20
0.0
 30
0.0
  0
VERTEX
  8
HATCH
 10
1843.692487
 20
963.245543
 30
0.0
  0
VERTEX
  8
HATCH
 10
1868.827418
 20
981.703701
 30
0.0
  0
VERTEX
  8
HATCH
 10
1878.04356
 20
1006.314578
 30
0.0
  0
VERTEX
  8
HATCH
 10
1881.394884
 20
1058.099965
 30
0.0
  0
VERTEX
  8
HATCH
 10
1873.854405
 20
1103.219907
 30
0.0
  0
VERTEX
  8
HATCH
 10
1858.773446
 20
1138.085316
 30
0.0
  0
VERTEX
  8
HATCH
 10
1844.530318
 20
1160.645287
 30
0.0
  0
VERTEX
  8
HATCH
 10
1794.260455
 20
1157.568927
 30
0.0
  0
VERTEX
  8
HATCH
 10
1769.125523
 20
1140.648949
 30
0.0
  0
VERTEX
  8
HATCH
 10
1761.585044
 20
1125.267151
 30
0.0
  0
VERTEX
  8
HATCH
 10
1759.07155
 20
1093.478101
 30
0.0
  0
VERTEX
  8
HATCH
 10
1758.233719
 20
1062.201778
 30
0.0
  0
VERTEX
  8
HATCH
 10
1759.07155
 20
1015.03093
 30
0.0
  0
VERTEX
  8
HATCH
 10
1775.828171
 20
989.907327
 30
0.0
  0
VERTEX
  8
HATCH
 10
1796.773948
 20
970.423716
 30
0.0
  0
VERTEX
  8
HATCH
 10
1842.854656
 20
962.22009
 30
0.0
  0
SEQEND
  8
HATCH
  0
POLYLINE
  8
HATCH
 66
     1
 10
0.0
 20
0.0
 30
0.0
  0
VERTEX
  8
HATCH
 10
1978.612127
 20
960.676867
 30
0.0
  0
VERTEX
  8
HATCH
 10
2003.747058
 20
979.135025
 30
0.0
  0
VERTEX
  8
HATCH
 10
2012.9632
 20
1003.745902
 30
0.0
  0
VERTEX
  8
HATCH
 10
2016.314524
 20
1055.53129
 30
0.0
  0
VERTEX
  8
HATCH
 10
2008.774045
 20
1100.651231
 30
0.0
  0
VERTEX
  8
HATCH
 10
1993.693086
 20
1135.51664
 30
0.0
  0
VERTEX
  8
HATCH
 10
1979.449958
 20
1158.076611
 30
0.0
  0
VERTEX
  8
HATCH
 10
1929.180095
 20
1155.000251
 30
0.0
  0
VERTEX
  8
HATCH
 10
1904.045163
 20
1138.080273
 30
0.0
  0
VERTEX
  8
HATCH
 10
1896.504684
 20
1122.698475
 30
0.0
  0
VERTEX
  8
HATCH
 10
1893.991191
 20
1090.909425
 30
0.0
  0
VERTEX
  8
HATCH
 10
1893.15336
 20
1059.633102
 30
0.0
  0
VERTEX
  8
HATCH
 10
1893.991191
 20
1012.462255
 30
0.0
  0
VERTEX
  8
HATCH
 10
1910.747812
 20
987.338651
 30
0.0
  0
VERTEX
  8
HATCH
 10
1931.693588
 20
967.85504
 30
0.0
  0
VERTEX
  8
HATCH
 10
1977.774296
 20
959.651414
 30
0.0
  0
SEQEND
  8
HATCH
  0
POLYLINE
  8
HATCH
 66
     1
 10
0.0
 20
0.0
 30
0.0
  0
VERTEX
  8
HATCH
 10
2102.611123
 20
962.215047
 30
0.0
  0
VERTEX
  8
HATCH
 10
2127.746054
 20
980.673205
 30
0.0
  0
VERTEX
  8
HATCH
 10
2136.962196
 20
1005.284082
 30
0.0
  0
VERTEX
  8
HATCH
 10
2140.31352
 20
1057.069469
 30
0.0
  0
VERTEX
  8
HATCH
 10
2132.77304
 20
1102.189411
 30
0.0
  0
VERTEX
  8
HATCH
 10
2117.692082
 20
1137.05482
 30
0.0
  0
VERTEX
  8
HATCH
 10
2103.448954
 20
1159.614791
 30
0.0
  0
VERTEX
  8
HATCH
 10
2053.179091
 20
1156.538431
 30
0.0
  0
VERTEX
  8
HATCH
 10
2028.044159
 20
1139.618453
 30
0.0
  0
VERTEX
  8
HATCH
 10
2020.50368
 20
1124.236655
 30
0.0
  0
VERTEX
  8
HATCH
 10
2017.990186
 20
1092.447605
 30
0.0
  0
VERTEX
  8
HATCH
 10
2017.152355
 20
1061.171282
 30
0.0
  0
VERTEX
  8
HATCH
 10
2017.990186
 20
1014.000434
 30
0.0
  0
VERTEX
  8
HATCH
 10
2034.746807
 20
988.876831
 30
0.0
  0
VERTEX
  8
HATCH
 10
2055.692584
 20
969.39322
 30
0.0
  0
VERTEX
  8
HATCH
 10
2101.773292
 20
961.189594
 30
0.0
  0
SEQEND
  8
HATCH
  0
POLYLINE
  8
HATCH
 66
     1
 10
0.0
 20
0.0
 30
0.0
  0
VERTEX
  8
HATCH
 10
1369.057117
 20
962.215047
 30
0.0
  0
VERTEX
  8
HATCH
 10
1342.246523
 20
962.215047
 30
0.0
  0
VERTEX
  8
HATCH
 10
1341.408692
 20
971.956853
 30
0.0
  0
VERTEX
  8
HATCH
 10
1349.787003
 20
985.800471
 30
0.0
  0
VERTEX
  8
HATCH
 10
1354.813989
 20
979.135025
 30
0.0
  0
VERTEX
  8
HATCH
 10
1366.543624
 20
967.85504
 30
0.0
  0
VERTEX
  8
HATCH
 10
1366.543624
 20
962.215047
 30
0.0
  0
SEQEND
  8
HATCH
  0
POLYLINE
  8
HATCH
 66
     1
 10
0.0
 20
0.0
 30
0.0
  0
VERTEX
  8
HATCH
 10
1589.406683
 20
961.189594
 30
0.0
  0
VERTEX
  8
HATCH
 10
1574.325725
 20
963.753227
 30
0.0
  0
VERTEX
  8
HATCH
 10
1565.947414
 20
977.596845
 30
0.0
  0
VERTEX
  8
HATCH
 10
1576.839218
 20
987.338651
 30
0.0
  0
VERTEX
  8
HATCH
 10
1589.406683
 20
996.055003
 30
0.0
  0
VERTEX
  8
HATCH
 10
1597.784994
 20
987.338651
 30
0.0
  0
VERTEX
  8
HATCH
 10
1599.460656
 20
981.698658
 30
0.0
  0
VERTEX
  8
HATCH
 10
1598.622825
 20
970.931399
 30
0.0
  0
VERTEX
  8
HATCH
 10
1591.920177
 20
961.189594
 30
0.0
  0
SEQEND
  8
HATCH
  0
POLYLINE
  8
HATCH
 66
     1
 10
0.0
 20
0.0
 30
0.0
  0
VERTEX
  8
HATCH
 10
1590.244515
 20
1120.134842
 30
0.0
  0
VERTEX
  8
HATCH
 10
1576.001387
 20
1141.156633
 30
0.0
  0
VERTEX
  8
HATCH
 10
1575.163556
 20
1149.360259
 30
0.0
  0
VERTEX
  8
HATCH
 10
1582.704035
 20
1159.614791
 30
0.0
  0
VERTEX
  8
HATCH
 10
1595.271501
 20
1158.076611
 30
0.0
  0
VERTEX
  8
HATCH
 10
1604.487642
 20
1153.974798
 30
0.0
  0
VERTEX
  8
HATCH
 10
1612.865953
 20
1147.822079
 30
0.0
  0
VERTEX
  8
HATCH
 10
1612.865953
 20
1139.618453
 30
0.0
  0
VERTEX
  8
HATCH
 10
1607.001136
 20
1130.389374
 30
0.0
  0
VERTEX
  8
HATCH
 10
1601.136318
 20
1123.211202
 30
0.0
  0
VERTEX
  8
HATCH
 10
1594.43367
 20
1119.109389
 30
0.0
  0
SEQEND
  8
HATCH
  0
POLYLINE
  8
HATCH
 66
     1
 10
0.0
 20
0.0
 30
0.0
  0
VERTEX
  8
HATCH
 10
1350.624834
 20
1116.033029
 30
0.0
  0
VERTEX
  8
HATCH
 10
1346.435678
 20
1127.313014
 30
0.0
  0
VERTEX
  8
HATCH
 10
1341.408692
 20
1142.694813
 30
0.0
  0
VERTEX
  8
HATCH
 10
1349.787003
 20
1159.614791
 30
0.0
  0
VERTEX
  8
HATCH
 10
1359.840975
 20
1159.614791
 30
0.0
  0
VERTEX
  8
HATCH
 10
1371.57061
 20
1153.462071
 30
0.0
  0
VERTEX
  8
HATCH
 10
1369.894948
 20
1149.360259
 30
0.0
  0
VERTEX
  8
HATCH
 10
1362.354468
 20
1132.440281
 30
0.0
  0
VERTEX
  8
HATCH
 10
1355.65182
 20
1120.134842
 30
0.0
  0
VERTEX
  8
HATCH
 10
1350.624834
 20
1116.033029
 30
0.0
  0
SEQEND
  8
HATCH
  0
POLYLINE
  8
HATCH
 66
     1
 10
0.0
 20
0.0
 30
0.0
  0
VERTEX
  8
HATCH
 10
1474.623829
 20
1120.134842
 30
0.0
  0
VERTEX
  8
HATCH
 10
1462.056364
 20
1127.313014
 30
0.0
  0
VERTEX
  8
HATCH
 10
1454.515884
 20
1143.720266
 30
0.0
  0
VERTEX
  8
HATCH
 10
1454.515884
 20
1155.512978
 30
0.0
  0
VERTEX
  8
HATCH
 10
1464.569857
 20
1159.102064
 30
0.0
  0
VERTEX
  8
HATCH
 10
1483.839971
 20
1153.974798
 30
0.0
  0
VERTEX
  8
HATCH
 10
1496.407437
 20
1148.334805
 30
0.0
  0
VERTEX
  8
HATCH
 10
1488.866957
 20
1137.05482
 30
0.0
  0
VERTEX
  8
HATCH
 10
1478.812985
 20
1126.287561
 30
0.0
  0
VERTEX
  8
HATCH
 10
1473.785998
 20
1120.647569
 30
0.0
  0
SEQEND
  8
HATCH
  0
POLYLINE
  8
HATCH
 66
     1
 10
0.0
 20
0.0
 30
0.0
  0
VERTEX
  8
HATCH
 10
1466.245519
 20
962.215047
 30
0.0
  0
VERTEX
  8
HATCH
 10
1453.678053
 20
962.215047
 30
0.0
  0
VERTEX
  8
HATCH
 10
1437.759263
 20
971.956853
 30
0.0
  0
VERTEX
  8
HATCH
 10
1448.651067
 20
986.313198
 30
0.0
  0
VERTEX
  8
HATCH
 10
1461.218533
 20
995.542277
 30
0.0
  0
VERTEX
  8
HATCH
 10
1469.596843
 20
987.851377
 30
0.0
  0
VERTEX
  8
HATCH
 10
1476.299491
 20
983.236838
 30
0.0
  0
VERTEX
  8
HATCH
 10
1473.785998
 20
971.956853
 30
0.0
  0
VERTEX
  8
HATCH
 10
1467.08335
 20
964.77868
 30
0.0
  0
SEQEND
  8
HATCH
  0
POLYLINE
  8
HATCH
 66
     1
 10
0.0
 20
0.0
 30
0.0
  0
VERTEX
  8
HATCH
 10
1643.906903
 20
962.217568
 30
0.0
  0
VERTEX
  8
HATCH
 10
1618.771972
 20
980.675726
 30
0.0
  0
VERTEX
  8
HATCH
 10
1609.55583
 20
1005.286603
 30
0.0
  0
VERTEX
  8
HATCH
 10
1606.204506
 20
1057.071991
 30
0.0
  0
VERTEX
  8
HATCH
 10
1613.744985
 20
1102.191932
 30
0.0
  0
VERTEX
  8
HATCH
 10
1628.825944
 20
1137.057341
 30
0.0
  0
VERTEX
  8
HATCH
 10
1643.069072
 20
1159.617312
 30
0.0
  0
VERTEX
  8
HATCH
 10
1693.338935
 20
1156.540952
 30
0.0
  0
VERTEX
  8
HATCH
 10
1718.473867
 20
1139.620974
 30
0.0
  0
VERTEX
  8
HATCH
 10
1726.014346
 20
1124.239176
 30
0.0
  0
VERTEX
  8
HATCH
 10
1728.527839
 20
1092.450127
 30
0.0
  0
VERTEX
  8
HATCH
 10
1729.36567
 20
1061.173804
 30
0.0
  0
VERTEX
  8
HATCH
 10
1728.527839
 20
1014.002956
 30
0.0
  0
VERTEX
  8
HATCH
 10
1711.771218
 20
988.879352
 30
0.0
  0
VERTEX
  8
HATCH
 10
1690.825442
 20
969.395741
 30
0.0
  0
VERTEX
  8
HATCH
 10
1644.744734
 20
961.192115
 30
0.0
  0
SEQEND
  8
HATCH
  0
POLYLINE
  8
HATCH
 66
     1
 10
0.0
 20
0.0
 30
0.0
  0
VERTEX
  8
HATCH
 10
1503.947916
 20
960.676867
 30
0.0
  0
VERTEX
  8
HATCH
 10
1478.812985
 20
979.135025
 30
0.0
  0
VERTEX
  8
HATCH
 10
1469.596843
 20
1003.745902
 30
0.0
  0
VERTEX
  8
HATCH
 10
1466.245519
 20
1055.53129
 30
0.0
  0
VERTEX
  8
HATCH
 10
1473.785998
 20
1100.651231
 30
0.0
  0
VERTEX
  8
HATCH
 10
1488.866957
 20
1135.51664
 30
0.0
  0
VERTEX
  8
HATCH
 10
1503.110085
 20
1158.076611
 30
0.0
  0
VERTEX
  8
HATCH
 10
1553.379948
 20
1155.000251
 30
0.0
  0
VERTEX
  8
HATCH
 10
1578.51488
 20
1138.080273
 30
0.0
  0
VERTEX
  8
HATCH
 10
1586.055359
 20
1122.698475
 30
0.0
  0
VERTEX
  8
HATCH
 10
1588.568852
 20
1090.909425
 30
0.0
  0
VERTEX
  8
HATCH
 10
1589.406683
 20
1059.633102
 30
0.0
  0
VERTEX
  8
HATCH
 10
1588.568852
 20
1012.462255
 30
0.0
  0
VERTEX
  8
HATCH
 10
1571.812231
 20
987.338651
 30
0.0
  0
VERTEX
  8
HATCH
 10
1550.866455
 20
967.85504
 30
0.0
  0
VERTEX
  8
HATCH
 10
1504.785747
 20
959.651414
 30
0.0
  0
SEQEND
  8
HATCH
  0
POLYLINE
  8
HATCH
 66
     1
 10
0.0
 20
0.0
 30
0.0
  0
VERTEX
  8
HATCH
 10
1379.94892
 20
962.215047
 30
0.0
  0
VERTEX
  8
HATCH
 10
1354.813989
 20
980.673205
 30
0.0
  0
VERTEX
  8
HATCH
 10
1345.597847
 20
1005.284082
 30
0.0
  0
VERTEX
  8
HATCH
 10
1342.246523
 20
1057.069469
 30
0.0
  0
VERTEX
  8
HATCH
 10
1349.787003
 20
1102.189411
 30
0.0
  0
VERTEX
  8
HATCH
 10
1364.867962
 20
1137.05482
 30
0.0
  0
VERTEX
  8
HATCH
 10
1379.111089
 20
1159.614791
 30
0.0
  0
VERTEX
  8
HATCH
 10
1429.380953
 20
1156.538431
 30
0.0
  0
VERTEX
  8
HATCH
 10
1454.515884
 20
1139.618453
 30
0.0
  0
VERTEX
  8
HATCH
 10
1462.056364
 20
1124.236655
 30
0.0
  0
VERTEX
  8
HATCH
 10
1464.569857
 20
1092.447605
 30
0.0
  0
VERTEX
  8
HATCH
 10
1465.407688
 20
1061.171282
 30
0.0
  0
VERTEX
  8
HATCH
 10
1464.569857
 20
1014.000434
 30
0.0
  0
VERTEX
  8
HATCH
 10
1447.813236
 20
988.876831
 30
0.0
  0
VERTEX
  8
HATCH
 10
1426.867459
 20
969.39322
 30
0.0
  0
VERTEX
  8
HATCH
 10
1380.786752
 20
961.189594
 30
0.0
  0
SEQEND
  8
HATCH
  0
LINE
  8
JISSEN
 10
1341.280022
 20
962.178424
 30
0.0
 11
2141.280022
 21
962.178424
 31
0.0
  0
LINE
  8
JISSEN
 10
2141.280022
 20
1162.178424
 30
0.0
 11
2141.280022
 21
962.178424
 31
0.0
  0
LINE
  8
JISSEN
 10
1341.280022
 20
1162.178424
 30
0.0
 11
1341.280022
 21
962.178424
 31
0.0
  0
LINE
  8
JISSEN
 10
1641.280022
 20
1162.178424
 30
0.0
 11
1341.280022
 21
1162.178424
 31
0.0
  0
LINE
  8
JISSEN
 10
1841.280022
 20
1162.178424
 30
0.0
 11
1641.280022
 21
1162.178424
 31
0.0
  0
LINE
  8
JISSEN
 10
2141.280022
 20
1162.178424
 30
0.0
 11
1841.280022
 21
1162.178424
 31
0.0
  0
LINE
  8
ITTEN
 10
1741.280022
 20
3112.178424
 30
0.0
 11
1741.280022
 21
1062.178424
 31
0.0
  0
LINE
  8
SUNPOU
 10
1331.280022
 20
2942.178424
 30
0.0
 11
1331.280022
 21
3342.178424
 31
0.0
  0
LINE
  8
SUNPOU
 10
2151.280022
 20
2942.178424
 30
0.0
 11
2151.280022
 21
3342.178424
 31
0.0
  0
LINE
  8
SUNPOU
 10
1331.280022
 20
3312.178424
 30
0.0
 11
2151.280022
 21
3312.178424
 31
0.0
  0
INSERT
  8
SUNPOU
  2
ARROWANG
 10
1331.280022
 20
3312.178424
 30
0.0
 41
30.0
 42
30.0
 50
180.0
 43
30.0
  0
INSERT
  8
SUNPOU
  2
ARROWANG
 10
2151.280022
 20
3312.178424
 30
0.0
 41
30.0
 42
30.0
 43
30.0
  0
TEXT
  8
SUNPOU
 10
1676.994322
 20
3357.178424
 30
0.0
 40
45.0
  1
820
  7
K
 72
     1
 11
1741.280036
 21
3357.178424
 31
0.0
  0
LINE
  8
SUNPOU
 10
1441.280022
 20
2998.114495
 30
0.0
 11
1441.280022
 21
3192.178424
 31
0.0
  0
LINE
  8
SUNPOU
 10
2041.280022
 20
2998.114495
 30
0.0
 11
2041.280022
 21
3192.178424
 31
0.0
  0
LINE
  8
SUNPOU
 10
1441.280022
 20
3162.178424
 30
0.0
 11
2041.280022
 21
3162.178424
 31
0.0
  0
INSERT
  8
SUNPOU
  2
ARROWANG
 10
1441.280022
 20
3162.178424
 30
0.0
 41
30.0
 42
30.0
 50
180.0
 43
30.0
  0
INSERT
  8
SUNPOU
  2
ARROWANG
 10
2041.280022
 20
3162.178424
 30
0.0
 41
30.0
 42
30.0
 43
30.0
  0
TEXT
  8
SUNPOU
 10
1675.922893
 20
3207.178424
 30
0.0
 40
45.0
  1
600
  7
K
 72
     1
 11
1741.280036
 21
3207.178424
 31
0.0
  0
LINE
  8
SUNPOU
 10
1331.280022
 20
3132.178424
 30
0.0
 11
1331.280022
 21
3132.178424
 31
0.0
  0
LINE
  8
SUNPOU
 10
1441.280022
 20
3132.178424
 30
0.0
 11
1441.280022
 21
3132.178424
 31
0.0
  0
LINE
  8
SUNPOU
 10
1331.280022
 20
3162.178424
 30
0.0
 11
1441.280022
 21
3162.178424
 31
0.0
  0
INSERT
  8
SUNPOU
  2
ARROWANG
 10
1331.280022
 20
3162.178424
 30
0.0
 41
30.0
 42
30.0
 50
180.0
 43
30.0
  0
INSERT
  8
SUNPOU
  2
ARROWANG
 10
1441.280022
 20
3162.178424
 30
0.0
 41
30.0
 42
30.0
 43
30.0
  0
TEXT
  8
SUNPOU
 10
1318.780036
 20
3207.178424
 30
0.0
 40
45.0
  1
110
  7
K
 72
     1
 11
1386.280036
 21
3207.178424
 31
0.0
  0
LINE
  8
SUNPOU
 10
2041.280022
 20
3132.178424
 30
0.0
 11
2041.280022
 21
3132.178424
 31
0.0
  0
LINE
  8
SUNPOU
 10
2151.280022
 20
3132.178424
 30
0.0
 11
2151.280022
 21
3132.178424
 31
0.0
  0
LINE
  8
SUNPOU
 10
2041.280022
 20
3162.178424
 30
0.0
 11
2151.280022
 21
3162.178424
 31
0.0
  0
INSERT
  8
SUNPOU
  2
ARROWANG
 10
2041.280022
 20
3162.178424
 30
0.0
 41
30.0
 42
30.0
 50
180.0
 43
30.0
  0
INSERT
  8
SUNPOU
  2
ARROWANG
 10
2151.280022
 20
3162.178424
 30
0.0
 41
30.0
 42
30.0
 43
30.0
  0
TEXT
  8
SUNPOU
 10
2028.780036
 20
3207.178424
 30
0.0
 40
45.0
  1
110
  7
K
 72
     1
 11
2096.280036
 21
3207.178424
 31
0.0
  0
LINE
  8
SUNPOU
 10
1366.280022
 20
2225.5253
 30
0.0
 11
1366.280022
 21
2225.5253
 31
0.0
  0
LINE
  8
SUNPOU
 10
1441.280022
 20
2225.5253
 30
0.0
 11
1441.280022
 21
2225.5253
 31
0.0
  0
LINE
  8
SUNPOU
 10
1366.280022
 20
2195.5253
 30
0.0
 11
1441.280022
 21
2195.5253
 31
0.0
  0
INSERT
  8
SUNPOU
  2
ARROWANG
 10
1441.280022
 20
2195.5253
 30
0.0
 41
30.0
 42
30.0
 50
180.0
 43
30.0
  0
INSERT
  8
SUNPOU
  2
ARROWANG
 10
1366.280022
 20
2195.5253
 30
0.0
 41
30.0
 42
30.0
 43
30.0
  0
LINE
  8
SUNPOU
 10
1366.280022
 20
2195.5253
 30
0.0
 11
1267.280022
 21
2195.5253
 31
0.0
  0
LINE
  8
SUNPOU
 10
1441.280022
 20
2195.5253
 30
0.0
 11
1501.280022
 21
2195.5253
 31
0.0
  0
TEXT
  8
SUNPOU
 10
1273.922879
 20
2240.5253
 30
0.0
 40
45.0
  1
75
  7
K
 72
     1
 11
1316.780022
 21
2240.5253
 31
0.0
  0
LINE
  8
SUNPOU
 10
1441.280022
 20
2165.5253
 30
0.0
 11
1441.280022
 21
2165.5253
 31
0.0
  0
LINE
  8
SUNPOU
 10
2041.280022
 20
2165.5253
 30
0.0
 11
2041.280022
 21
2165.5253
 31
0.0
  0
LINE
  8
SUNPOU
 10
1441.280022
 20
2195.5253
 30
0.0
 11
2041.280022
 21
2195.5253
 31
0.0
  0
INSERT
  8
SUNPOU
  2
ARROWANG
 10
1441.280022
 20
2195.5253
 30
0.0
 41
30.0
 42
30.0
 50
180.0
 43
30.0
  0
INSERT
  8
SUNPOU
  2
ARROWANG
 10
2041.280022
 20
2195.5253
 30
0.0
 41
30.0
 42
30.0
 43
30.0
  0
TEXT
  8
SUNPOU
 10
1675.922893
 20
2240.5253
 30
0.0
 40
45.0
  1
600
  7
K
 72
     1
 11
1741.280036
 21
2240.5253
 31
0.0
  0
LINE
  8
SUNPOU
 10
2041.280022
 20
2225.5253
 30
0.0
 11
2041.280022
 21
2225.5253
 31
0.0
  0
LINE
  8
SUNPOU
 10
2116.280022
 20
2225.5253
 30
0.0
 11
2116.280022
 21
2225.5253
 31
0.0
  0
LINE
  8
SUNPOU
 10
2041.280022
 20
2195.5253
 30
0.0
 11
2116.280022
 21
2195.5253
 31
0.0
  0
INSERT
  8
SUNPOU
  2
ARROWANG
 10
2116.280022
 20
2195.5253
 30
0.0
 41
30.0
 42
30.0
 50
180.0
 43
30.0
  0
INSERT
  8
SUNPOU
  2
ARROWANG
 10
2041.280022
 20
2195.5253
 30
0.0
 41
30.0
 42
30.0
 43
30.0
  0
LINE
  8
SUNPOU
 10
2116.280022
 20
2195.5253
 30
0.0
 11
2215.280022
 21
2195.5253
 31
0.0
  0
LINE
  8
SUNPOU
 10
2041.280022
 20
2195.5253
 30
0.0
 11
1981.280022
 21
2195.5253
 31
0.0
  0
TEXT
  8
SUNPOU
 10
2122.922879
 20
2240.5253
 30
0.0
 40
45.0
  1
75
  7
K
 72
     1
 11
2165.780022
 21
2240.5253
 31
0.0
  0
LINE
  8
SUNPOU
 10
1341.280022
 20
932.178424
 30
0.0
 11
1341.280022
 21
632.178424
 31
0.0
  0
LINE
  8
SUNPOU
 10
2141.280022
 20
932.178424
 30
0.0
 11
2141.280022
 21
632.178424
 31
0.0
  0
LINE
  8
SUNPOU
 10
1341.280022
 20
662.178424
 30
0.0
 11
2141.280022
 21
662.178424
 31
0.0
  0
INSERT
  8
SUNPOU
  2
ARROWANG
 10
1341.280022
 20
662.178424
 30
0.0
 41
30.0
 42
30.0
 50
180.0
 43
30.0
  0
INSERT
  8
SUNPOU
  2
ARROWANG
 10
2141.280022
 20
662.178424
 30
0.0
 41
30.0
 42
30.0
 43
30.0
  0
TEXT
  8
SUNPOU
 10
1676.994322
 20
707.178424
 30
0.0
 40
45.0
  1
800
  7
K
 72
     1
 11
1741.280036
 21
707.178424
 31
0.0
  0
LINE
  8
SUNPOU
 10
1341.280022
 20
782.178424
 30
0.0
 11
1341.280022
 21
782.178424
 31
0.0
  0
LINE
  8
SUNPOU
 10
1591.280022
 20
1132.178424
 30
0.0
 11
1591.280022
 21
782.178424
 31
0.0
  0
LINE
  8
SUNPOU
 10
1341.280022
 20
812.178424
 30
0.0
 11
1591.280022
 21
812.178424
 31
0.0
  0
INSERT
  8
SUNPOU
  2
ARROWANG
 10
1341.280022
 20
812.178424
 30
0.0
 41
30.0
 42
30.0
 50
180.0
 43
30.0
  0
INSERT
  8
SUNPOU
  2
ARROWANG
 10
1591.280022
 20
812.178424
 30
0.0
 41
30.0
 42
30.0
 43
30.0
  0
TEXT
  8
SUNPOU
 10
1401.994322
 20
857.178424
 30
0.0
 40
45.0
  1
250
  7
K
 72
     1
 11
1466.280036
 21
857.178424
 31
0.0
  0
LINE
  8
SUNPOU
 10
1591.280022
 20
842.178424
 30
0.0
 11
1591.280022
 21
842.178424
 31
0.0
  0
LINE
  8
SUNPOU
 10
1891.280022
 20
1132.178424
 30
0.0
 11
1891.280022
 21
782.178424
 31
0.0
  0
LINE
  8
SUNPOU
 10
1591.280022
 20
812.178424
 30
0.0
 11
1891.280022
 21
812.178424
 31
0.0
  0
INSERT
  8
SUNPOU
  2
ARROWANG
 10
1891.280022
 20
812.178424
 30
0.0
 41
30.0
 42
30.0
 43
30.0
  0
INSERT
  8
SUNPOU
  2
ARROWANG
 10
1591.280022
 20
812.178424
 30
0.0
 41
30.0
 42
30.0
 50
180.0
 43
30.0
  0
TEXT
  8
SUNPOU
 10
1676.994307
 20
857.178424
 30
0.0
 40
45.0
  1
300
  7
K
 72
     1
 11
1741.280022
 21
857.178424
 31
0.0
  0
LINE
  8
SUNPOU
 10
1891.280022
 20
782.178424
 30
0.0
 11
1891.280022
 21
782.178424
 31
0.0
  0
LINE
  8
SUNPOU
 10
2141.280022
 20
782.178424
 30
0.0
 11
2141.280022
 21
782.178424
 31
0.0
  0
LINE
  8
SUNPOU
 10
1891.280022
 20
812.178424
 30
0.0
 11
2141.280022
 21
812.178424
 31
0.0
  0
INSERT
  8
SUNPOU
  2
ARROWANG
 10
1891.280022
 20
812.178424
 30
0.0
 41
30.0
 42
30.0
 50
180.0
 43
30.0
  0
INSERT
  8
SUNPOU
  2
ARROWANG
 10
2141.280022
 20
812.178424
 30
0.0
 41
30.0
 42
30.0
 43
30.0
  0
TEXT
  8
SUNPOU
 10
1951.994322
 20
857.178424
 30
0.0
 40
45.0
  1
250
  7
K
 72
     1
 11
2016.280036
 21
857.178424
 31
0.0
  0
TEXT
  8
SUNPOU
 10
5654.726165
 20
857.178424
 30
0.0
 40
45.0
  1
250
  7
K
 72
     1
 11
5719.011879
 21
857.178424
 31
0.0
  0
INSERT
  8
SUNPOU
  2
ARROWANG
 10
5844.011865
 20
812.178424
 30
0.0
 41
30.0
 42
30.0
 43
30.0
  0
INSERT
  8
SUNPOU
  2
ARROWANG
 10
5594.011865
 20
812.178424
 30
0.0
 41
30.0
 42
30.0
 50
180.0
 43
30.0
  0
LINE
  8
SUNPOU
 10
5594.011865
 20
812.178424
 30
0.0
 11
5844.011865
 21
812.178424
 31
0.0
  0
LINE
  8
SUNPOU
 10
5844.011865
 20
782.178424
 30
0.0
 11
5844.011865
 21
782.178424
 31
0.0
  0
LINE
  8
SUNPOU
 10
5594.011865
 20
782.178424
 30
0.0
 11
5594.011865
 21
782.178424
 31
0.0
  0
TEXT
  8
SUNPOU
 10
5379.72615
 20
857.178424
 30
0.0
 40
45.0
  1
300
  7
K
 72
     1
 11
5444.011865
 21
857.178424
 31
0.0
  0
INSERT
  8
SUNPOU
  2
ARROWANG
 10
5294.011865
 20
812.178424
 30
0.0
 41
30.0
 42
30.0
 50
180.0
 43
30.0
  0
INSERT
  8
SUNPOU
  2
ARROWANG
 10
5594.011865
 20
812.178424
 30
0.0
 41
30.0
 42
30.0
 43
30.0
  0
LINE
  8
SUNPOU
 10
5294.011865
 20
812.178424
 30
0.0
 11
5594.011865
 21
812.178424
 31
0.0
  0
LINE
  8
SUNPOU
 10
5594.011865
 20
1132.178424
 30
0.0
 11
5594.011865
 21
782.178424
 31
0.0
  0
LINE
  8
SUNPOU
 10
5294.011865
 20
842.178424
 30
0.0
 11
5294.011865
 21
842.178424
 31
0.0
  0
TEXT
  8
SUNPOU
 10
5104.726165
 20
857.178424
 30
0.0
 40
45.0
  1
250
  7
K
 72
     1
 11
5169.011879
 21
857.178424
 31
0.0
  0
INSERT
  8
SUNPOU
  2
ARROWANG
 10
5294.011865
 20
812.178424
 30
0.0
 41
30.0
 42
30.0
 43
30.0
  0
INSERT
  8
SUNPOU
  2
ARROWANG
 10
5044.011865
 20
812.178424
 30
0.0
 41
30.0
 42
30.0
 50
180.0
 43
30.0
  0
LINE
  8
SUNPOU
 10
5044.011865
 20
812.178424
 30
0.0
 11
5294.011865
 21
812.178424
 31
0.0
  0
LINE
  8
SUNPOU
 10
5294.011865
 20
1132.178424
 30
0.0
 11
5294.011865
 21
782.178424
 31
0.0
  0
LINE
  8
SUNPOU
 10
5044.011865
 20
782.178424
 30
0.0
 11
5044.011865
 21
782.178424
 31
0.0
  0
TEXT
  8
SUNPOU
 10
5379.726165
 20
707.178424
 30
0.0
 40
45.0
  1
800
  7
K
 72
     1
 11
5444.011879
 21
707.178424
 31
0.0
  0
INSERT
  8
SUNPOU
  2
ARROWANG
 10
5844.011865
 20
662.178424
 30
0.0
 41
30.0
 42
30.0
 43
30.0
  0
INSERT
  8
SUNPOU
  2
ARROWANG
 10
5044.011865
 20
662.178424
 30
0.0
 41
30.0
 42
30.0
 50
180.0
 43
30.0
  0
LINE
  8
SUNPOU
 10
5044.011865
 20
662.178424
 30
0.0
 11
5844.011865
 21
662.178424
 31
0.0
  0
LINE
  8
SUNPOU
 10
5844.011865
 20
932.178424
 30
0.0
 11
5844.011865
 21
632.178424
 31
0.0
  0
LINE
  8
SUNPOU
 10
5044.011865
 20
932.178424
 30
0.0
 11
5044.011865
 21
632.178424
 31
0.0
  0
TEXT
  8
SUNPOU
 10
5825.654722
 20
2240.5253
 30
0.0
 40
45.0
  1
75
  7
K
 72
     1
 11
5868.511865
 21
2240.5253
 31
0.0
  0
LINE
  8
SUNPOU
 10
5744.011865
 20
2195.5253
 30
0.0
 11
5684.011865
 21
2195.5253
 31
0.0
  0
LINE
  8
SUNPOU
 10
5819.011865
 20
2195.5253
 30
0.0
 11
5918.011865
 21
2195.5253
 31
0.0
  0
INSERT
  8
SUNPOU
  2
ARROWANG
 10
5744.011865
 20
2195.5253
 30
0.0
 41
30.0
 42
30.0
 43
30.0
  0
INSERT
  8
SUNPOU
  2
ARROWANG
 10
5819.011865
 20
2195.5253
 30
0.0
 41
30.0
 42
30.0
 50
180.0
 43
30.0
  0
LINE
  8
SUNPOU
 10
5744.011865
 20
2195.5253
 30
0.0
 11
5819.011865
 21
2195.5253
 31
0.0
  0
LINE
  8
SUNPOU
 10
5819.011865
 20
2225.5253
 30
0.0
 11
5819.011865
 21
2225.5253
 31
0.0
  0
LINE
  8
SUNPOU
 10
5744.011865
 20
2225.5253
 30
0.0
 11
5744.011865
 21
2225.5253
 31
0.0
  0
TEXT
  8
SUNPOU
 10
5378.654737
 20
2240.5253
 30
0.0
 40
45.0
  1
600
  7
K
 72
     1
 11
5444.011879
 21
2240.5253
 31
0.0
  0
INSERT
  8
SUNPOU
  2
ARROWANG
 10
5744.011865
 20
2195.5253
 30
0.0
 41
30.0
 42
30.0
 43
30.0
  0
INSERT
  8
SUNPOU
  2
ARROWANG
 10
5144.011865
 20
2195.5253
 30
0.0
 41
30.0
 42
30.0
 50
180.0
 43
30.0
  0
LINE
  8
SUNPOU
 10
5144.011865
 20
2195.5253
 30
0.0
 11
5744.011865
 21
2195.5253
 31
0.0
  0
LINE
  8
SUNPOU
 10
5744.011865
 20
2165.5253
 30
0.0
 11
5744.011865
 21
2165.5253
 31
0.0
  0
LINE
  8
SUNPOU
 10
5144.011865
 20
2165.5253
 30
0.0
 11
5144.011865
 21
2165.5253
 31
0.0
  0
TEXT
  8
SUNPOU
 10
4976.654722
 20
2240.5253
 30
0.0
 40
45.0
  1
75
  7
K
 72
     1
 11
5019.511865
 21
2240.5253
 31
0.0
  0
LINE
  8
SUNPOU
 10
5144.011865
 20
2195.5253
 30
0.0
 11
5204.011865
 21
2195.5253
 31
0.0
  0
LINE
  8
SUNPOU
 10
5069.011865
 20
2195.5253
 30
0.0
 11
4970.011865
 21
2195.5253
 31
0.0
  0
INSERT
  8
SUNPOU
  2
ARROWANG
 10
5069.011865
 20
2195.5253
 30
0.0
 41
30.0
 42
30.0
 43
30.0
  0
INSERT
  8
SUNPOU
  2
ARROWANG
 10
5144.011865
 20
2195.5253
 30
0.0
 41
30.0
 42
30.0
 50
180.0
 43
30.0
  0
LINE
  8
SUNPOU
 10
5069.011865
 20
2195.5253
 30
0.0
 11
5144.011865
 21
2195.5253
 31
0.0
  0
LINE
  8
SUNPOU
 10
5144.011865
 20
2225.5253
 30
0.0
 11
5144.011865
 21
2225.5253
 31
0.0
  0
LINE
  8
SUNPOU
 10
5069.011865
 20
2225.5253
 30
0.0
 11
5069.011865
 21
2225.5253
 31
0.0
  0
TEXT
  8
SUNPOU
 10
5731.511879
 20
3207.178424
 30
0.0
 40
45.0
  1
110
  7
K
 72
     1
 11
5799.011879
 21
3207.178424
 31
0.0
  0
INSERT
  8
SUNPOU
  2
ARROWANG
 10
5854.011865
 20
3162.178424
 30
0.0
 41
30.0
 42
30.0
 43
30.0
  0
INSERT
  8
SUNPOU
  2
ARROWANG
 10
5744.011865
 20
3162.178424
 30
0.0
 41
30.0
 42
30.0
 50
180.0
 43
30.0
  0
LINE
  8
SUNPOU
 10
5744.011865
 20
3162.178424
 30
0.0
 11
5854.011865
 21
3162.178424
 31
0.0
  0
LINE
  8
SUNPOU
 10
5854.011865
 20
3132.178424
 30
0.0
 11
5854.011865
 21
3132.178424
 31
0.0
  0
LINE
  8
SUNPOU
 10
5744.011865
 20
3132.178424
 30
0.0
 11
5744.011865
 21
3132.178424
 31
0.0
  0
TEXT
  8
SUNPOU
 10
5021.511879
 20
3207.178424
 30
0.0
 40
45.0
  1
110
  7
K
 72
     1
 11
5089.011879
 21
3207.178424
 31
0.0
  0
INSERT
  8
SUNPOU
  2
ARROWANG
 10
5144.011865
 20
3162.178424
 30
0.0
 41
30.0
 42
30.0
 43
30.0
  0
INSERT
  8
SUNPOU
  2
ARROWANG
 10
5034.011865
 20
3162.178424
 30
0.0
 41
30.0
 42
30.0
 50
180.0
 43
30.0
  0
LINE
  8
SUNPOU
 10
5034.011865
 20
3162.178424
 30
0.0
 11
5144.011865
 21
3162.178424
 31
0.0
  0
LINE
  8
SUNPOU
 10
5144.011865
 20
3132.178424
 30
0.0
 11
5144.011865
 21
3132.178424
 31
0.0
  0
LINE
  8
SUNPOU
 10
5034.011865
 20
3132.178424
 30
0.0
 11
5034.011865
 21
3132.178424
 31
0.0
  0
TEXT
  8
SUNPOU
 10
5378.654737
 20
3207.178424
 30
0.0
 40
45.0
  1
600
  7
K
 72
     1
 11
5444.011879
 21
3207.178424
 31
0.0
  0
INSERT
  8
SUNPOU
  2
ARROWANG
 10
5744.011865
 20
3162.178424
 30
0.0
 41
30.0
 42
30.0
 43
30.0
  0
INSERT
  8
SUNPOU
  2
ARROWANG
 10
5144.011865
 20
3162.178424
 30
0.0
 41
30.0
 42
30.0
 50
180.0
 43
30.0
  0
LINE
  8
SUNPOU
 10
5144.011865
 20
3162.178424
 30
0.0
 11
5744.011865
 21
3162.178424
 31
0.0
  0
LINE
  8
SUNPOU
 10
5744.011865
 20
2998.114495
 30
0.0
 11
5744.011865
 21
3192.178424
 31
0.0
  0
LINE
  8
SUNPOU
 10
5144.011865
 20
2998.114495
 30
0.0
 11
5144.011865
 21
3192.178424
 31
0.0
  0
TEXT
  8
SUNPOU
 10
5379.726165
 20
3357.178424
 30
0.0
 40
45.0
  1
820
  7
K
 72
     1
 11
5444.011879
 21
3357.178424
 31
0.0
  0
INSERT
  8
SUNPOU
  2
ARROWANG
 10
5854.011865
 20
3312.178424
 30
0.0
 41
30.0
 42
30.0
 43
30.0
  0
INSERT
  8
SUNPOU
  2
ARROWANG
 10
5034.011865
 20
3312.178424
 30
0.0
 41
30.0
 42
30.0
 50
180.0
 43
30.0
  0
LINE
  8
SUNPOU
 10
5034.011865
 20
3312.178424
 30
0.0
 11
5854.011865
 21
3312.178424
 31
0.0
  0
LINE
  8
SUNPOU
 10
5854.011865
 20
2942.178424
 30
0.0
 11
5854.011865
 21
3342.178424
 31
0.0
  0
LINE
  8
SUNPOU
 10
5034.011865
 20
2942.178424
 30
0.0
 11
5034.011865
 21
3342.178424
 31
0.0
  0
LINE
  8
ITTEN
 10
5444.011865
 20
3112.178424
 30
0.0
 11
5444.011865
 21
1062.178424
 31
0.0
  0
LINE
  8
JISSEN
 10
5844.011865
 20
1162.178424
 30
0.0
 11
5544.011865
 21
1162.178424
 31
0.0
  0
LINE
  8
JISSEN
 10
5544.011865
 20
1162.178424
 30
0.0
 11
5344.011865
 21
1162.178424
 31
0.0
  0
LINE
  8
JISSEN
 10
5344.011865
 20
1162.178424
 30
0.0
 11
5044.011865
 21
1162.178424
 31
0.0
  0
LINE
  8
JISSEN
 10
5044.011865
 20
1162.178424
 30
0.0
 11
5044.011865
 21
962.178424
 31
0.0
  0
LINE
  8
JISSEN
 10
5844.011865
 20
1162.178424
 30
0.0
 11
5844.011865
 21
962.178424
 31
0.0
  0
LINE
  8
JISSEN
 10
5044.011865
 20
962.178424
 30
0.0
 11
5844.011865
 21
962.178424
 31
0.0
  0
POLYLINE
  8
HATCH
 66
     1
 10
0.0
 20
0.0
 30
0.0
  0
VERTEX
  8
HATCH
 10
5082.680764
 20
962.215047
 30
0.0
  0
VERTEX
  8
HATCH
 10
5057.545832
 20
980.673205
 30
0.0
  0
VERTEX
  8
HATCH
 10
5048.32969
 20
1005.284082
 30
0.0
  0
VERTEX
  8
HATCH
 10
5044.978366
 20
1057.069469
 30
0.0
  0
VERTEX
  8
HATCH
 10
5052.518846
 20
1102.189411
 30
0.0
  0
VERTEX
  8
HATCH
 10
5067.599805
 20
1137.05482
 30
0.0
  0
VERTEX
  8
HATCH
 10
5081.842933
 20
1159.614791
 30
0.0
  0
VERTEX
  8
HATCH
 10
5132.112796
 20
1156.538431
 30
0.0
  0
VERTEX
  8
HATCH
 10
5157.247727
 20
1139.618453
 30
0.0
  0
VERTEX
  8
HATCH
 10
5164.788207
 20
1124.236655
 30
0.0
  0
VERTEX
  8
HATCH
 10
5167.3017
 20
1092.447605
 30
0.0
  0
VERTEX
  8
HATCH
 10
5168.139531
 20
1061.171282
 30
0.0
  0
VERTEX
  8
HATCH
 10
5167.3017
 20
1014.000434
 30
0.0
  0
VERTEX
  8
HATCH
 10
5150.545079
 20
988.876831
 30
0.0
  0
VERTEX
  8
HATCH
 10
5129.599303
 20
969.39322
 30
0.0
  0
VERTEX
  8
HATCH
 10
5083.518595
 20
961.189594
 30
0.0
  0
SEQEND
  8
HATCH
  0
POLYLINE
  8
HATCH
 66
     1
 10
0.0
 20
0.0
 30
0.0
  0
VERTEX
  8
HATCH
 10
5206.679759
 20
960.676867
 30
0.0
  0
VERTEX
  8
HATCH
 10
5181.544828
 20
979.135025
 30
0.0
  0
VERTEX
  8
HATCH
 10
5172.328686
 20
1003.745902
 30
0.0
  0
VERTEX
  8
HATCH
 10
5168.977362
 20
1055.53129
 30
0.0
  0
VERTEX
  8
HATCH
 10
5176.517841
 20
1100.651231
 30
0.0
  0
VERTEX
  8
HATCH
 10
5191.5988
 20
1135.51664
 30
0.0
  0
VERTEX
  8
HATCH
 10
5205.841928
 20
1158.076611
 30
0.0
  0
VERTEX
  8
HATCH
 10
5256.111791
 20
1155.000251
 30
0.0
  0
VERTEX
  8
HATCH
 10
5281.246723
 20
1138.080273
 30
0.0
  0
VERTEX
  8
HATCH
 10
5288.787202
 20
1122.698475
 30
0.0
  0
VERTEX
  8
HATCH
 10
5291.300696
 20
1090.909425
 30
0.0
  0
VERTEX
  8
HATCH
 10
5292.138527
 20
1059.633102
 30
0.0
  0
VERTEX
  8
HATCH
 10
5291.300696
 20
1012.462255
 30
0.0
  0
VERTEX
  8
HATCH
 10
5274.544075
 20
987.338651
 30
0.0
  0
VERTEX
  8
HATCH
 10
5253.598298
 20
967.85504
 30
0.0
  0
VERTEX
  8
HATCH
 10
5207.51759
 20
959.651414
 30
0.0
  0
SEQEND
  8
HATCH
  0
POLYLINE
  8
HATCH
 66
     1
 10
0.0
 20
0.0
 30
0.0
  0
VERTEX
  8
HATCH
 10
5346.638746
 20
962.217568
 30
0.0
  0
VERTEX
  8
HATCH
 10
5321.503815
 20
980.675726
 30
0.0
  0
VERTEX
  8
HATCH
 10
5312.287673
 20
1005.286603
 30
0.0
  0
VERTEX
  8
HATCH
 10
5308.936349
 20
1057.071991
 30
0.0
  0
VERTEX
  8
HATCH
 10
5316.476828
 20
1102.191932
 30
0.0
  0
VERTEX
  8
HATCH
 10
5331.557787
 20
1137.057341
 30
0.0
  0
VERTEX
  8
HATCH
 10
5345.800915
 20
1159.617312
 30
0.0
  0
VERTEX
  8
HATCH
 10
5396.070778
 20
1156.540952
 30
0.0
  0
VERTEX
  8
HATCH
 10
5421.20571
 20
1139.620974
 30
0.0
  0
VERTEX
  8
HATCH
 10
5428.746189
 20
1124.239176
 30
0.0
  0
VERTEX
  8
HATCH
 10
5431.259683
 20
1092.450127
 30
0.0
  0
VERTEX
  8
HATCH
 10
5432.097514
 20
1061.173804
 30
0.0
  0
VERTEX
  8
HATCH
 10
5431.259683
 20
1014.002956
 30
0.0
  0
VERTEX
  8
HATCH
 10
5414.503062
 20
988.879352
 30
0.0
  0
VERTEX
  8
HATCH
 10
5393.557285
 20
969.395741
 30
0.0
  0
VERTEX
  8
HATCH
 10
5347.476577
 20
961.192115
 30
0.0
  0
SEQEND
  8
HATCH
  0
POLYLINE
  8
HATCH
 66
     1
 10
0.0
 20
0.0
 30
0.0
  0
VERTEX
  8
HATCH
 10
5168.977362
 20
962.215047
 30
0.0
  0
VERTEX
  8
HATCH
 10
5156.409896
 20
962.215047
 30
0.0
  0
VERTEX
  8
HATCH
 10
5140.491106
 20
971.956853
 30
0.0
  0
VERTEX
  8
HATCH
 10
5151.38291
 20
986.313198
 30
0.0
  0
VERTEX
  8
HATCH
 10
5163.950376
 20
995.542277
 30
0.0
  0
VERTEX
  8
HATCH
 10
5172.328686
 20
987.851377
 30
0.0
  0
VERTEX
  8
HATCH
 10
5179.031335
 20
983.236838
 30
0.0
  0
VERTEX
  8
HATCH
 10
5176.517841
 20
971.956853
 30
0.0
  0
VERTEX
  8
HATCH
 10
5169.815193
 20
964.77868
 30
0.0
  0
SEQEND
  8
HATCH
  0
POLYLINE
  8
HATCH
 66
     1
 10
0.0
 20
0.0
 30
0.0
  0
VERTEX
  8
HATCH
 10
5177.355673
 20
1120.134842
 30
0.0
  0
VERTEX
  8
HATCH
 10
5164.788207
 20
1127.313014
 30
0.0
  0
VERTEX
  8
HATCH
 10
5157.247727
 20
1143.720266
 30
0.0
  0
VERTEX
  8
HATCH
 10
5157.247727
 20
1155.512978
 30
0.0
  0
VERTEX
  8
HATCH
 10
5167.3017
 20
1159.102064
 30
0.0
  0
VERTEX
  8
HATCH
 10
5186.571814
 20
1153.974798
 30
0.0
  0
VERTEX
  8
HATCH
 10
5199.13928
 20
1148.334805
 30
0.0
  0
VERTEX
  8
HATCH
 10
5191.5988
 20
1137.05482
 30
0.0
  0
VERTEX
  8
HATCH
 10
5181.544828
 20
1126.287561
 30
0.0
  0
VERTEX
  8
HATCH
 10
5176.517841
 20
1120.647569
 30
0.0
  0
SEQEND
  8
HATCH
  0
POLYLINE
  8
HATCH
 66
     1
 10
0.0
 20
0.0
 30
0.0
  0
VERTEX
  8
HATCH
 10
5053.356677
 20
1116.033029
 30
0.0
  0
VERTEX
  8
HATCH
 10
5049.167522
 20
1127.313014
 30
0.0
  0
VERTEX
  8
HATCH
 10
5044.140535
 20
1142.694813
 30
0.0
  0
VERTEX
  8
HATCH
 10
5052.518846
 20
1159.614791
 30
0.0
  0
VERTEX
  8
HATCH
 10
5062.572818
 20
1159.614791
 30
0.0
  0
VERTEX
  8
HATCH
 10
5074.302453
 20
1153.462071
 30
0.0
  0
VERTEX
  8
HATCH
 10
5072.626791
 20
1149.360259
 30
0.0
  0
VERTEX
  8
HATCH
 10
5065.086312
 20
1132.440281
 30
0.0
  0
VERTEX
  8
HATCH
 10
5058.383663
 20
1120.134842
 30
0.0
  0
VERTEX
  8
HATCH
 10
5053.356677
 20
1116.033029
 30
0.0
  0
SEQEND
  8
HATCH
  0
POLYLINE
  8
HATCH
 66
     1
 10
0.0
 20
0.0
 30
0.0
  0
VERTEX
  8
HATCH
 10
5292.976358
 20
1120.134842
 30
0.0
  0
VERTEX
  8
HATCH
 10
5278.73323
 20
1141.156633
 30
0.0
  0
VERTEX
  8
HATCH
 10
5277.895399
 20
1149.360259
 30
0.0
  0
VERTEX
  8
HATCH
 10
5285.435878
 20
1159.614791
 30
0.0
  0
VERTEX
  8
HATCH
 10
5298.003344
 20
1158.076611
 30
0.0
  0
VERTEX
  8
HATCH
 10
5307.219486
 20
1153.974798
 30
0.0
  0
VERTEX
  8
HATCH
 10
5315.597796
 20
1147.822079
 30
0.0
  0
VERTEX
  8
HATCH
 10
5315.597796
 20
1139.618453
 30
0.0
  0
VERTEX
  8
HATCH
 10
5309.732979
 20
1130.389374
 30
0.0
  0
VERTEX
  8
HATCH
 10
5303.868161
 20
1123.211202
 30
0.0
  0
VERTEX
  8
HATCH
 10
5297.165513
 20
1119.109389
 30
0.0
  0
SEQEND
  8
HATCH
  0
POLYLINE
  8
HATCH
 66
     1
 10
0.0
 20
0.0
 30
0.0
  0
VERTEX
  8
HATCH
 10
5292.138527
 20
961.189594
 30
0.0
  0
VERTEX
  8
HATCH
 10
5277.057568
 20
963.753227
 30
0.0
  0
VERTEX
  8
HATCH
 10
5268.679257
 20
977.596845
 30
0.0
  0
VERTEX
  8
HATCH
 10
5279.571061
 20
987.338651
 30
0.0
  0
VERTEX
  8
HATCH
 10
5292.138527
 20
996.055003
 30
0.0
  0
VERTEX
  8
HATCH
 10
5300.516837
 20
987.338651
 30
0.0
  0
VERTEX
  8
HATCH
 10
5302.192499
 20
981.698658
 30
0.0
  0
VERTEX
  8
HATCH
 10
5301.354668
 20
970.931399
 30
0.0
  0
VERTEX
  8
HATCH
 10
5294.65202
 20
961.189594
 30
0.0
  0
SEQEND
  8
HATCH
  0
POLYLINE
  8
HATCH
 66
     1
 10
0.0
 20
0.0
 30
0.0
  0
VERTEX
  8
HATCH
 10
5071.78896
 20
962.215047
 30
0.0
  0
VERTEX
  8
HATCH
 10
5044.978366
 20
962.215047
 30
0.0
  0
VERTEX
  8
HATCH
 10
5044.140535
 20
971.956853
 30
0.0
  0
VERTEX
  8
HATCH
 10
5052.518846
 20
985.800471
 30
0.0
  0
VERTEX
  8
HATCH
 10
5057.545832
 20
979.135025
 30
0.0
  0
VERTEX
  8
HATCH
 10
5069.275467
 20
967.85504
 30
0.0
  0
VERTEX
  8
HATCH
 10
5069.275467
 20
962.215047
 30
0.0
  0
SEQEND
  8
HATCH
  0
POLYLINE
  8
HATCH
 66
     1
 10
0.0
 20
0.0
 30
0.0
  0
VERTEX
  8
HATCH
 10
5805.342966
 20
962.215047
 30
0.0
  0
VERTEX
  8
HATCH
 10
5830.477897
 20
980.673205
 30
0.0
  0
VERTEX
  8
HATCH
 10
5839.694039
 20
1005.284082
 30
0.0
  0
VERTEX
  8
HATCH
 10
5843.045363
 20
1057.069469
 30
0.0
  0
VERTEX
  8
HATCH
 10
5835.504884
 20
1102.189411
 30
0.0
  0
VERTEX
  8
HATCH
 10
5820.423925
 20
1137.05482
 30
0.0
  0
VERTEX
  8
HATCH
 10
5806.180797
 20
1159.614791
 30
0.0
  0
VERTEX
  8
HATCH
 10
5755.910934
 20
1156.538431
 30
0.0
  0
VERTEX
  8
HATCH
 10
5730.776002
 20
1139.618453
 30
0.0
  0
VERTEX
  8
HATCH
 10
5723.235523
 20
1124.236655
 30
0.0
  0
VERTEX
  8
HATCH
 10
5720.72203
 20
1092.447605
 30
0.0
  0
VERTEX
  8
HATCH
 10
5719.884198
 20
1061.171282
 30
0.0
  0
VERTEX
  8
HATCH
 10
5720.72203
 20
1014.000434
 30
0.0
  0
VERTEX
  8
HATCH
 10
5737.478651
 20
988.876831
 30
0.0
  0
VERTEX
  8
HATCH
 10
5758.424427
 20
969.39322
 30
0.0
  0
VERTEX
  8
HATCH
 10
5804.505135
 20
961.189594
 30
0.0
  0
SEQEND
  8
HATCH
  0
POLYLINE
  8
HATCH
 66
     1
 10
0.0
 20
0.0
 30
0.0
  0
VERTEX
  8
HATCH
 10
5681.34397
 20
960.676867
 30
0.0
  0
VERTEX
  8
HATCH
 10
5706.478902
 20
979.135025
 30
0.0
  0
VERTEX
  8
HATCH
 10
5715.695043
 20
1003.745902
 30
0.0
  0
VERTEX
  8
HATCH
 10
5719.046367
 20
1055.53129
 30
0.0
  0
VERTEX
  8
HATCH
 10
5711.505888
 20
1100.651231
 30
0.0
  0
VERTEX
  8
HATCH
 10
5696.424929
 20
1135.51664
 30
0.0
  0
VERTEX
  8
HATCH
 10
5682.181801
 20
1158.076611
 30
0.0
  0
VERTEX
  8
HATCH
 10
5631.911938
 20
1155.000251
 30
0.0
  0
VERTEX
  8
HATCH
 10
5606.777006
 20
1138.080273
 30
0.0
  0
VERTEX
  8
HATCH
 10
5599.236527
 20
1122.698475
 30
0.0
  0
VERTEX
  8
HATCH
 10
5596.723034
 20
1090.909425
 30
0.0
  0
VERTEX
  8
HATCH
 10
5595.885203
 20
1059.633102
 30
0.0
  0
VERTEX
  8
HATCH
 10
5596.723034
 20
1012.462255
 30
0.0
  0
VERTEX
  8
HATCH
 10
5613.479655
 20
987.338651
 30
0.0
  0
VERTEX
  8
HATCH
 10
5634.425431
 20
967.85504
 30
0.0
  0
VERTEX
  8
HATCH
 10
5680.506139
 20
959.651414
 30
0.0
  0
SEQEND
  8
HATCH
  0
POLYLINE
  8
HATCH
 66
     1
 10
0.0
 20
0.0
 30
0.0
  0
VERTEX
  8
HATCH
 10
5546.42433
 20
963.245543
 30
0.0
  0
VERTEX
  8
HATCH
 10
5571.559261
 20
981.703701
 30
0.0
  0
VERTEX
  8
HATCH
 10
5580.775403
 20
1006.314578
 30
0.0
  0
VERTEX
  8
HATCH
 10
5584.126727
 20
1058.099965
 30
0.0
  0
VERTEX
  8
HATCH
 10
5576.586248
 20
1103.219907
 30
0.0
  0
VERTEX
  8
HATCH
 10
5561.505289
 20
1138.085316
 30
0.0
  0
VERTEX
  8
HATCH
 10
5547.262161
 20
1160.645287
 30
0.0
  0
VERTEX
  8
HATCH
 10
5496.992298
 20
1157.568927
 30
0.0
  0
VERTEX
  8
HATCH
 10
5471.857366
 20
1140.648949
 30
0.0
  0
VERTEX
  8
HATCH
 10
5464.316887
 20
1125.267151
 30
0.0
  0
VERTEX
  8
HATCH
 10
5461.803394
 20
1093.478101
 30
0.0
  0
VERTEX
  8
HATCH
 10
5460.965562
 20
1062.201778
 30
0.0
  0
VERTEX
  8
HATCH
 10
5461.803394
 20
1015.03093
 30
0.0
  0
VERTEX
  8
HATCH
 10
5478.560015
 20
989.907327
 30
0.0
  0
VERTEX
  8
HATCH
 10
5499.505791
 20
970.423716
 30
0.0
  0
VERTEX
  8
HATCH
 10
5545.586499
 20
962.22009
 30
0.0
  0
SEQEND
  8
HATCH
  0
POLYLINE
  8
HATCH
 66
     1
 10
0.0
 20
0.0
 30
0.0
  0
VERTEX
  8
HATCH
 10
5447.519064
 20
961.187072
 30
0.0
  0
VERTEX
  8
HATCH
 10
5465.113517
 20
969.390698
 30
0.0
  0
VERTEX
  8
HATCH
 10
5470.140503
 20
979.64523
 30
0.0
  0
VERTEX
  8
HATCH
 10
5456.735206
 20
990.925216
 30
0.0
  0
VERTEX
  8
HATCH
 10
5437.465092
 20
1002.205201
 30
0.0
  0
VERTEX
  8
HATCH
 10
5429.924612
 20
996.052482
 30
0.0
  0
VERTEX
  8
HATCH
 10
5423.221964
 20
983.234317
 30
0.0
  0
VERTEX
  8
HATCH
 10
5434.113768
 20
966.827065
 30
0.0
  0
VERTEX
  8
HATCH
 10
5440.816416
 20
962.212526
 30
0.0
  0
VERTEX
  8
HATCH
 10
5445.005571
 20
962.212526
 30
0.0
  0
SEQEND
  8
HATCH
  0
POLYLINE
  8
HATCH
 66
     1
 10
0.0
 20
0.0
 30
0.0
  0
VERTEX
  8
HATCH
 10
5438.302923
 20
1133.463212
 30
0.0
  0
VERTEX
  8
HATCH
 10
5450.870389
 20
1134.488666
 30
0.0
  0
VERTEX
  8
HATCH
 10
5465.951348
 20
1141.666838
 30
0.0
  0
VERTEX
  8
HATCH
 10
5459.248699
 20
1154.485003
 30
0.0
  0
VERTEX
  8
HATCH
 10
5447.519064
 20
1158.586816
 30
0.0
  0
VERTEX
  8
HATCH
 10
5432.438105
 20
1154.485003
 30
0.0
  0
VERTEX
  8
HATCH
 10
5431.600274
 20
1148.332284
 30
0.0
  0
VERTEX
  8
HATCH
 10
5433.275937
 20
1139.103205
 30
0.0
  0
SEQEND
  8
HATCH
  0
POLYLINE
  8
HATCH
 66
     1
 10
0.0
 20
0.0
 30
0.0
  0
VERTEX
  8
HATCH
 10
5595.047372
 20
1120.134842
 30
0.0
  0
VERTEX
  8
HATCH
 10
5609.2905
 20
1141.156633
 30
0.0
  0
VERTEX
  8
HATCH
 10
5610.128331
 20
1149.360259
 30
0.0
  0
VERTEX
  8
HATCH
 10
5602.587851
 20
1159.614791
 30
0.0
  0
VERTEX
  8
HATCH
 10
5590.020385
 20
1158.076611
 30
0.0
  0
VERTEX
  8
HATCH
 10
5580.804244
 20
1153.974798
 30
0.0
  0
VERTEX
  8
HATCH
 10
5572.425933
 20
1147.822079
 30
0.0
  0
VERTEX
  8
HATCH
 10
5572.425933
 20
1139.618453
 30
0.0
  0
VERTEX
  8
HATCH
 10
5578.290751
 20
1130.389374
 30
0.0
  0
VERTEX
  8
HATCH
 10
5584.155568
 20
1123.211202
 30
0.0
  0
VERTEX
  8
HATCH
 10
5590.858216
 20
1119.109389
 30
0.0
  0
SEQEND
  8
HATCH
  0
POLYLINE
  8
HATCH
 66
     1
 10
0.0
 20
0.0
 30
0.0
  0
VERTEX
  8
HATCH
 10
5595.885203
 20
961.189594
 30
0.0
  0
VERTEX
  8
HATCH
 10
5610.966162
 20
963.753227
 30
0.0
  0
VERTEX
  8
HATCH
 10
5619.344472
 20
977.596845
 30
0.0
  0
VERTEX
  8
HATCH
 10
5608.452669
 20
987.338651
 30
0.0
  0
VERTEX
  8
HATCH
 10
5595.885203
 20
996.055003
 30
0.0
  0
VERTEX
  8
HATCH
 10
5587.506892
 20
987.338651
 30
0.0
  0
VERTEX
  8
HATCH
 10
5585.83123
 20
981.698658
 30
0.0
  0
VERTEX
  8
HATCH
 10
5586.669061
 20
970.931399
 30
0.0
  0
VERTEX
  8
HATCH
 10
5593.37171
 20
961.189594
 30
0.0
  0
SEQEND
  8
HATCH
  0
POLYLINE
  8
HATCH
 66
     1
 10
0.0
 20
0.0
 30
0.0
  0
VERTEX
  8
HATCH
 10
5719.046367
 20
962.215047
 30
0.0
  0
VERTEX
  8
HATCH
 10
5731.613833
 20
962.215047
 30
0.0
  0
VERTEX
  8
HATCH
 10
5747.532623
 20
971.956853
 30
0.0
  0
VERTEX
  8
HATCH
 10
5736.64082
 20
986.313198
 30
0.0
  0
VERTEX
  8
HATCH
 10
5724.073354
 20
995.542277
 30
0.0
  0
VERTEX
  8
HATCH
 10
5715.695043
 20
987.851377
 30
0.0
  0
VERTEX
  8
HATCH
 10
5708.992395
 20
983.236838
 30
0.0
  0
VERTEX
  8
HATCH
 10
5711.505888
 20
971.956853
 30
0.0
  0
VERTEX
  8
HATCH
 10
5718.208536
 20
964.77868
 30
0.0
  0
SEQEND
  8
HATCH
  0
POLYLINE
  8
HATCH
 66
     1
 10
0.0
 20
0.0
 30
0.0
  0
VERTEX
  8
HATCH
 10
5710.668057
 20
1120.134842
 30
0.0
  0
VERTEX
  8
HATCH
 10
5723.235523
 20
1127.313014
 30
0.0
  0
VERTEX
  8
HATCH
 10
5730.776002
 20
1143.720266
 30
0.0
  0
VERTEX
  8
HATCH
 10
5730.776002
 20
1155.512978
 30
0.0
  0
VERTEX
  8
HATCH
 10
5720.72203
 20
1159.102064
 30
0.0
  0
VERTEX
  8
HATCH
 10
5701.451915
 20
1153.974798
 30
0.0
  0
VERTEX
  8
HATCH
 10
5688.88445
 20
1148.334805
 30
0.0
  0
VERTEX
  8
HATCH
 10
5696.424929
 20
1137.05482
 30
0.0
  0
VERTEX
  8
HATCH
 10
5706.478902
 20
1126.287561
 30
0.0
  0
VERTEX
  8
HATCH
 10
5711.505888
 20
1120.647569
 30
0.0
  0
SEQEND
  8
HATCH
  0
POLYLINE
  8
HATCH
 66
     1
 10
0.0
 20
0.0
 30
0.0
  0
VERTEX
  8
HATCH
 10
5834.667053
 20
1116.033029
 30
0.0
  0
VERTEX
  8
HATCH
 10
5838.856208
 20
1127.313014
 30
0.0
  0
VERTEX
  8
HATCH
 10
5843.883194
 20
1142.694813
 30
0.0
  0
VERTEX
  8
HATCH
 10
5835.504884
 20
1159.614791
 30
0.0
  0
VERTEX
  8
HATCH
 10
5825.450911
 20
1159.614791
 30
0.0
  0
VERTEX
  8
HATCH
 10
5813.721276
 20
1153.462071
 30
0.0
  0
VERTEX
  8
HATCH
 10
5815.396938
 20
1149.360259
 30
0.0
  0
VERTEX
  8
HATCH
 10
5822.937418
 20
1132.440281
 30
0.0
  0
VERTEX
  8
HATCH
 10
5829.640066
 20
1120.134842
 30
0.0
  0
VERTEX
  8
HATCH
 10
5834.667053
 20
1116.033029
 30
0.0
  0
SEQEND
  8
HATCH
  0
POLYLINE
  8
HATCH
 66
     1
 10
0.0
 20
0.0
 30
0.0
  0
VERTEX
  8
HATCH
 10
5816.234769
 20
962.215047
 30
0.0
  0
VERTEX
  8
HATCH
 10
5843.045363
 20
962.215047
 30
0.0
  0
VERTEX
  8
HATCH
 10
5843.883194
 20
971.956853
 30
0.0
  0
VERTEX
  8
HATCH
 10
5835.504884
 20
985.800471
 30
0.0
  0
VERTEX
  8
HATCH
 10
5830.477897
 20
979.135025
 30
0.0
  0
VERTEX
  8
HATCH
 10
5818.748263
 20
967.85504
 30
0.0
  0
VERTEX
  8
HATCH
 10
5818.748263
 20
962.215047
 30
0.0
  0
SEQEND
  8
HATCH
  0
LINE
  8
JISSEN
 10
5854.011865
 20
2902.178424
 30
0.0
 11
5444.011865
 21
2902.178424
 31
0.0
  0
LINE
  8
JISSEN
 10
5744.011865
 20
2968.114495
 30
0.0
 11
5444.011865
 21
2968.114495
 31
0.0
  0
LINE
  8
JISSEN
 10
5854.011865
 20
2902.178424
 30
0.0
 11
5854.011865
 21
2912.178424
 31
0.0
  0
LINE
  8
JISSEN
 10
5854.011865
 20
2912.178424
 30
0.0
 11
5801.493987
 21
2912.178424
 31
0.0
  0
LINE
  8
JISSEN
 10
5801.493987
 20
2912.178424
 30
0.0
 11
5754.011865
 21
2912.178424
 31
0.0
  0
LINE
  8
JISSEN
 10
5754.011865
 20
2912.178424
 30
0.0
 11
5754.011865
 21
2958.114495
 31
0.0
  0
LINE
  8
JISSEN
 10
5744.011865
 20
2968.114495
 30
0.0
 11
5744.011865
 21
2902.178424
 31
0.0
  0
LINE
  8
JISSEN
 10
5754.011865
 20
2958.114495
 30
0.0
 11
5791.493987
 21
2958.114495
 31
0.0
  0
LINE
  8
JISSEN
 10
5781.493987
 20
2968.114495
 30
0.0
 11
5744.011865
 21
2968.114495
 31
0.0
  0
LINE
  8
JISSEN
 10
5801.493987
 20
3012.178424
 30
0.0
 11
5854.011865
 21
2912.178424
 31
0.0
  0
LINE
  8
JISSEN
 10
5791.493987
 20
2958.114495
 30
0.0
 11
5801.493987
 21
3012.178424
 31
0.0
  0
LINE
  8
JISSEN
 10
5791.493987
 20
3012.178424
 30
0.0
 11
5781.493987
 21
2968.114495
 31
0.0
  0
LINE
  8
JISSEN
 10
5801.493987
 20
3012.178424
 30
0.0
 11
5444.011865
 21
3012.178424
 31
0.0
  0
LINE
  8
JISSEN
 10
5144.011865
 20
2968.114495
 30
0.0
 11
5444.011865
 21
2968.114495
 31
0.0
  0
LINE
  8
JISSEN
 10
5144.011865
 20
2968.114495
 30
0.0
 11
5144.011865
 21
2902.178424
 31
0.0
  0
LINE
  8
JISSEN
 10
5106.529743
 20
2968.114495
 30
0.0
 11
5144.011865
 21
2968.114495
 31
0.0
  0
LINE
  8
JISSEN
 10
5096.529743
 20
3012.178424
 30
0.0
 11
5106.529743
 21
2968.114495
 31
0.0
  0
LINE
  8
JISSEN
 10
5086.529743
 20
3012.178424
 30
0.0
 11
5444.011865
 21
3012.178424
 31
0.0
  0
LINE
  8
JISSEN
 10
5086.529743
 20
3012.178424
 30
0.0
 11
5034.011865
 21
2912.178424
 31
0.0
  0
LINE
  8
JISSEN
 10
5096.529743
 20
2958.114495
 30
0.0
 11
5086.529743
 21
3012.178424
 31
0.0
  0
LINE
  8
JISSEN
 10
5134.011865
 20
2958.114495
 30
0.0
 11
5096.529743
 21
2958.114495
 31
0.0
  0
LINE
  8
JISSEN
 10
5134.011865
 20
2912.178424
 30
0.0
 11
5134.011865
 21
2958.114495
 31
0.0
  0
LINE
  8
JISSEN
 10
5086.529743
 20
2912.178424
 30
0.0
 11
5134.011865
 21
2912.178424
 31
0.0
  0
LINE
  8
JISSEN
 10
5034.011865
 20
2912.178424
 30
0.0
 11
5086.529743
 21
2912.178424
 31
0.0
  0
LINE
  8
JISSEN
 10
5034.011865
 20
2902.178424
 30
0.0
 11
5034.011865
 21
2912.178424
 31
0.0
  0
LINE
  8
JISSEN
 10
5034.011865
 20
2902.178424
 30
0.0
 11
5444.011865
 21
2902.178424
 31
0.0
  0
LINE
  8
JISSEN
 10
5034.011865
 20
2902.178424
 30
0.0
 11
5034.011865
 21
2802.178424
 31
0.0
  0
LINE
  8
JISSEN
 10
5034.011865
 20
2802.178424
 30
0.0
 11
5115.011865
 21
2802.178424
 31
0.0
  0
LINE
  8
JISSEN
 10
5115.011865
 20
2802.178424
 30
0.0
 11
5119.011865
 21
2792.178424
 31
0.0
  0
LINE
  8
JISSEN
 10
5119.011865
 20
2792.178424
 30
0.0
 11
5144.011865
 21
2792.178424
 31
0.0
  0
LINE
  8
JISSEN
 10
5034.011865
 20
2902.178424
 30
0.0
 11
5112.011865
 21
2902.178424
 31
0.0
  0
LINE
  8
JISSEN
 10
5112.011865
 20
2902.178424
 30
0.0
 11
5118.011865
 21
2887.178424
 31
0.0
  0
LINE
  8
JISSEN
 10
5118.011865
 20
2887.178424
 30
0.0
 11
5144.011865
 21
2887.178424
 31
0.0
  0
LINE
  8
JISSEN
 10
5144.011865
 20
2887.178424
 30
0.0
 11
5144.011865
 21
2792.178424
 31
0.0
  0
LINE
  8
JISSEN
 10
5744.011865
 20
2887.178424
 30
0.0
 11
5744.011865
 21
2792.178424
 31
0.0
  0
LINE
  8
JISSEN
 10
5770.011865
 20
2887.178424
 30
0.0
 11
5744.011865
 21
2887.178424
 31
0.0
  0
LINE
  8
JISSEN
 10
5776.011865
 20
2902.178424
 30
0.0
 11
5770.011865
 21
2887.178424
 31
0.0
  0
LINE
  8
JISSEN
 10
5854.011865
 20
2902.178424
 30
0.0
 11
5776.011865
 21
2902.178424
 31
0.0
  0
LINE
  8
JISSEN
 10
5769.011865
 20
2792.178424
 30
0.0
 11
5744.011865
 21
2792.178424
 31
0.0
  0
LINE
  8
JISSEN
 10
5773.011865
 20
2802.178424
 30
0.0
 11
5769.011865
 21
2792.178424
 31
0.0
  0
LINE
  8
JISSEN
 10
5854.011865
 20
2802.178424
 30
0.0
 11
5773.011865
 21
2802.178424
 31
0.0
  0
LINE
  8
JISSEN
 10
5854.011865
 20
2902.178424
 30
0.0
 11
5854.011865
 21
2802.178424
 31
0.0
  0
LINE
  8
JISSEN
 10
5112.011865
 20
2902.178424
 30
0.0
 11
5776.011865
 21
2902.178424
 31
0.0
  0
LINE
  8
JISSEN
 10
5144.011865
 20
2887.178424
 30
0.0
 11
5444.011865
 21
2887.178424
 31
0.0
  0
LINE
  8
JISSEN
 10
5444.011865
 20
2887.178424
 30
0.0
 11
5744.011865
 21
2887.178424
 31
0.0
  0
LINE
  8
JISSEN
 10
5744.011865
 20
2792.178424
 30
0.0
 11
5144.011865
 21
2792.178424
 31
0.0
  0
LINE
  8
JISSEN
 10
5144.011865
 20
2492.178424
 30
0.0
 11
5119.011865
 21
2492.178424
 31
0.0
  0
LINE
  8
JISSEN
 10
5119.011865
 20
2492.178424
 30
0.0
 11
5110.011865
 21
2507.178424
 31
0.0
  0
LINE
  8
JISSEN
 10
5110.011865
 20
2507.178424
 30
0.0
 11
5069.011865
 21
2507.178424
 31
0.0
  0
LINE
  8
JISSEN
 10
5144.011865
 20
2787.178424
 30
0.0
 11
5144.011865
 21
2492.178424
 31
0.0
  0
LINE
  8
JISSEN
 10
5034.011865
 20
2802.178424
 30
0.0
 11
5034.011865
 21
2742.178424
 31
0.0
  0
LINE
  8
JISSEN
 10
5034.011865
 20
2742.178424
 30
0.0
 11
5069.011865
 21
2577.178424
 31
0.0
  0
LINE
  8
JISSEN
 10
5069.011865
 20
2577.178424
 30
0.0
 11
5069.011865
 21
2507.178424
 31
0.0
  0
LINE
  8
JISSEN
 10
5144.011865
 20
2492.178424
 30
0.0
 11
5444.011865
 21
2492.178424
 31
0.0
  0
LINE
  8
JISSEN
 10
5744.011865
 20
2492.178424
 30
0.0
 11
5444.011865
 21
2492.178424
 31
0.0
  0
LINE
  8
JISSEN
 10
5819.011865
 20
2577.178424
 30
0.0
 11
5819.011865
 21
2507.178424
 31
0.0
  0
LINE
  8
JISSEN
 10
5854.011865
 20
2742.178424
 30
0.0
 11
5819.011865
 21
2577.178424
 31
0.0
  0
LINE
  8
JISSEN
 10
5854.011865
 20
2802.178424
 30
0.0
 11
5854.011865
 21
2742.178424
 31
0.0
  0
LINE
  8
JISSEN
 10
5744.011865
 20
2787.178424
 30
0.0
 11
5744.011865
 21
2492.178424
 31
0.0
  0
LINE
  8
JISSEN
 10
5778.011865
 20
2507.178424
 30
0.0
 11
5819.011865
 21
2507.178424
 31
0.0
  0
LINE
  8
JISSEN
 10
5769.011865
 20
2492.178424
 30
0.0
 11
5778.011865
 21
2507.178424
 31
0.0
  0
LINE
  8
JISSEN
 10
5744.011865
 20
2492.178424
 30
0.0
 11
5769.011865
 21
2492.178424
 31
0.0
  0
LINE
  8
JISSEN
 10
5044.011865
 20
1307.178424
 30
0.0
 11
5044.011865
 21
1162.178424
 31
0.0
  0
LINE
  8
JISSEN
 10
5044.011865
 20
1162.178424
 30
0.0
 11
5444.011865
 21
1162.178424
 31
0.0
  0
LINE
  8
JISSEN
 10
5044.011865
 20
1307.178424
 30
0.0
 11
5109.011865
 21
1307.178424
 31
0.0
  0
LINE
  8
JISSEN
 10
5109.011865
 20
1307.178424
 30
0.0
 11
5114.011865
 21
1292.178424
 31
0.0
  0
LINE
  8
JISSEN
 10
5114.011865
 20
1292.178424
 30
0.0
 11
5295.011865
 21
1292.178424
 31
0.0
  0
LINE
  8
JISSEN
 10
5294.011865
 20
1292.178424
 30
0.0
 11
5294.011865
 21
1162.178424
 31
0.0
  0
LINE
  8
JISSEN
 10
5594.011865
 20
1292.178424
 30
0.0
 11
5594.011865
 21
1162.178424
 31
0.0
  0
LINE
  8
JISSEN
 10
5774.011865
 20
1292.178424
 30
0.0
 11
5593.011865
 21
1292.178424
 31
0.0
  0
LINE
  8
JISSEN
 10
5779.011865
 20
1307.178424
 30
0.0
 11
5774.011865
 21
1292.178424
 31
0.0
  0
LINE
  8
JISSEN
 10
5844.011865
 20
1307.178424
 30
0.0
 11
5779.011865
 21
1307.178424
 31
0.0
  0
LINE
  8
JISSEN
 10
5844.011865
 20
1162.178424
 30
0.0
 11
5444.011865
 21
1162.178424
 31
0.0
  0
LINE
  8
JISSEN
 10
5844.011865
 20
1307.178424
 30
0.0
 11
5844.011865
 21
1162.178424
 31
0.0
  0
LINE
  8
JISSEN
 10
5819.011865
 20
2507.178424
 30
0.0
 11
5819.011865
 21
1907.178424
 31
0.0
  0
LINE
  8
JISSEN
 10
5819.011865
 20
1907.178424
 30
0.0
 11
5778.011865
 21
1907.178424
 31
0.0
  0
LINE
  8
JISSEN
 10
5778.011865
 20
1907.178424
 30
0.0
 11
5769.011865
 21
1892.178424
 31
0.0
  0
LINE
  8
JISSEN
 10
5769.011865
 20
1892.178424
 30
0.0
 11
5744.011865
 21
1892.178424
 31
0.0
  0
LINE
  8
JISSEN
 10
5744.011865
 20
2484.178424
 30
0.0
 11
5744.011865
 21
1892.178424
 31
0.0
  0
LINE
  8
JISSEN
 10
5744.011865
 20
1892.178424
 30
0.0
 11
5444.011865
 21
1892.178424
 31
0.0
  0
LINE
  8
JISSEN
 10
5144.011865
 20
1892.178424
 30
0.0
 11
5444.011865
 21
1892.178424
 31
0.0
  0
LINE
  8
JISSEN
 10
5144.011865
 20
2484.178424
 30
0.0
 11
5144.011865
 21
1892.178424
 31
0.0
  0
LINE
  8
JISSEN
 10
5119.011865
 20
1892.178424
 30
0.0
 11
5144.011865
 21
1892.178424
 31
0.0
  0
LINE
  8
JISSEN
 10
5110.011865
 20
1907.178424
 30
0.0
 11
5119.011865
 21
1892.178424
 31
0.0
  0
LINE
  8
JISSEN
 10
5069.011865
 20
1907.178424
 30
0.0
 11
5110.011865
 21
1907.178424
 31
0.0
  0
LINE
  8
JISSEN
 10
5069.011865
 20
2507.178424
 30
0.0
 11
5069.011865
 21
1907.178424
 31
0.0
  0
LINE
  8
JISSEN
 10
5069.011865
 20
1907.178424
 30
0.0
 11
5069.011865
 21
1760.178424
 31
0.0
  0
LINE
  8
JISSEN
 10
5069.011865
 20
1307.178424
 30
0.0
 11
5110.011865
 21
1307.178424
 31
0.0
  0
LINE
  8
JISSEN
 10
5110.011865
 20
1307.178424
 30
0.0
 11
5119.011865
 21
1292.178424
 31
0.0
  0
LINE
  8
JISSEN
 10
5119.011865
 20
1292.178424
 30
0.0
 11
5144.011865
 21
1292.178424
 31
0.0
  0
LINE
  8
JISSEN
 10
5144.011865
 20
1884.178424
 30
0.0
 11
5144.011865
 21
1292.178424
 31
0.0
  0
LINE
  8
JISSEN
 10
5744.011865
 20
1884.178424
 30
0.0
 11
5744.011865
 21
1292.178424
 31
0.0
  0
LINE
  8
JISSEN
 10
5769.011865
 20
1292.178424
 30
0.0
 11
5744.011865
 21
1292.178424
 31
0.0
  0
LINE
  8
JISSEN
 10
5778.011865
 20
1307.178424
 30
0.0
 11
5769.011865
 21
1292.178424
 31
0.0
  0
LINE
  8
JISSEN
 10
5819.011865
 20
1307.178424
 30
0.0
 11
5778.011865
 21
1307.178424
 31
0.0
  0
LINE
  8
JISSEN
 10
5819.011865
 20
1907.178424
 30
0.0
 11
5819.011865
 21
1740.178424
 31
0.0
  0
LINE
  8
JISSEN
 10
4201.332692
 20
2089.864045
 30
0.0
 11
4201.332692
 21
2061.864045
 31
0.0
  0
LINE
  8
JISSEN
 10
4201.332692
 20
1811.864045
 30
0.0
 11
4201.332692
 21
1783.864045
 31
0.0
  0
LINE
  8
JISSEN
 10
4201.332692
 20
1783.864045
 30
0.0
 11
3843.700915
 21
1783.864045
 31
0.0
  0
LINE
  8
JISSEN
 10
4201.332692
 20
2061.864045
 30
0.0
 11
3854.886083
 21
2061.864045
 31
0.0
  0
LINE
  8
SAISEN
 10
4261.332692
 20
1966.864045
 30
0.0
 11
4141.332692
 21
1906.864045
 31
0.0
  0
LINE
  8
SAISEN
 10
4141.332692
 20
1906.864045
 30
0.0
 11
4201.332692
 21
1876.864045
 31
0.0
  0
LINE
  8
SAISEN
 10
4261.332692
 20
1966.864045
 30
0.0
 11
4201.332692
 21
1996.864045
 31
0.0
  0
LINE
  8
SAISEN
 10
4201.332692
 20
2189.864045
 30
0.0
 11
4201.332692
 21
1996.864045
 31
0.0
  0
LINE
  8
SAISEN
 10
4201.332692
 20
1876.864045
 30
0.0
 11
4201.332692
 21
1683.864045
 31
0.0
  0
LINE
  8
SAISEN
 10
4769.011865
 20
1547.178424
 30
0.0
 11
4769.011865
 21
1354.178424
 31
0.0
  0
LINE
  8
SAISEN
 10
4769.011865
 20
1860.178424
 30
0.0
 11
4769.011865
 21
1667.178424
 31
0.0
  0
LINE
  8
SAISEN
 10
4829.011865
 20
1637.178424
 30
0.0
 11
4769.011865
 21
1667.178424
 31
0.0
  0
LINE
  8
SAISEN
 10
4709.011865
 20
1577.178424
 30
0.0
 11
4769.011865
 21
1547.178424
 31
0.0
  0
LINE
  8
SAISEN
 10
4829.011865
 20
1637.178424
 30
0.0
 11
4709.011865
 21
1577.178424
 31
0.0
  0
LINE
  8
JISSEN
 10
4769.011865
 20
1732.178424
 30
0.0
 11
5144.011865
 21
1732.178424
 31
0.0
  0
LINE
  8
JISSEN
 10
5144.011865
 20
1482.178424
 30
0.0
 11
4769.011865
 21
1482.178424
 31
0.0
  0
LINE
  8
JISSEN
 10
4769.011865
 20
1454.178424
 30
0.0
 11
5144.011865
 21
1454.178424
 31
0.0
  0
LINE
  8
JISSEN
 10
4769.011865
 20
1482.178424
 30
0.0
 11
4769.011865
 21
1454.178424
 31
0.0
  0
LINE
  8
JISSEN
 10
4769.011865
 20
1760.178424
 30
0.0
 11
4769.011865
 21
1732.178424
 31
0.0
  0
LINE
  8
JISSEN
 10
5144.011865
 20
1760.178424
 30
0.0
 11
4769.011865
 21
1760.178424
 31
0.0
  0
LINE
  8
JISSEN
 10
5069.011865
 20
1454.178424
 30
0.0
 11
5069.011865
 21
1307.178424
 31
0.0
  0
LINE
  8
JISSEN
 10
5819.011865
 20
1434.178424
 30
0.0
 11
5819.011865
 21
1307.178424
 31
0.0
  0
LINE
  8
JISSEN
 10
4858.273545
 20
1542.803915
 30
0.0
 11
5108.273545
 21
1542.803915
 31
0.0
  0
LINE
  8
JISSEN
 10
5063.273545
 20
1554.861629
 30
0.0
 11
5108.273545
 21
1542.803915
 31
0.0
  0
LINE
  8
JISSEN
 10
5108.273545
 20
1542.803915
 30
0.0
 11
5063.273545
 21
1530.746202
 31
0.0
  0
LINE
  8
JISSEN
 10
5295.011865
 20
1292.178424
 30
0.0
 11
5299.011865
 21
1272.178424
 31
0.0
  0
LINE
  8
JISSEN
 10
5299.011865
 20
1272.178424
 30
0.0
 11
5589.011865
 21
1272.178424
 31
0.0
  0
LINE
  8
JISSEN
 10
5589.011865
 20
1272.178424
 30
0.0
 11
5593.011865
 21
1292.178424
 31
0.0
  0
LINE
  8
JISSEN
 10
5150.511865
 20
1292.178424
 30
0.0
 11
5156.107659
 21
1481.987766
 31
0.0
  0
LINE
  8
JISSEN
 10
5737.511865
 20
1292.178424
 30
0.0
 11
5725.011865
 21
1716.178424
 31
0.0
  0
LINE
  8
JISSEN
 10
5344.011865
 20
1734.178424
 30
0.0
 11
5725.011865
 21
1716.178424
 31
0.0
  0
LINE
  8
JISSEN
 10
5344.011865
 20
1734.178424
 30
0.0
 11
5344.011865
 21
1579.05076
 31
0.0
  0
ARC
  8
JISSEN
 10
5244.011865
 20
1579.05076
 30
0.0
 40
100.0
 50
268.048599
 51
0.0
  0
LINE
  8
JISSEN
 10
5156.107659
 20
1481.987766
 30
0.0
 11
5732.495033
 21
1462.349355
 31
0.0
  0
CIRCLE
  8
JISSEN
 10
3501.332692
 20
1936.864045
 30
0.0
 40
300.0
  0
ARC
  8
JISSEN
 10
3501.332692
 20
1936.864045
 30
0.0
 40
375.0
 50
24.07926
 51
155.92074
  0
ARC
  8
JISSEN
 10
3501.332692
 20
1936.864045
 30
0.0
 40
400.0
 50
22.488625
 51
157.511375
  0
LINE
  8
JISSEN
 10
3677.373456
 20
2061.864045
 30
0.0
 11
3766.883535
 21
2061.864045
 31
0.0
  0
LINE
  8
JISSEN
 10
3677.373456
 20
1811.864045
 30
0.0
 11
3766.883535
 21
1811.864045
 31
0.0
  0
ARC
  8
JISSEN
 10
3677.373456
 20
2361.864045
 30
0.0
 40
300.0
 50
225.0
 51
270.0
  0
ARC
  8
JISSEN
 10
3677.373456
 20
1511.864045
 30
0.0
 40
300.0
 50
90.0
 51
135.0
  0
CIRCLE
  8
JISSEN
 10
3501.332692
 20
1936.864045
 30
0.0
 40
293.5
  0
LINE
  8
JISSEN
 10
3401.948239
 20
2213.025194
 30
0.0
 11
3465.241422
 21
2149.73201
 31
0.0
  0
LINE
  8
JISSEN
 10
3401.948239
 20
1660.702896
 30
0.0
 11
3465.241422
 21
1723.996079
 31
0.0
  0
LINE
  8
JISSEN
 10
3806.299796
 20
1811.864045
 30
0.0
 11
3806.299796
 21
1811.864045
 31
0.0
  0
LINE
  8
JISSEN
 10
3843.700915
 20
2089.864045
 30
0.0
 11
4201.332692
 21
2089.864045
 31
0.0
  0
LINE
  8
TENSEN
 10
3759.385018
 20
2089.864036
 30
0.0
 11
3843.700919
 21
2089.864036
 31
0.0
  0
LINE
  8
TENSEN
 10
3854.886083
 20
2061.864045
 30
0.0
 11
3774.050495
 21
2061.864045
 31
0.0
  0
LINE
  8
JISSEN
 10
3854.886083
 20
1811.864045
 30
0.0
 11
4201.332692
 21
1811.864045
 31
0.0
  0
LINE
  8
TENSEN
 10
3774.050495
 20
1811.864045
 30
0.0
 11
3854.886083
 21
1811.864045
 31
0.0
  0
LINE
  8
TENSEN
 10
3759.385013
 20
1783.864045
 30
0.0
 11
3843.700915
 21
1783.864045
 31
0.0
  0
LINE
  8
ITTEN
 10
3501.332692
 20
2646.864045
 30
0.0
 11
3501.332692
 21
1226.864045
 31
0.0
  0
LINE
  8
ITTEN
 10
4226.332692
 20
1936.864045
 30
0.0
 11
2776.332692
 21
1936.864045
 31
0.0
  0
ARC
  8
TENSEN
 10
3501.332692
 20
1936.864045
 30
0.0
 40
375.0
 50
335.92074
 51
24.079258
  0
ARC
  8
TENSEN
 10
3501.332692
 20
1936.864045
 30
0.0
 40
400.0
 50
337.511375
 51
22.488625
  0
ARC
  8
TENSEN
 10
3501.332692
 20
1936.864045
 30
0.0
 40
400.0
 50
157.511375
 51
202.488625
  0
ARC
  8
TENSEN
 10
3501.332692
 20
1936.864045
 30
0.0
 40
375.0
 50
155.920742
 51
204.07926
  0
LINE
  8
TENSEN
 10
3243.280372
 20
1783.864045
 30
0.0
 11
3158.96447
 21
1783.864045
 31
0.0
  0
LINE
  8
TENSEN
 10
3228.61489
 20
1811.864045
 30
0.0
 11
3147.779302
 21
1811.864045
 31
0.0
  0
LINE
  8
JISSEN
 10
3147.779302
 20
1811.864045
 30
0.0
 11
2801.332692
 21
1811.864045
 31
0.0
  0
LINE
  8
TENSEN
 10
3147.779302
 20
2061.864045
 30
0.0
 11
3228.61489
 21
2061.864045
 31
0.0
  0
LINE
  8
TENSEN
 10
3243.280367
 20
2089.864036
 30
0.0
 11
3158.964466
 21
2089.864036
 31
0.0
  0
LINE
  8
JISSEN
 10
3158.96447
 20
2089.864045
 30
0.0
 11
2801.332692
 21
2089.864045
 31
0.0
  0
LINE
  8
JISSEN
 10
3196.365589
 20
1811.864045
 30
0.0
 11
3196.365589
 21
1811.864045
 31
0.0
  0
LINE
  8
SAISEN
 10
2801.332692
 20
1876.864045
 30
0.0
 11
2801.332692
 21
1683.864045
 31
0.0
  0
LINE
  8
SAISEN
 10
2801.332692
 20
2189.864045
 30
0.0
 11
2801.332692
 21
1996.864045
 31
0.0
  0
LINE
  8
SAISEN
 10
2861.332692
 20
1966.864045
 30
0.0
 11
2801.332692
 21
1996.864045
 31
0.0
  0
LINE
  8
SAISEN
 10
2741.332692
 20
1906.864045
 30
0.0
 11
2801.332692
 21
1876.864045
 31
0.0
  0
LINE
  8
SAISEN
 10
2861.332692
 20
1966.864045
 30
0.0
 11
2741.332692
 21
1906.864045
 31
0.0
  0
LINE
  8
JISSEN
 10
2801.332692
 20
2061.864045
 30
0.0
 11
3147.779302
 21
2061.864045
 31
0.0
  0
LINE
  8
JISSEN
 10
2801.332692
 20
1783.864045
 30
0.0
 11
3158.96447
 21
1783.864045
 31
0.0
  0
LINE
  8
JISSEN
 10
2801.332692
 20
1811.864045
 30
0.0
 11
2801.332692
 21
1783.864045
 31
0.0
  0
LINE
  8
JISSEN
 10
2801.332692
 20
2089.864045
 30
0.0
 11
2801.332692
 21
2061.864045
 31
0.0
  0
ARC
  8
JISSEN
 10
3501.332692
 20
1936.864045
 30
0.0
 40
400.0
 50
202.488625
 51
337.511375
  0
ARC
  8
JISSEN
 10
3501.332692
 20
1936.864045
 30
0.0
 40
375.0
 50
204.07926
 51
335.92074
  0
LINE
  8
SUNPOU
 10
3801.332549
 20
1937.156985
 30
0.0
 11
3201.332835
 21
1936.571105
 31
0.0
  0
INSERT
  8
SUNPOU
  2
ARROWANG
 10
3801.332549
 20
1937.156985
 30
0.0
 41
30.0
 42
30.0
 50
0.055947
 43
30.0
  0
INSERT
  8
SUNPOU
  2
ARROWANG
 10
3201.332835
 20
1936.571105
 30
0.0
 41
30.0
 42
30.0
 50
180.055947
 43
30.0
  0
TEXT
  8
SUNPOU
 10
3419.860219
 20
1981.784511
 30
0.0
 40
45.0
  1
%%C600
 50
0.055947
  7
K
 72
     1
 11
3501.288751
 21
1981.864023
 31
0.0
  0
LINE
  8
SUNPOU
 10
3801.332692
 20
1966.864045
 30
0.0
 11
3801.332692
 21
1966.864045
 31
0.0
  0
LINE
  8
SUNPOU
 10
3801.332692
 20
1936.864045
 30
0.0
 11
3876.332692
 21
1936.864045
 31
0.0
  0
INSERT
  8
SUNPOU
  2
ARROWANG
 10
3876.332692
 20
1936.864045
 30
0.0
 41
30.0
 42
30.0
 43
30.0
  0
LINE
  8
SUNPOU
 10
3801.332692
 20
1936.864045
 30
0.0
 11
3706.832692
 21
1936.864045
 31
0.0
  0
TEXT
  8
SUNPOU
 10
3682.594512
 20
1979.845998
 30
0.0
 40
45.0
  1
75
  7
K
 72
     1
 11
3725.451655
 21
1979.845998
 31
0.0
  0
LINE
  8
SUNPOU
 10
3876.332692
 20
1966.864045
 30
0.0
 11
3876.332692
 21
1966.864045
 31
0.0
  0
LINE
  8
SUNPOU
 10
3901.332692
 20
1966.864045
 30
0.0
 11
3901.332692
 21
1966.864045
 31
0.0
  0
LINE
  8
SUNPOU
 10
3876.332692
 20
1936.864045
 30
0.0
 11
3901.332692
 21
1936.864045
 31
0.0
  0
INSERT
  8
SUNPOU
  2
ARROWANG
 10
3901.332692
 20
1936.864045
 30
0.0
 41
30.0
 42
30.0
 50
180.0
 43
30.0
  0
LINE
  8
SUNPOU
 10
3901.332692
 20
1936.864045
 30
0.0
 11
4000.332692
 21
1936.864045
 31
0.0
  0
LINE
  8
SUNPOU
 10
3876.332692
 20
1936.864045
 30
0.0
 11
3816.332692
 21
1936.864045
 31
0.0
  0
TEXT
  8
SUNPOU
 10
3907.97555
 20
1981.864045
 30
0.0
 40
45.0
  1
25
  7
K
 72
     1
 11
3950.832692
 21
1981.864045
 31
0.0
  0
LINE
  8
SUNPOU
 10
3126.332692
 20
1966.864045
 30
0.0
 11
3126.332692
 21
1966.864045
 31
0.0
  0
LINE
  8
SUNPOU
 10
3201.332835
 20
1966.571105
 30
0.0
 11
3201.332835
 21
1966.864045
 31
0.0
  0
LINE
  8
SUNPOU
 10
3126.332692
 20
1936.864045
 30
0.0
 11
3201.332835
 21
1936.864045
 31
0.0
  0
LINE
  8
SUNPOU
 10
3201.332835
 20
1936.864045
 30
0.0
 11
3300.332835
 21
1936.864045
 31
0.0
  0
TEXT
  8
SUNPOU
 10
3231.0591
 20
1979.845998
 30
0.0
 40
45.0
  1
75
  7
K
 72
     1
 11
3273.916243
 21
1979.845998
 31
0.0
  0
LINE
  8
SUNPOU
 10
3126.332692
 20
1936.864045
 30
0.0
 11
3156.332835
 21
1928.825531
 31
0.0
  0
LINE
  8
SUNPOU
 10
3126.332692
 20
1936.864045
 30
0.0
 11
3156.332835
 21
1944.902559
 31
0.0
  0
LINE
  8
SUNPOU
 10
3201.332835
 20
1936.864045
 30
0.0
 11
3171.332692
 21
1944.902559
 31
0.0
  0
LINE
  8
SUNPOU
 10
3201.332835
 20
1936.864045
 30
0.0
 11
3171.332692
 21
1928.825531
 31
0.0
  0
LINE
  8
SUNPOU
 10
3156.332835
 20
1924.806331
 30
0.0
 11
3156.332835
 21
1924.806331
 31
0.0
  0
LINE
  8
SUNPOU
 10
3801.332692
 20
1936.864045
 30
0.0
 11
3831.332692
 21
1928.825569
 31
0.0
  0
LINE
  8
SUNPOU
 10
3801.332692
 20
1936.864045
 30
0.0
 11
3831.332692
 21
1944.902521
 31
0.0
  0
LINE
  8
SUNPOU
 10
3876.332692
 20
1936.864045
 30
0.0
 11
3846.332692
 21
1944.902521
 31
0.0
  0
LINE
  8
SUNPOU
 10
3876.332692
 20
1936.864045
 30
0.0
 11
3846.332692
 21
1928.825569
 31
0.0
  0
LINE
  8
TENSEN
 10
2801.332692
 20
2646.864045
 30
0.0
 11
4201.332692
 21
2646.864045
 31
0.0
  0
LINE
  8
TENSEN
 10
4201.332692
 20
2646.864045
 30
0.0
 11
4201.332692
 21
2089.864045
 31
0.0
  0
LINE
  8
TENSEN
 10
4201.332692
 20
1783.864045
 30
0.0
 11
4201.332692
 21
1226.864045
 31
0.0
  0
LINE
  8
TENSEN
 10
4201.332692
 20
1226.864045
 30
0.0
 11
2801.332692
 21
1226.864045
 31
0.0
  0
LINE
  8
TENSEN
 10
2801.332692
 20
1226.864045
 30
0.0
 11
2801.332692
 21
1783.864045
 31
0.0
  0
LINE
  8
TENSEN
 10
2801.332692
 20
2089.864045
 30
0.0
 11
2801.332692
 21
2646.864045
 31
0.0
  0
LINE
  8
SUNPOU
 10
2801.332692
 20
2676.864045
 30
0.0
 11
2801.332692
 21
2826.864045
 31
0.0
  0
LINE
  8
SUNPOU
 10
4201.332692
 20
2676.864045
 30
0.0
 11
4201.332692
 21
2826.864045
 31
0.0
  0
LINE
  8
SUNPOU
 10
2801.332692
 20
2796.864045
 30
0.0
 11
4201.332692
 21
2796.864045
 31
0.0
  0
INSERT
  8
SUNPOU
  2
ARROWANG
 10
2801.332692
 20
2796.864045
 30
0.0
 41
30.0
 42
30.0
 50
180.0
 43
30.0
  0
INSERT
  8
SUNPOU
  2
ARROWANG
 10
4201.332692
 20
2796.864045
 30
0.0
 41
30.0
 42
30.0
 43
30.0
  0
TEXT
  8
SUNPOU
 10
3399.535134
 20
2831.899346
 30
0.0
 40
60.0
  1
掘削幅
  7
K
 72
     1
 11
3500.106563
 21
2831.899346
 31
0.0
  0
LINE
  8
SUNPOU
 10
2771.856165
 20
1226.864045
 30
0.0
 11
2621.856165
 21
1226.864045
 31
0.0
  0
LINE
  8
SUNPOU
 10
2771.856165
 20
2646.864045
 30
0.0
 11
2621.856165
 21
2646.864045
 31
0.0
  0
LINE
  8
SUNPOU
 10
2651.856165
 20
1226.864045
 30
0.0
 11
2651.856165
 21
2646.864045
 31
0.0
  0
INSERT
  8
SUNPOU
  2
ARROWANG
 10
2651.856165
 20
1226.864045
 30
0.0
 41
30.0
 42
30.0
 50
270.0
 43
30.0
  0
INSERT
  8
SUNPOU
  2
ARROWANG
 10
2651.856165
 20
2646.864045
 30
0.0
 41
30.0
 42
30.0
 50
90.0
 43
30.0
  0
TEXT
  8
SUNPOU
 10
2613.997839
 20
1834.816936
 30
0.0
 40
60.0
  1
掘削幅
 50
90.0
  7
K
 72
     1
 11
2613.997839
 21
1935.388364
 31
0.0
  0
LINE
  8
JISSEN
 10
6032.319443
 20
1522.210377
 30
0.0
 11
5987.319443
 21
1510.152664
 31
0.0
  0
LINE
  8
JISSEN
 10
5987.319443
 20
1534.268091
 30
0.0
 11
6032.319443
 21
1522.210377
 31
0.0
  0
LINE
  8
JISSEN
 10
6032.319443
 20
1522.210377
 30
0.0
 11
5782.319443
 21
1522.210377
 31
0.0
  0
LINE
  8
JISSEN
 10
5744.011865
 20
1740.178424
 30
0.0
 11
6119.011865
 21
1740.178424
 31
0.0
  0
LINE
  8
JISSEN
 10
6119.011865
 20
1740.178424
 30
0.0
 11
6119.011865
 21
1712.178424
 31
0.0
  0
LINE
  8
JISSEN
 10
6119.011865
 20
1462.178424
 30
0.0
 11
6119.011865
 21
1434.178424
 31
0.0
  0
LINE
  8
JISSEN
 10
6119.011865
 20
1434.178424
 30
0.0
 11
5744.011865
 21
1434.178424
 31
0.0
  0
LINE
  8
JISSEN
 10
5744.011865
 20
1462.178424
 30
0.0
 11
6119.011865
 21
1462.178424
 31
0.0
  0
LINE
  8
JISSEN
 10
6119.011865
 20
1712.178424
 30
0.0
 11
5744.011865
 21
1712.178424
 31
0.0
  0
LINE
  8
SAISEN
 10
6179.011865
 20
1617.178424
 30
0.0
 11
6059.011865
 21
1557.178424
 31
0.0
  0
LINE
  8
SAISEN
 10
6059.011865
 20
1557.178424
 30
0.0
 11
6119.011865
 21
1527.178424
 31
0.0
  0
LINE
  8
SAISEN
 10
6179.011865
 20
1617.178424
 30
0.0
 11
6119.011865
 21
1647.178424
 31
0.0
  0
LINE
  8
SAISEN
 10
6119.011865
 20
1840.178424
 30
0.0
 11
6119.011865
 21
1647.178424
 31
0.0
  0
LINE
  8
SAISEN
 10
6119.011865
 20
1527.178424
 30
0.0
 11
6119.011865
 21
1334.178424
 31
0.0
  0
LINE
  8
SUNPOU
 10
5874.011865
 20
962.178424
 30
0.0
 11
6473.045363
 21
962.178424
 31
0.0
  0
LINE
  8
SUNPOU
 10
5874.011865
 20
1162.178424
 30
0.0
 11
6473.045363
 21
1162.178424
 31
0.0
  0
LINE
  8
SUNPOU
 10
6443.045363
 20
962.178424
 30
0.0
 11
6443.045363
 21
1162.178424
 31
0.0
  0
INSERT
  8
SUNPOU
  2
ARROWANG
 10
6443.045363
 20
962.178424
 30
0.0
 41
30.0
 42
30.0
 50
270.0
 43
30.0
  0
INSERT
  8
SUNPOU
  2
ARROWANG
 10
6443.045363
 20
1162.178424
 30
0.0
 41
30.0
 42
30.0
 50
90.0
 43
30.0
  0
TEXT
  8
SUNPOU
 10
6398.045363
 20
997.892709
 30
0.0
 40
45.0
  1
200
 50
90.0
  7
K
 72
     1
 11
6398.045363
 21
1062.178424
 31
0.0
  0
LINE
  8
SUNPOU
 10
6413.045363
 20
1162.178424
 30
0.0
 11
6413.045363
 21
1162.178424
 31
0.0
  0
LINE
  8
SUNPOU
 10
5799.011865
 20
1292.178424
 30
0.0
 11
6473.045363
 21
1292.178424
 31
0.0
  0
LINE
  8
SUNPOU
 10
6443.045363
 20
1162.178424
 30
0.0
 11
6443.045363
 21
1292.178424
 31
0.0
  0
INSERT
  8
SUNPOU
  2
ARROWANG
 10
6443.045363
 20
1162.178424
 30
0.0
 41
30.0
 42
30.0
 50
270.0
 43
30.0
  0
INSERT
  8
SUNPOU
  2
ARROWANG
 10
6443.045363
 20
1292.178424
 30
0.0
 41
30.0
 42
30.0
 50
90.0
 43
30.0
  0
TEXT
  8
SUNPOU
 10
6398.045363
 20
1159.678424
 30
0.0
 40
45.0
  1
130
 50
90.0
  7
K
 72
     1
 11
6398.045363
 21
1227.178424
 31
0.0
  0
LINE
  8
SUNPOU
 10
6413.045363
 20
1292.178424
 30
0.0
 11
6413.045363
 21
1292.178424
 31
0.0
  0
LINE
  8
SUNPOU
 10
6349.011865
 20
1462.178424
 30
0.0
 11
6473.045363
 21
1462.178424
 31
0.0
  0
LINE
  8
SUNPOU
 10
6443.045363
 20
1292.178424
 30
0.0
 11
6443.045363
 21
1462.178424
 31
0.0
  0
INSERT
  8
SUNPOU
  2
ARROWANG
 10
6443.045363
 20
1292.178424
 30
0.0
 41
30.0
 42
30.0
 50
270.0
 43
30.0
  0
INSERT
  8
SUNPOU
  2
ARROWANG
 10
6443.045363
 20
1462.178424
 30
0.0
 41
30.0
 42
30.0
 50
90.0
 43
30.0
  0
TEXT
  8
SUNPOU
 10
6398.045363
 20
1309.678424
 30
0.0
 40
45.0
  1
170
 50
90.0
  7
K
 72
     1
 11
6398.045363
 21
1377.178424
 31
0.0
  0
CIRCLE
  8
JISSEN
 10
1741.280022
 20
1607.178424
 30
0.0
 40
125.0
  0
ARC
  8
TENSEN
 10
1741.280022
 20
1587.178424
 30
0.0
 40
125.0
 50
175.411434
 51
4.588566
  0
LINE
  8
SUNPOU
 10
1761.280022
 20
1462.178424
 30
0.0
 11
2461.280022
 21
1462.178424
 31
0.0
  0
LINE
  8
SUNPOU
 10
2108.762144
 20
3012.178424
 30
0.0
 11
2461.280022
 21
3012.178424
 31
0.0
  0
LINE
  8
SUNPOU
 10
2441.280022
 20
1462.178424
 30
0.0
 11
2441.280022
 21
3012.178424
 31
0.0
  0
INSERT
  8
SUNPOU
  2
ARROWANG
 10
2441.280022
 20
1462.178424
 30
0.0
 41
30.0
 42
30.0
 50
270.0
 43
30.0
  0
INSERT
  8
SUNPOU
  2
ARROWANG
 10
2441.280022
 20
3012.178424
 30
0.0
 41
30.0
 42
30.0
 50
90.0
 43
30.0
  0
TEXT
  8
SUNPOU
 10
2411.280022
 20
1993.178424
 30
0.0
 40
60.0
  1
マンホール深さ
 50
90.0
  7
K
 72
     1
 11
2411.280022
 21
2237.178424
 31
0.0
  0
INSERT
  8
SUNPOU
  2
ARROWANG
 10
5031.07297
 20
2907.486065
 30
0.0
 41
30.0
 42
30.0
 50
330.626565
 43
30.0
  0
LINE
  8
SUNPOU
 10
5031.07297
 20
2907.486065
 30
0.0
 11
4883.734943
 21
2990.416798
 31
0.0
  0
TEXT
  8
SUNPOU
 10
4313.482208
 20
3014.869455
 30
0.0
 40
60.0
  1
調整ワッシャー
  7
K
  0
LINE
  8
SUNPOU
 10
4883.734943
 20
2990.416798
 30
0.0
 11
4253.455604
 21
2990.416798
 31
0.0
  0
TEXT
  8
TEXT
 10
4387.151222
 20
2888.562273
 30
0.0
 40
60.0
  1
(MWB)
  7
K
  0
TEXT
  8
SUNPOU
 10
6005.141038
 20
3148.418333
 30
0.0
 40
60.0
  1
　ふた及び受け枠
  7
K
  0
LINE
  8
SUNPOU
 10
6005.141038
 20
3128.418333
 30
0.0
 11
6832.780573
 21
3128.418333
 31
0.0
  0
TEXT
  8
SUNPOU
 10
6075.172075
 20
2846.225078
 30
0.0
 40
60.0
  1
モルタル
  7
K
  0
TEXT
  8
SUNPOU
 10
6001.503062
 20
2759.954851
 30
0.0
 40
60.0
  1
　調整リング  ( MR )
  7
K
  0
INSERT
  8
SUNPOU
  2
ARROWANG
 10
5821.423251
 20
2539.028712
 30
0.0
 41
30.0
 42
30.0
 50
209.92535
 43
30.0
  0
LINE
  8
SUNPOU
 10
5821.423251
 20
2539.028712
 30
0.0
 11
6005.141038
 21
2644.779312
 31
0.0
  0
TEXT
  8
SUNPOU
 10
6005.141038
 20
2664.779312
 30
0.0
 40
60.0
  1
　斜壁        ( MYT )
  7
K
  0
LINE
  8
SUNPOU
 10
6005.141038
 20
2644.779312
 30
0.0
 11
6832.780573
 21
2644.779312
 31
0.0
  0
INSERT
  8
SUNPOU
  2
ARROWANG
 10
5816.875781
 20
2042.000893
 30
0.0
 41
30.0
 42
30.0
 50
210.469065
 43
30.0
  0
LINE
  8
SUNPOU
 10
5816.875781
 20
2042.000893
 30
0.0
 11
6005.141038
 21
2152.760732
 31
0.0
  0
TEXT
  8
SUNPOU
 10
6005.141038
 20
2172.760732
 30
0.0
 40
60.0
  1
　直壁        ( MYS )
  7
K
  0
LINE
  8
SUNPOU
 10
6005.141038
 20
2152.760732
 30
0.0
 11
6832.780573
 21
2152.760732
 31
0.0
  0
INSERT
  8
SUNPOU
  2
ARROWANG
 10
5816.875781
 20
1784.303379
 30
0.0
 41
30.0
 42
30.0
 50
210.469065
 43
30.0
  0
LINE
  8
SUNPOU
 10
5816.875781
 20
1784.303379
 30
0.0
 11
6005.141038
 21
1895.063218
 31
0.0
  0
TEXT
  8
SUNPOU
 10
6005.141038
 20
1915.063218
 30
0.0
 40
60.0
  1
　管取付壁( MYB )
  7
K
  0
LINE
  8
SUNPOU
 10
6005.141038
 20
1895.063218
 30
0.0
 11
6832.780573
 21
1895.063218
 31
0.0
  0
TEXT
  8
SUNPOU
 10
4325.30563
 20
1177.59193
 30
0.0
 40
60.0
  1
底版 ( MYP )
  7
K
  0
LINE
  8
SUNPOU
 10
4871.911521
 20
1143.677377
 30
0.0
 11
4237.084712
 21
1143.677377
 31
0.0
  0
INSERT
  8
SUNPOU
  2
ARROWANG
 10
5853.255541
 20
2829.007988
 30
0.0
 41
30.0
 42
30.0
 50
150.087144
 43
30.0
  0
LINE
  8
SUNPOU
 10
5853.255541
 20
2829.007988
 30
0.0
 11
6005.141038
 21
2741.624598
 31
0.0
  0
LINE
  8
SUNPOU
 10
6005.141038
 20
2741.624598
 30
0.0
 11
6832.780573
 21
2741.624598
 31
0.0
  0
INSERT
  8
SUNPOU
  2
ARROWANG
 10
5803.233371
 20
3008.784008
 30
0.0
 41
30.0
 42
30.0
 50
210.654063
 43
30.0
  0
LINE
  8
SUNPOU
 10
5803.233371
 20
3008.784008
 30
0.0
 11
6005.141038
 21
3128.44916
 31
0.0
  0
LINE
  8
SUNPOU
 10
6005.141038
 20
3128.44916
 30
0.0
 11
6005.141038
 21
3128.44916
 31
0.0
  0
INSERT
  8
SUNPOU
  2
ARROWANG
 10
5044.71538
 20
1241.079245
 30
0.0
 41
30.0
 42
30.0
 50
30.885297
 43
30.0
  0
LINE
  8
SUNPOU
 10
5044.71538
 20
1241.079245
 30
0.0
 11
4883.734943
 21
1144.790541
 31
0.0
  0
INSERT
  8
SUNPOU
  2
ARROWANG
 10
5863.288596
 20
2908.656398
 30
0.0
 41
30.0
 42
30.0
 50
152.570161
 43
30.0
  0
LINE
  8
SUNPOU
 10
5863.288596
 20
2908.656398
 30
0.0
 11
6006.988647
 21
2834.074396
 31
0.0
  0
LINE
  8
SUNPOU
 10
6006.988647
 20
2834.074396
 30
0.0
 11
6816.438302
 21
2834.074396
 31
0.0
  0
LINE
  8
SUNPOU
 10
6139.011865
 20
1462.178424
 30
0.0
 11
7152.780573
 21
1462.178424
 31
0.0
  0
LINE
  8
SUNPOU
 10
5821.493987
 20
3012.178424
 30
0.0
 11
7152.780573
 21
3012.178424
 31
0.0
  0
LINE
  8
SUNPOU
 10
7132.780573
 20
1462.178424
 30
0.0
 11
7132.780573
 21
3012.178424
 31
0.0
  0
INSERT
  8
SUNPOU
  2
ARROWANG
 10
7132.780573
 20
1462.178424
 30
0.0
 41
30.0
 42
30.0
 50
270.0
 43
30.0
  0
INSERT
  8
SUNPOU
  2
ARROWANG
 10
7132.780573
 20
3012.178424
 30
0.0
 41
30.0
 42
30.0
 50
90.0
 43
30.0
  0
TEXT
  8
SUNPOU
 10
7102.780573
 20
1993.178424
 30
0.0
 40
60.0
  1
マンホール深さ
 50
90.0
  7
K
 72
     1
 11
7102.780573
 21
2237.178424
 31
0.0
  0
TEXT
  8
TEXT
 10
3268.001869
 20
4188.357771
 30
0.0
 40
200.0
  1
構造標準図
  7
K
  0
TEXT
  8
TEXT
 10
1501.418344
 20
3508.051243
 30
0.0
 40
160.0
  1
横断面図
  7
K
  0
TEXT
  8
TEXT
 10
3176.61423
 20
2987.782255
 30
0.0
 40
160.0
  1
平面図
  7
K
  0
TEXT
  8
TEXT
 10
5226.344458
 20
3513.707147
 30
0.0
 40
160.0
  1
縦断面図
  7
K
  0
TEXT
  8
JISSEN
 10
1942.090863
 20
5047.43157
 30
0.0
 40
200.0
  1
組立マンホール構造図
  7
K
  0
TEXT
  8
JISSEN
 10
4766.938169
 20
5099.751309
 30
0.0
 40
133.333333
  1
( 内径 600mm )
  7
K
  0
LINE
  8
JISSEN
 10
2034.780022
 20
1284.178424
 30
0.0
 11
2022.280022
 21
1734.178424
 31
0.0
  0
LINE
  8
JISSEN
 10
1592.280022
 20
1284.178424
 30
0.0
 11
1596.280022
 21
1264.178424
 31
0.0
  0
LINE
  8
JISSEN
 10
1596.280022
 20
1264.178424
 30
0.0
 11
1886.280022
 21
1264.178424
 31
0.0
  0
LINE
  8
JISSEN
 10
1886.280022
 20
1264.178424
 30
0.0
 11
1890.280022
 21
1284.178424
 31
0.0
  0
LINE
  8
JISSEN
 10
1447.780022
 20
1284.178424
 30
0.0
 11
1460.280022
 21
1734.178424
 31
0.0
  0
LINE
  8
JISSEN
 10
1460.280022
 20
1734.178424
 30
0.0
 11
1616.680664
 21
1734.178424
 31
0.0
  0
LINE
  8
JISSEN
 10
1616.680664
 20
1734.178424
 30
0.0
 11
1616.680664
 21
1597.178424
 31
0.0
  0
LINE
  8
JISSEN
 10
1865.879379
 20
1734.178424
 30
0.0
 11
1865.879379
 21
1597.178424
 31
0.0
  0
LINE
  8
JISSEN
 10
1865.879379
 20
1734.178424
 30
0.0
 11
2022.280022
 21
1734.178424
 31
0.0
  0
INSERT
  8
SUNPOU
  2
ARROWANG
 10
1927.911785
 20
1391.119885
 30
0.0
 41
30.0
 42
30.0
 50
140.33515
 43
30.0
  0
LINE
  8
SUNPOU
 10
1927.911785
 20
1391.119885
 30
0.0
 11
2284.055792
 21
1095.812333
 31
0.0
  0
TEXT
  8
SUNPOU
 10
2357.702856
 20
1115.812333
 30
0.0
 40
60.0
  1
インバート
  7
K
  0
LINE
  8
SUNPOU
 10
2284.055792
 20
1095.812333
 30
0.0
 11
2767.708148
 21
1095.812333
 31
0.0
  0
POLYLINE
  8
WAKU
 66
     1
 10
0.0
 20
0.0
 30
0.0
 70
     1
  0
VERTEX
  8
WAKU
 10
0.0
 20
0.0
 30
0.0
  0
VERTEX
  8
WAKU
 10
7900.0
 20
0.0
 30
0.0
  0
VERTEX
  8
WAKU
 10
7900.0
 20
5460.0
 30
0.0
  0
VERTEX
  8
WAKU
 10
0.0
 20
5460.0
 30
0.0
  0
SEQEND
  8
WAKU
  0
TEXT
  8
TEXT
 10
7324.692282
 20
512.99697
 30
0.0
 40
128.0
  1
1/20
  7
K
  0
TEXT
  8
SUNPOU
 10
4239.260381
 20
1057.447268
 30
0.0
 40
60.0
  1
( MYPB,MYPF )
  7
K
  0
ENDSEC
  0
EOF
