  0
SECTION
  2
HEADER
  9
$ACADVER
  1
AC1009
  9
$INSBASE
 10
0.0
 20
0.0
 30
0.0
  9
$EXTMIN
 10
0.0
 20
0.0
 30
0.0
  9
$EXTMAX
 10
7900.0
 20
5460.0
 30
0.0
  9
$LIMMIN
 10
0.0
 20
0.0
  9
$LIMMAX
 10
7900.0
 20
5460.0
  9
$ORTHOMODE
 70
     0
  9
$REGENMODE
 70
     1
  9
$FILLMODE
 70
     1
  9
$QTEXTMODE
 70
     0
  9
$MIRRTEXT
 70
     0
  9
$DRAGMODE
 70
     2
  9
$LTSCALE
 40
100.0
  9
$OSMODE
 70
    33
  9
$ATTMODE
 70
     1
  9
$TEXTSIZE
 40
45.0
  9
$TRACEWID
 40
0.05
  9
$TEXTSTYLE
  7
K
  9
$CLAYER
  8
SUNPOU
  9
$CELTYPE
  6
BYLAYER
  9
$CECOLOR
 62
   256
  9
$DIMSCALE
 40
20.0
  9
$DIMASZ
 40
1.5
  9
$DIMEXO
 40
1.0
  9
$DIMDLI
 40
6.0
  9
$DIMRND
 40
0.0
  9
$DIMDLE
 40
0.0
  9
$DIMEXE
 40
1.0
  9
$DIMTP
 40
495.0
  9
$DIMTM
 40
0.0
  9
$DIMTXT
 40
3.0
  9
$DIMCEN
 40
0.0
  9
$DIMTSZ
 40
0.0
  9
$DIMTOL
 70
     0
  9
$DIMLIM
 70
     0
  9
$DIMTIH
 70
     0
  9
$DIMTOH
 70
     0
  9
$DIMSE1
 70
     0
  9
$DIMSE2
 70
     0
  9
$DIMTAD
 70
     1
  9
$DIMZIN
 70
     8
  9
$DIMBLK
  1
ARROW
  9
$DIMASO
 70
     0
  9
$DIMSHO
 70
     0
  9
$DIMPOST
  1

  9
$DIMAPOST
  1

  9
$DIMALT
 70
     0
  9
$DIMALTD
 70
     2
  9
$DIMALTF
 40
25.4
  9
$DIMLFAC
 40
1.0
  9
$DIMTOFL
 70
     1
  9
$DIMTVP
 40
0.0
  9
$DIMTIX
 70
     1
  9
$DIMSOXD
 70
     0
  9
$DIMSAH
 70
     0
  9
$DIMBLK1
  1

  9
$DIMBLK2
  1

  9
$DIMSTYLE
  2
*UNNAMED
  9
$DIMCLRD
 70
     0
  9
$DIMCLRE
 70
     0
  9
$DIMCLRT
 70
     0
  9
$DIMTFAC
 40
1.0
  9
$DIMGAP
 40
0.09
  9
$LUNITS
 70
     2
  9
$LUPREC
 70
     2
  9
$AXISMODE
 70
     0
  9
$AXISUNIT
 10
100.0
 20
100.0
  9
$SKETCHINC
 40
0.1
  9
$FILLETRAD
 40
300.0
  9
$AUNITS
 70
     0
  9
$AUPREC
 70
     2
  9
$MENU
  1
G:STDGX5
  9
$ELEVATION
 40
0.0
  9
$PELEVATION
 40
0.0
  9
$THICKNESS
 40
0.0
  9
$LIMCHECK
 70
     0
  9
$BLIPMODE
 70
     1
  9
$CHAMFERA
 40
0.0
  9
$CHAMFERB
 40
0.0
  9
$SKPOLY
 70
     0
  9
$TDCREATE
 40
2450249.499398148
  9
$TDUPDATE
 40
2450255.720520833
  9
$TDINDWG
 40
0.0023032407
  9
$TDUSRTIMER
 40
0.0023032407
  9
$USRTIMER
 70
     1
  9
$ANGBASE
 50
0.0
  9
$ANGDIR
 70
     0
  9
$PDMODE
 70
     0
  9
$PDSIZE
 40
0.0
  9
$PLINEWID
 40
0.0
  9
$COORDS
 70
     2
  9
$SPLFRAME
 70
     0
  9
$SPLINETYPE
 70
     6
  9
$SPLINESEGS
 70
     8
  9
$ATTDIA
 70
     0
  9
$ATTREQ
 70
     1
  9
$HANDLING
 70
     0
  9
$HANDSEED
  5
0
  9
$SURFTAB1
 70
     6
  9
$SURFTAB2
 70
     6
  9
$SURFTYPE
 70
     6
  9
$SURFU
 70
     6
  9
$SURFV
 70
     6
  9
$UCSNAME
  2

  9
$UCSORG
 10
0.0
 20
0.0
 30
0.0
  9
$UCSXDIR
 10
1.0
 20
0.0
 30
0.0
  9
$UCSYDIR
 10
0.0
 20
1.0
 30
0.0
  9
$PUCSNAME
  2

  9
$PUCSORG
 10
0.0
 20
0.0
 30
0.0
  9
$PUCSXDIR
 10
1.0
 20
0.0
 30
0.0
  9
$PUCSYDIR
 10
0.0
 20
1.0
 30
0.0
  9
$USERI1
 70
     3
  9
$USERI2
 70
    33
  9
$USERI3
 70
     0
  9
$USERI4
 70
     1
  9
$USERI5
 70
     0
  9
$USERR1
 40
20.0
  9
$USERR2
 40
3.0
  9
$USERR3
 40
3.0
  9
$USERR4
 40
1.5
  9
$USERR5
 40
10.0
  9
$WORLDVIEW
 70
     1
  9
$SHADEDGE
 70
     3
  9
$SHADEDIF
 70
    70
  9
$TILEMODE
 70
     1
  9
$MAXACTVP
 70
    16
  9
$PINSBASE
 10
0.0
 20
0.0
 30
0.0
  9
$PLIMCHECK
 70
     0
  9
$PEXTMIN
 10
1.000000E+20
 20
1.000000E+20
 30
1.000000E+20
  9
$PEXTMAX
 10
-1.000000E+20
 20
-1.000000E+20
 30
-1.000000E+20
  9
$PLIMMIN
 10
0.0
 20
0.0
  9
$PLIMMAX
 10
12.0
 20
9.0
  9
$UNITMODE
 70
     0
  9
$VISRETAIN
 70
     0
  0
ENDSEC
  0
SECTION
  2
TABLES
  0
TABLE
  2
VPORT
 70
    10
  0
VPORT
  2
*ACTIVE
 70
     0
 10
0.0
 20
0.0
 11
1.0
 21
1.0
 12
4461.010491
 22
2730.0
 13
0.0
 23
0.0
 14
1.0
 24
1.0
 15
10.0
 25
10.0
 16
0.0
 26
0.0
 36
1.0
 17
0.0
 27
0.0
 37
0.0
 40
5460.0
 41
1.63407
 42
50.0
 43
0.0
 44
0.0
 50
0.0
 51
0.0
 71
     0
 72
   500
 73
     1
 74
     0
 75
     0
 76
     0
 77
     0
 78
     0
  0
VPORT
  2
2
 70
     0
 10
0.5
 20
0.0
 11
1.0
 21
1.0
 12
0.924031
 22
1.052651
 13
0.0
 23
0.0
 14
1.0
 24
1.0
 15
10.0
 25
10.0
 16
0.0
 26
0.0
 36
1.0
 17
0.0
 27
0.0
 37
0.0
 40
2.105302
 41
0.877814
 42
50.0
 43
0.0
 44
0.0
 50
0.0
 51
0.0
 71
     0
 72
   500
 73
     1
 74
     1
 75
     0
 76
     0
 77
     0
 78
     0
  0
VPORT
  2
2
 70
     0
 10
0.0
 20
0.0
 11
0.5
 21
1.0
 12
0.924031
 22
1.052651
 13
0.0
 23
0.0
 14
1.0
 24
1.0
 15
10.0
 25
10.0
 16
0.0
 26
0.0
 36
1.0
 17
0.0
 27
0.0
 37
0.0
 40
2.105302
 41
0.877814
 42
50.0
 43
0.0
 44
0.0
 50
0.0
 51
0.0
 71
     0
 72
   500
 73
     1
 74
     1
 75
     0
 76
     0
 77
     0
 78
     0
  0
VPORT
  2
3
 70
     0
 10
0.0
 20
0.5
 11
1.0
 21
1.0
 12
2.83217
 22
1.052651
 13
0.0
 23
0.0
 14
1.0
 24
1.0
 15
10.0
 25
10.0
 16
0.0
 26
0.0
 36
1.0
 17
0.0
 27
0.0
 37
0.0
 40
2.105302
 41
3.571429
 42
50.0
 43
0.0
 44
0.0
 50
0.0
 51
0.0
 71
     0
 72
   500
 73
     1
 74
     1
 75
     0
 76
     0
 77
     0
 78
     0
  0
VPORT
  2
3
 70
     0
 10
0.0
 20
0.0
 11
1.0
 21
0.5
 12
2.856742
 22
1.052651
 13
0.0
 23
0.0
 14
1.0
 24
1.0
 15
10.0
 25
10.0
 16
0.0
 26
0.0
 36
1.0
 17
0.0
 27
0.0
 37
0.0
 40
2.105302
 41
3.594771
 42
50.0
 43
0.0
 44
0.0
 50
0.0
 51
0.0
 71
     0
 72
   500
 73
     1
 74
     1
 75
     0
 76
     0
 77
     0
 78
     0
  0
VPORT
  2
4
 70
     0
 10
0.5
 20
0.0
 11
1.0
 21
0.5
 12
2.886858
 22
1.052651
 13
0.0
 23
0.0
 14
1.0
 24
1.0
 15
10.0
 25
10.0
 16
0.0
 26
0.0
 36
1.0
 17
0.0
 27
0.0
 37
0.0
 40
4.275207
 41
1.784314
 42
50.0
 43
0.0
 44
0.0
 50
0.0
 51
0.0
 71
     0
 72
   500
 73
     1
 74
     1
 75
     0
 76
     0
 77
     0
 78
     0
  0
VPORT
  2
4
 70
     0
 10
0.5
 20
0.5
 11
1.0
 21
1.0
 12
2.86209
 22
1.052651
 13
0.0
 23
0.0
 14
1.0
 24
1.0
 15
10.0
 25
10.0
 16
0.0
 26
0.0
 36
1.0
 17
0.0
 27
0.0
 37
0.0
 40
4.275207
 41
1.772727
 42
50.0
 43
0.0
 44
0.0
 50
0.0
 51
0.0
 71
     0
 72
   500
 73
     1
 74
     1
 75
     0
 76
     0
 77
     0
 78
     0
  0
VPORT
  2
4
 70
     0
 10
0.0
 20
0.5
 11
0.5
 21
1.0
 12
2.86209
 22
1.052651
 13
0.0
 23
0.0
 14
1.0
 24
1.0
 15
10.0
 25
10.0
 16
0.0
 26
0.0
 36
1.0
 17
0.0
 27
0.0
 37
0.0
 40
4.275207
 41
1.772727
 42
50.0
 43
0.0
 44
0.0
 50
0.0
 51
0.0
 71
     0
 72
   500
 73
     1
 74
     1
 75
     0
 76
     0
 77
     0
 78
     0
  0
VPORT
  2
4
 70
     0
 10
0.0
 20
0.0
 11
0.5
 21
0.5
 12
2.886858
 22
1.052651
 13
0.0
 23
0.0
 14
1.0
 24
1.0
 15
10.0
 25
10.0
 16
0.0
 26
0.0
 36
1.0
 17
0.0
 27
0.0
 37
0.0
 40
4.275207
 41
1.784314
 42
50.0
 43
0.0
 44
0.0
 50
0.0
 51
0.0
 71
     0
 72
   500
 73
     1
 74
     1
 75
     0
 76
     0
 77
     0
 78
     0
  0
ENDTAB
  0
TABLE
  2
LTYPE
 70
     5
  0
LTYPE
  2
CONTINUOUS
 70
    64
  3
実線
 72
    65
 73
     0
 40
0.0
  0
LTYPE
  2
DASHED
 70
    64
  3
__ __ __ __ __ __ __ __ __ __ __ __ __ __ __
 72
    65
 73
     2
 40
0.75
 49
0.5
 49
-0.25
  0
LTYPE
  2
CENTER
 70
    64
  3
____ _ ____ _ ____ _ ____ _ ____ _ ____ _ ____
 72
    65
 73
     4
 40
2.0
 49
1.25
 49
-0.25
 49
0.25
 49
-0.25
  0
LTYPE
  2
PHANTOM
 70
    64
  3
_____ _ _ _____ _ _ _____ _ _ _____ _ _ ____
 72
    65
 73
     6
 40
2.5
 49
1.25
 49
-0.25
 49
0.25
 49
-0.25
 49
0.25
 49
-0.25
  0
LTYPE
  2
HIDDEN
 70
    64
  3
_ _ _ _ _ _ _ _ _ _ _ _ _ _ _ _ _ _ _ _ _ _ _
 72
    65
 73
     2
 40
0.375
 49
0.25
 49
-0.125
  0
ENDTAB
  0
TABLE
  2
LAYER
 70
    14
  0
LAYER
  2
0
 70
     0
 62
     7
  6
CONTINUOUS
  0
LAYER
  2
ITTEN
 70
    64
 62
     1
  6
CENTER
  0
LAYER
  2
SUNPOU
 70
    64
 62
     3
  6
CONTINUOUS
  0
LAYER
  2
TEXT
 70
    64
 62
     3
  6
CONTINUOUS
  0
LAYER
  2
JISSEN
 70
    64
 62
     7
  6
CONTINUOUS
  0
LAYER
  2
TENSEN
 70
    64
 62
     2
  6
HIDDEN
  0
LAYER
  2
WAKU
 70
    64
 62
    -5
  6
CONTINUOUS
  0
ENDTAB
  0
TABLE
  2
STYLE
 70
     2
  0
STYLE
  2
STANDARD
 70
     0
 40
0.0
 41
1.0
 50
0.0
 71
     0
 42
0.2
  3
ROMANS
  4
EXTFONT
  0
STYLE
  2
K
 70
    64
 40
0.0
 41
1.0
 50
0.0
 71
     0
 42
45.0
  3
ROMANS
  4
EXTFONT
  0
ENDTAB
  0
TABLE
  2
VIEW
 70
     0
  0
ENDTAB
  0
TABLE
  2
UCS
 70
     0
  0
ENDTAB
  0
TABLE
  2
APPID
 70
     1
  0
APPID
  2
ACAD
 70
    64
  0
ENDTAB
  0
TABLE
  2
DIMSTYLE
 70
     0
  0
ENDTAB
  0
ENDSEC
  0
SECTION
  2
BLOCKS
  0
BLOCK
  8
SUNPOU
  2
ARROWANG
 70
    64
 10
0.0
 20
0.0
 30
0.0
  3
ARROWANG
  0
LINE
  8
SUNPOU
 10
0.0
 20
0.0
 30
0.0
 11
-1.5
 21
0.401924
 31
0.0
  0
LINE
  8
SUNPOU
 10
0.0
 20
0.0
 30
0.0
 11
-1.5
 21
-0.401924
 31
0.0
  0
ENDBLK
  8
SUNPOU
  0
ENDSEC
  0
SECTION
  2
ENTITIES
  0
LINE
  8
JISSEN
 10
1696.612123
 20
3365.661607
 30
0.0
 11
1696.612123
 21
3220.661607
 31
0.0
  0
LINE
  8
JISSEN
 10
1696.612123
 20
3220.661607
 30
0.0
 11
2096.612123
 21
3220.661607
 31
0.0
  0
LINE
  8
JISSEN
 10
1696.612123
 20
3365.661607
 30
0.0
 11
1761.612123
 21
3365.661607
 31
0.0
  0
LINE
  8
JISSEN
 10
1761.612123
 20
3365.661607
 30
0.0
 11
1766.612123
 21
3350.661607
 31
0.0
  0
LINE
  8
JISSEN
 10
1766.612123
 20
3350.661607
 30
0.0
 11
2096.612123
 21
3350.661607
 31
0.0
  0
LINE
  8
JISSEN
 10
1761.612123
 20
3365.661607
 30
0.0
 11
2096.612123
 21
3365.661607
 31
0.0
  0
LINE
  8
JISSEN
 10
1946.612123
 20
3350.661607
 30
0.0
 11
1946.612123
 21
3220.661607
 31
0.0
  0
LINE
  8
ITTEN
 10
2096.612123
 20
3465.661607
 30
0.0
 11
2096.612123
 21
3165.287941
 31
0.0
  0
LINE
  8
JISSEN
 10
1696.612123
 20
3293.161607
 30
0.0
 11
1726.612123
 21
3293.161607
 31
0.0
  0
LINE
  8
JISSEN
 10
1726.612123
 20
3293.161607
 30
0.0
 11
1726.612123
 21
3278.161607
 31
0.0
  0
LINE
  8
JISSEN
 10
1726.612123
 20
3278.161607
 30
0.0
 11
1696.612123
 21
3278.161607
 31
0.0
  0
LINE
  8
ITTEN
 10
1686.612123
 20
3285.661607
 30
0.0
 11
1736.612123
 21
3285.661607
 31
0.0
  0
LINE
  8
ITTEN
 10
2506.612123
 20
3285.661607
 30
0.0
 11
2456.612123
 21
3285.661607
 31
0.0
  0
LINE
  8
TENSEN
 10
2466.612123
 20
3278.161607
 30
0.0
 11
2496.612123
 21
3278.161607
 31
0.0
  0
LINE
  8
TENSEN
 10
2466.612123
 20
3293.161607
 30
0.0
 11
2466.612123
 21
3278.161607
 31
0.0
  0
LINE
  8
TENSEN
 10
2496.612123
 20
3293.161607
 30
0.0
 11
2466.612123
 21
3293.161607
 31
0.0
  0
LINE
  8
TENSEN
 10
2246.612123
 20
3350.661607
 30
0.0
 11
2246.612123
 21
3220.661607
 31
0.0
  0
LINE
  8
JISSEN
 10
2431.612123
 20
3365.661607
 30
0.0
 11
2096.612123
 21
3365.661607
 31
0.0
  0
LINE
  8
TENSEN
 10
2426.612123
 20
3350.661607
 30
0.0
 11
2096.612123
 21
3350.661607
 31
0.0
  0
LINE
  8
TENSEN
 10
2431.612123
 20
3365.661607
 30
0.0
 11
2426.612123
 21
3350.661607
 31
0.0
  0
LINE
  8
JISSEN
 10
2496.612123
 20
3365.661607
 30
0.0
 11
2431.612123
 21
3365.661607
 31
0.0
  0
LINE
  8
JISSEN
 10
2496.612123
 20
3220.661607
 30
0.0
 11
2096.612123
 21
3220.661607
 31
0.0
  0
LINE
  8
JISSEN
 10
2496.612123
 20
3365.661607
 30
0.0
 11
2496.612123
 21
3220.661607
 31
0.0
  0
LINE
  8
SUNPOU
 10
1761.612123
 20
3395.661607
 30
0.0
 11
1761.612123
 21
3695.661607
 31
0.0
  0
LINE
  8
SUNPOU
 10
2431.612123
 20
3395.661607
 30
0.0
 11
2431.612123
 21
3695.661607
 31
0.0
  0
LINE
  8
SUNPOU
 10
1761.612123
 20
3665.661607
 30
0.0
 11
2431.612123
 21
3665.661607
 31
0.0
  0
INSERT
  8
SUNPOU
  2
ARROWANG
 10
1761.612123
 20
3665.661607
 30
0.0
 41
30.0
 42
30.0
 50
180.0
 43
30.0
  0
INSERT
  8
SUNPOU
  2
ARROWANG
 10
2431.612123
 20
3665.661607
 30
0.0
 41
30.0
 42
30.0
 43
30.0
  0
TEXT
  8
SUNPOU
 10
2031.254995
 20
3710.661607
 30
0.0
 40
45.0
  1
670
  7
K
 72
     1
 11
2096.612138
 21
3710.661607
 31
0.0
  0
LINE
  8
SUNPOU
 10
1766.612123
 20
3380.661607
 30
0.0
 11
1766.612123
 21
3545.661607
 31
0.0
  0
LINE
  8
SUNPOU
 10
2426.612123
 20
3380.661607
 30
0.0
 11
2426.612123
 21
3545.661607
 31
0.0
  0
LINE
  8
SUNPOU
 10
1766.612123
 20
3515.661607
 30
0.0
 11
2426.612123
 21
3515.661607
 31
0.0
  0
INSERT
  8
SUNPOU
  2
ARROWANG
 10
1766.612123
 20
3515.661607
 30
0.0
 41
30.0
 42
30.0
 50
180.0
 43
30.0
  0
INSERT
  8
SUNPOU
  2
ARROWANG
 10
2426.612123
 20
3515.661607
 30
0.0
 41
30.0
 42
30.0
 43
30.0
  0
TEXT
  8
SUNPOU
 10
2031.254995
 20
3560.661607
 30
0.0
 40
45.0
  1
660
  7
K
 72
     1
 11
2096.612138
 21
3560.661607
 31
0.0
  0
LINE
  8
SUNPOU
 10
1696.612123
 20
3190.661607
 30
0.0
 11
1696.612123
 21
2890.661607
 31
0.0
  0
LINE
  8
SUNPOU
 10
2496.612123
 20
3190.661607
 30
0.0
 11
2496.612123
 21
2890.661607
 31
0.0
  0
LINE
  8
SUNPOU
 10
1696.612123
 20
2920.661607
 30
0.0
 11
2496.612123
 21
2920.661607
 31
0.0
  0
INSERT
  8
SUNPOU
  2
ARROWANG
 10
1696.612123
 20
2920.661607
 30
0.0
 41
30.0
 42
30.0
 50
180.0
 43
30.0
  0
INSERT
  8
SUNPOU
  2
ARROWANG
 10
2496.612123
 20
2920.661607
 30
0.0
 41
30.0
 42
30.0
 43
30.0
  0
TEXT
  8
SUNPOU
 10
2032.326424
 20
2965.661607
 30
0.0
 40
45.0
  1
800
  7
K
 72
     1
 11
2096.612138
 21
2965.661607
 31
0.0
  0
LINE
  8
SUNPOU
 10
1946.612123
 20
3190.661607
 30
0.0
 11
1946.612123
 21
3040.661607
 31
0.0
  0
LINE
  8
SUNPOU
 10
2246.612123
 20
3190.661607
 30
0.0
 11
2246.612123
 21
3040.661607
 31
0.0
  0
LINE
  8
SUNPOU
 10
1946.612123
 20
3070.661607
 30
0.0
 11
2246.612123
 21
3070.661607
 31
0.0
  0
INSERT
  8
SUNPOU
  2
ARROWANG
 10
1946.612123
 20
3070.661607
 30
0.0
 41
30.0
 42
30.0
 50
180.0
 43
30.0
  0
INSERT
  8
SUNPOU
  2
ARROWANG
 10
2246.612123
 20
3070.661607
 30
0.0
 41
30.0
 42
30.0
 43
30.0
  0
TEXT
  8
SUNPOU
 10
2015.183567
 20
3115.661607
 30
0.0
 40
45.0
  1
%%C300
  7
K
 72
     1
 11
2096.612138
 21
3115.661607
 31
0.0
  0
LINE
  8
SUNPOU
 10
1666.612123
 20
3220.661607
 30
0.0
 11
1366.612123
 21
3220.661607
 31
0.0
  0
LINE
  8
SUNPOU
 10
1666.612123
 20
3365.661607
 30
0.0
 11
1366.612123
 21
3365.661607
 31
0.0
  0
LINE
  8
SUNPOU
 10
1396.612123
 20
3220.661607
 30
0.0
 11
1396.612123
 21
3365.661607
 31
0.0
  0
INSERT
  8
SUNPOU
  2
ARROWANG
 10
1396.612123
 20
3220.661607
 30
0.0
 41
30.0
 42
30.0
 50
270.0
 43
30.0
  0
INSERT
  8
SUNPOU
  2
ARROWANG
 10
1396.612123
 20
3365.661607
 30
0.0
 41
30.0
 42
30.0
 50
90.0
 43
30.0
  0
TEXT
  8
SUNPOU
 10
1351.612123
 20
3225.661607
 30
0.0
 40
45.0
  1
145
 50
90.0
  7
K
 72
     1
 11
1351.612123
 21
3293.161607
 31
0.0
  0
LINE
  8
SUNPOU
 10
1736.612123
 20
3350.661607
 30
0.0
 11
1516.612123
 21
3350.661607
 31
0.0
  0
LINE
  8
SUNPOU
 10
1576.612123
 20
3365.661607
 30
0.0
 11
1576.612123
 21
3365.661607
 31
0.0
  0
LINE
  8
SUNPOU
 10
1546.612123
 20
3350.661607
 30
0.0
 11
1546.612123
 21
3365.661607
 31
0.0
  0
INSERT
  8
SUNPOU
  2
ARROWANG
 10
1546.612123
 20
3350.661607
 30
0.0
 41
30.0
 42
30.0
 50
90.0
 43
30.0
  0
INSERT
  8
SUNPOU
  2
ARROWANG
 10
1546.612123
 20
3365.661607
 30
0.0
 41
30.0
 42
30.0
 50
270.0
 43
30.0
  0
LINE
  8
SUNPOU
 10
1546.612123
 20
3350.661607
 30
0.0
 11
1546.612123
 21
3251.661607
 31
0.0
  0
LINE
  8
SUNPOU
 10
1546.612123
 20
3365.661607
 30
0.0
 11
1546.612123
 21
3425.661607
 31
0.0
  0
TEXT
  8
SUNPOU
 10
1501.612123
 20
3255.090178
 30
0.0
 40
45.0
  1
15
 50
90.0
  7
K
 72
     1
 11
1501.612123
 21
3301.161607
 31
0.0
  0
LINE
  8
SUNPOU
 10
2526.612123
 20
3285.661607
 30
0.0
 11
2676.612123
 21
3285.661607
 31
0.0
  0
LINE
  8
SUNPOU
 10
2526.612123
 20
3365.661607
 30
0.0
 11
2676.612123
 21
3365.661607
 31
0.0
  0
LINE
  8
SUNPOU
 10
2646.612123
 20
3285.661607
 30
0.0
 11
2646.612123
 21
3365.661607
 31
0.0
  0
INSERT
  8
SUNPOU
  2
ARROWANG
 10
2646.612123
 20
3285.661607
 30
0.0
 41
30.0
 42
30.0
 50
90.0
 43
30.0
  0
INSERT
  8
SUNPOU
  2
ARROWANG
 10
2646.612123
 20
3365.661607
 30
0.0
 41
30.0
 42
30.0
 50
270.0
 43
30.0
  0
LINE
  8
SUNPOU
 10
2646.612123
 20
3285.661607
 30
0.0
 11
2646.612123
 21
3186.661607
 31
0.0
  0
LINE
  8
SUNPOU
 10
2646.612123
 20
3365.661607
 30
0.0
 11
2646.612123
 21
3425.661607
 31
0.0
  0
TEXT
  8
SUNPOU
 10
2601.612123
 20
3193.304464
 30
0.0
 40
45.0
  1
80
 50
90.0
  7
K
 72
     1
 11
2601.612123
 21
3236.161607
 31
0.0
  0
CIRCLE
  8
JISSEN
 10
2096.612123
 20
2065.661607
 30
0.0
 40
400.0
  0
CIRCLE
  8
JISSEN
 10
2096.612123
 20
2065.661607
 30
0.0
 40
335.0
  0
CIRCLE
  8
JISSEN
 10
2096.612123
 20
2065.661607
 30
0.0
 40
330.0
  0
CIRCLE
  8
JISSEN
 10
2096.612123
 20
2065.661607
 30
0.0
 40
150.0
  0
LINE
  8
TENSEN
 10
2496.612123
 20
2073.161607
 30
0.0
 11
2466.612123
 21
2073.161607
 31
0.0
  0
LINE
  8
TENSEN
 10
2466.612123
 20
2073.161607
 30
0.0
 11
2466.612123
 21
2058.161607
 31
0.0
  0
LINE
  8
TENSEN
 10
2466.612123
 20
2058.161607
 30
0.0
 11
2496.612123
 21
2058.161607
 31
0.0
  0
LINE
  8
ITTEN
 10
2096.612123
 20
2565.661607
 30
0.0
 11
2096.612123
 21
1565.661607
 31
0.0
  0
LINE
  8
ITTEN
 10
2596.612123
 20
2065.661607
 30
0.0
 11
1596.612123
 21
2065.661607
 31
0.0
  0
LINE
  8
TENSEN
 10
1726.612123
 20
2058.161607
 30
0.0
 11
1696.612123
 21
2058.161607
 31
0.0
  0
LINE
  8
TENSEN
 10
1726.612123
 20
2073.161607
 30
0.0
 11
1726.612123
 21
2058.161607
 31
0.0
  0
LINE
  8
TENSEN
 10
1696.612123
 20
2073.161607
 30
0.0
 11
1726.612123
 21
2073.161607
 31
0.0
  0
TEXT
  8
SUNPOU
 10
4401.612123
 20
3193.304464
 30
0.0
 40
45.0
  1
80
 50
90.0
  7
K
 72
     1
 11
4401.612123
 21
3236.161607
 31
0.0
  0
LINE
  8
SUNPOU
 10
4446.612123
 20
3365.661607
 30
0.0
 11
4446.612123
 21
3425.661607
 31
0.0
  0
LINE
  8
SUNPOU
 10
4446.612123
 20
3285.661607
 30
0.0
 11
4446.612123
 21
3186.661607
 31
0.0
  0
INSERT
  8
SUNPOU
  2
ARROWANG
 10
4446.612123
 20
3365.661607
 30
0.0
 41
30.0
 42
30.0
 50
270.0
 43
30.0
  0
INSERT
  8
SUNPOU
  2
ARROWANG
 10
4446.612123
 20
3285.661607
 30
0.0
 41
30.0
 42
30.0
 50
90.0
 43
30.0
  0
LINE
  8
SUNPOU
 10
4446.612123
 20
3285.661607
 30
0.0
 11
4446.612123
 21
3365.661607
 31
0.0
  0
LINE
  8
SUNPOU
 10
4326.612123
 20
3365.661607
 30
0.0
 11
4476.612123
 21
3365.661607
 31
0.0
  0
LINE
  8
SUNPOU
 10
4326.612123
 20
3285.661607
 30
0.0
 11
4476.612123
 21
3285.661607
 31
0.0
  0
TEXT
  8
SUNPOU
 10
3301.612123
 20
3255.090178
 30
0.0
 40
45.0
  1
15
 50
90.0
  7
K
 72
     1
 11
3301.612123
 21
3301.161607
 31
0.0
  0
LINE
  8
SUNPOU
 10
3346.612123
 20
3365.661607
 30
0.0
 11
3346.612123
 21
3425.661607
 31
0.0
  0
LINE
  8
SUNPOU
 10
3346.612123
 20
3350.661607
 30
0.0
 11
3346.612123
 21
3251.661607
 31
0.0
  0
INSERT
  8
SUNPOU
  2
ARROWANG
 10
3346.612123
 20
3365.661607
 30
0.0
 41
30.0
 42
30.0
 50
270.0
 43
30.0
  0
INSERT
  8
SUNPOU
  2
ARROWANG
 10
3346.612123
 20
3350.661607
 30
0.0
 41
30.0
 42
30.0
 50
90.0
 43
30.0
  0
LINE
  8
SUNPOU
 10
3346.612123
 20
3350.661607
 30
0.0
 11
3346.612123
 21
3365.661607
 31
0.0
  0
LINE
  8
SUNPOU
 10
3376.612123
 20
3365.661607
 30
0.0
 11
3376.612123
 21
3365.661607
 31
0.0
  0
LINE
  8
SUNPOU
 10
3536.612123
 20
3350.661607
 30
0.0
 11
3316.612123
 21
3350.661607
 31
0.0
  0
TEXT
  8
SUNPOU
 10
3151.612123
 20
3225.661607
 30
0.0
 40
45.0
  1
145
 50
90.0
  7
K
 72
     1
 11
3151.612123
 21
3293.161607
 31
0.0
  0
INSERT
  8
SUNPOU
  2
ARROWANG
 10
3196.612123
 20
3365.661607
 30
0.0
 41
30.0
 42
30.0
 50
90.0
 43
30.0
  0
INSERT
  8
SUNPOU
  2
ARROWANG
 10
3196.612123
 20
3220.661607
 30
0.0
 41
30.0
 42
30.0
 50
270.0
 43
30.0
  0
LINE
  8
SUNPOU
 10
3196.612123
 20
3220.661607
 30
0.0
 11
3196.612123
 21
3365.661607
 31
0.0
  0
LINE
  8
SUNPOU
 10
3466.612123
 20
3365.661607
 30
0.0
 11
3166.612123
 21
3365.661607
 31
0.0
  0
LINE
  8
SUNPOU
 10
3466.612123
 20
3220.661607
 30
0.0
 11
3166.612123
 21
3220.661607
 31
0.0
  0
TEXT
  8
SUNPOU
 10
3832.326424
 20
3115.661607
 30
0.0
 40
45.0
  1
300
  7
K
 72
     1
 11
3896.612138
 21
3115.661607
 31
0.0
  0
INSERT
  8
SUNPOU
  2
ARROWANG
 10
4046.612123
 20
3070.661607
 30
0.0
 41
30.0
 42
30.0
 43
30.0
  0
INSERT
  8
SUNPOU
  2
ARROWANG
 10
3746.612123
 20
3070.661607
 30
0.0
 41
30.0
 42
30.0
 50
180.0
 43
30.0
  0
LINE
  8
SUNPOU
 10
3746.612123
 20
3070.661607
 30
0.0
 11
4046.612123
 21
3070.661607
 31
0.0
  0
LINE
  8
SUNPOU
 10
4046.612123
 20
3190.661607
 30
0.0
 11
4046.612123
 21
3040.661607
 31
0.0
  0
LINE
  8
SUNPOU
 10
3746.612123
 20
3190.661607
 30
0.0
 11
3746.612123
 21
3040.661607
 31
0.0
  0
TEXT
  8
SUNPOU
 10
3832.326424
 20
2965.661607
 30
0.0
 40
45.0
  1
800
  7
K
 72
     1
 11
3896.612138
 21
2965.661607
 31
0.0
  0
INSERT
  8
SUNPOU
  2
ARROWANG
 10
4296.612123
 20
2920.661607
 30
0.0
 41
30.0
 42
30.0
 43
30.0
  0
INSERT
  8
SUNPOU
  2
ARROWANG
 10
3496.612123
 20
2920.661607
 30
0.0
 41
30.0
 42
30.0
 50
180.0
 43
30.0
  0
LINE
  8
SUNPOU
 10
3496.612123
 20
2920.661607
 30
0.0
 11
4296.612123
 21
2920.661607
 31
0.0
  0
LINE
  8
SUNPOU
 10
4296.612123
 20
3190.661607
 30
0.0
 11
4296.612123
 21
2890.661607
 31
0.0
  0
LINE
  8
SUNPOU
 10
3496.612123
 20
3190.661607
 30
0.0
 11
3496.612123
 21
2890.661607
 31
0.0
  0
TEXT
  8
SUNPOU
 10
3831.254995
 20
3560.661607
 30
0.0
 40
45.0
  1
660
  7
K
 72
     1
 11
3896.612138
 21
3560.661607
 31
0.0
  0
INSERT
  8
SUNPOU
  2
ARROWANG
 10
4226.612123
 20
3515.661607
 30
0.0
 41
30.0
 42
30.0
 43
30.0
  0
INSERT
  8
SUNPOU
  2
ARROWANG
 10
3566.612123
 20
3515.661607
 30
0.0
 41
30.0
 42
30.0
 50
180.0
 43
30.0
  0
LINE
  8
SUNPOU
 10
3566.612123
 20
3515.661607
 30
0.0
 11
4226.612123
 21
3515.661607
 31
0.0
  0
LINE
  8
SUNPOU
 10
4226.612123
 20
3380.661607
 30
0.0
 11
4226.612123
 21
3545.661607
 31
0.0
  0
LINE
  8
SUNPOU
 10
3566.612123
 20
3380.661607
 30
0.0
 11
3566.612123
 21
3545.661607
 31
0.0
  0
TEXT
  8
SUNPOU
 10
3831.254995
 20
3710.661607
 30
0.0
 40
45.0
  1
670
  7
K
 72
     1
 11
3896.612138
 21
3710.661607
 31
0.0
  0
INSERT
  8
SUNPOU
  2
ARROWANG
 10
4231.612123
 20
3665.661607
 30
0.0
 41
30.0
 42
30.0
 43
30.0
  0
INSERT
  8
SUNPOU
  2
ARROWANG
 10
3561.612123
 20
3665.661607
 30
0.0
 41
30.0
 42
30.0
 50
180.0
 43
30.0
  0
LINE
  8
SUNPOU
 10
3561.612123
 20
3665.661607
 30
0.0
 11
4231.612123
 21
3665.661607
 31
0.0
  0
LINE
  8
SUNPOU
 10
4231.612123
 20
3395.661607
 30
0.0
 11
4231.612123
 21
3695.661607
 31
0.0
  0
LINE
  8
SUNPOU
 10
3561.612123
 20
3395.661607
 30
0.0
 11
3561.612123
 21
3695.661607
 31
0.0
  0
LINE
  8
JISSEN
 10
4296.612123
 20
3365.661607
 30
0.0
 11
4296.612123
 21
3220.661607
 31
0.0
  0
LINE
  8
JISSEN
 10
4296.612123
 20
3220.661607
 30
0.0
 11
3896.612123
 21
3220.661607
 31
0.0
  0
LINE
  8
JISSEN
 10
4296.612123
 20
3365.661607
 30
0.0
 11
4231.612123
 21
3365.661607
 31
0.0
  0
LINE
  8
TENSEN
 10
4231.612123
 20
3365.661607
 30
0.0
 11
4226.612123
 21
3350.661607
 31
0.0
  0
LINE
  8
TENSEN
 10
4226.612123
 20
3350.661607
 30
0.0
 11
3896.612123
 21
3350.661607
 31
0.0
  0
LINE
  8
JISSEN
 10
4231.612123
 20
3365.661607
 30
0.0
 11
3896.612123
 21
3365.661607
 31
0.0
  0
LINE
  8
TENSEN
 10
4046.612123
 20
3350.661607
 30
0.0
 11
4046.612123
 21
3250.661607
 31
0.0
  0
LINE
  8
TENSEN
 10
4296.612123
 20
3293.161607
 30
0.0
 11
4266.612123
 21
3293.161607
 31
0.0
  0
LINE
  8
TENSEN
 10
4266.612123
 20
3293.161607
 30
0.0
 11
4266.612123
 21
3278.161607
 31
0.0
  0
LINE
  8
TENSEN
 10
4266.612123
 20
3278.161607
 30
0.0
 11
4296.612123
 21
3278.161607
 31
0.0
  0
LINE
  8
ITTEN
 10
4306.612123
 20
3285.661607
 30
0.0
 11
4256.612123
 21
3285.661607
 31
0.0
  0
LINE
  8
ITTEN
 10
3486.612123
 20
3285.661607
 30
0.0
 11
3536.612123
 21
3285.661607
 31
0.0
  0
LINE
  8
JISSEN
 10
3526.612123
 20
3278.161607
 30
0.0
 11
3496.612123
 21
3278.161607
 31
0.0
  0
LINE
  8
JISSEN
 10
3526.612123
 20
3293.161607
 30
0.0
 11
3526.612123
 21
3278.161607
 31
0.0
  0
LINE
  8
JISSEN
 10
3496.612123
 20
3293.161607
 30
0.0
 11
3526.612123
 21
3293.161607
 31
0.0
  0
LINE
  8
ITTEN
 10
3896.612123
 20
3465.661607
 30
0.0
 11
3896.612123
 21
3162.93996
 31
0.0
  0
LINE
  8
JISSEN
 10
3746.612123
 20
3350.661607
 30
0.0
 11
3746.612123
 21
3250.661607
 31
0.0
  0
LINE
  8
JISSEN
 10
3561.612123
 20
3365.661607
 30
0.0
 11
3896.612123
 21
3365.661607
 31
0.0
  0
LINE
  8
JISSEN
 10
3566.612123
 20
3350.661607
 30
0.0
 11
3896.612123
 21
3350.661607
 31
0.0
  0
LINE
  8
JISSEN
 10
3561.612123
 20
3365.661607
 30
0.0
 11
3566.612123
 21
3350.661607
 31
0.0
  0
LINE
  8
JISSEN
 10
3496.612123
 20
3365.661607
 30
0.0
 11
3561.612123
 21
3365.661607
 31
0.0
  0
LINE
  8
JISSEN
 10
3496.612123
 20
3220.661607
 30
0.0
 11
3896.612123
 21
3220.661607
 31
0.0
  0
LINE
  8
JISSEN
 10
3496.612123
 20
3365.661607
 30
0.0
 11
3496.612123
 21
3220.661607
 31
0.0
  0
LINE
  8
JISSEN
 10
3746.612123
 20
3250.661607
 30
0.0
 11
3896.612123
 21
3250.661607
 31
0.0
  0
LINE
  8
TENSEN
 10
3896.612123
 20
3250.661607
 30
0.0
 11
4046.612123
 21
3250.661607
 31
0.0
  0
TEXT
  8
SUNPOU
 10
6201.612123
 20
3193.304464
 30
0.0
 40
45.0
  1
80
 50
90.0
  7
K
 72
     1
 11
6201.612123
 21
3236.161607
 31
0.0
  0
LINE
  8
SUNPOU
 10
6246.612123
 20
3365.661607
 30
0.0
 11
6246.612123
 21
3425.661607
 31
0.0
  0
LINE
  8
SUNPOU
 10
6246.612123
 20
3285.661607
 30
0.0
 11
6246.612123
 21
3186.661607
 31
0.0
  0
INSERT
  8
SUNPOU
  2
ARROWANG
 10
6246.612123
 20
3365.661607
 30
0.0
 41
30.0
 42
30.0
 50
270.0
 43
30.0
  0
INSERT
  8
SUNPOU
  2
ARROWANG
 10
6246.612123
 20
3285.661607
 30
0.0
 41
30.0
 42
30.0
 50
90.0
 43
30.0
  0
LINE
  8
SUNPOU
 10
6246.612123
 20
3285.661607
 30
0.0
 11
6246.612123
 21
3365.661607
 31
0.0
  0
LINE
  8
SUNPOU
 10
6126.612123
 20
3365.661607
 30
0.0
 11
6276.612123
 21
3365.661607
 31
0.0
  0
LINE
  8
SUNPOU
 10
6126.612123
 20
3285.661607
 30
0.0
 11
6276.612123
 21
3285.661607
 31
0.0
  0
TEXT
  8
SUNPOU
 10
5101.612123
 20
3255.090178
 30
0.0
 40
45.0
  1
15
 50
90.0
  7
K
 72
     1
 11
5101.612123
 21
3301.161607
 31
0.0
  0
LINE
  8
SUNPOU
 10
5146.612123
 20
3365.661607
 30
0.0
 11
5146.612123
 21
3425.661607
 31
0.0
  0
LINE
  8
SUNPOU
 10
5146.612123
 20
3350.661607
 30
0.0
 11
5146.612123
 21
3251.661607
 31
0.0
  0
INSERT
  8
SUNPOU
  2
ARROWANG
 10
5146.612123
 20
3365.661607
 30
0.0
 41
30.0
 42
30.0
 50
270.0
 43
30.0
  0
INSERT
  8
SUNPOU
  2
ARROWANG
 10
5146.612123
 20
3350.661607
 30
0.0
 41
30.0
 42
30.0
 50
90.0
 43
30.0
  0
LINE
  8
SUNPOU
 10
5146.612123
 20
3350.661607
 30
0.0
 11
5146.612123
 21
3365.661607
 31
0.0
  0
LINE
  8
SUNPOU
 10
5176.612123
 20
3365.661607
 30
0.0
 11
5176.612123
 21
3365.661607
 31
0.0
  0
LINE
  8
SUNPOU
 10
5336.612123
 20
3350.661607
 30
0.0
 11
5116.612123
 21
3350.661607
 31
0.0
  0
TEXT
  8
SUNPOU
 10
4951.612123
 20
3225.661607
 30
0.0
 40
45.0
  1
145
 50
90.0
  7
K
 72
     1
 11
4951.612123
 21
3293.161607
 31
0.0
  0
INSERT
  8
SUNPOU
  2
ARROWANG
 10
4996.612123
 20
3365.661607
 30
0.0
 41
30.0
 42
30.0
 50
90.0
 43
30.0
  0
INSERT
  8
SUNPOU
  2
ARROWANG
 10
4996.612123
 20
3220.661607
 30
0.0
 41
30.0
 42
30.0
 50
270.0
 43
30.0
  0
LINE
  8
SUNPOU
 10
4996.612123
 20
3220.661607
 30
0.0
 11
4996.612123
 21
3365.661607
 31
0.0
  0
LINE
  8
SUNPOU
 10
5266.612123
 20
3365.661607
 30
0.0
 11
4966.612123
 21
3365.661607
 31
0.0
  0
LINE
  8
SUNPOU
 10
5266.612123
 20
3220.661607
 30
0.0
 11
4966.612123
 21
3220.661607
 31
0.0
  0
TEXT
  8
SUNPOU
 10
5632.326424
 20
3115.661607
 30
0.0
 40
45.0
  1
800
  7
K
 72
     1
 11
5696.612138
 21
3115.661607
 31
0.0
  0
INSERT
  8
SUNPOU
  2
ARROWANG
 10
6096.612123
 20
3070.661607
 30
0.0
 41
30.0
 42
30.0
 43
30.0
  0
INSERT
  8
SUNPOU
  2
ARROWANG
 10
5296.612123
 20
3070.661607
 30
0.0
 41
30.0
 42
30.0
 50
180.0
 43
30.0
  0
LINE
  8
SUNPOU
 10
5296.612123
 20
3070.661607
 30
0.0
 11
6096.612123
 21
3070.661607
 31
0.0
  0
LINE
  8
SUNPOU
 10
6096.612123
 20
3190.661607
 30
0.0
 11
6096.612123
 21
3040.661607
 31
0.0
  0
LINE
  8
SUNPOU
 10
5296.612123
 20
3190.661607
 30
0.0
 11
5296.612123
 21
3040.661607
 31
0.0
  0
TEXT
  8
SUNPOU
 10
5631.254995
 20
3560.661607
 30
0.0
 40
45.0
  1
660
  7
K
 72
     1
 11
5696.612138
 21
3560.661607
 31
0.0
  0
INSERT
  8
SUNPOU
  2
ARROWANG
 10
6026.612123
 20
3515.661607
 30
0.0
 41
30.0
 42
30.0
 43
30.0
  0
INSERT
  8
SUNPOU
  2
ARROWANG
 10
5366.612123
 20
3515.661607
 30
0.0
 41
30.0
 42
30.0
 50
180.0
 43
30.0
  0
LINE
  8
SUNPOU
 10
5366.612123
 20
3515.661607
 30
0.0
 11
6026.612123
 21
3515.661607
 31
0.0
  0
LINE
  8
SUNPOU
 10
6026.612123
 20
3380.661607
 30
0.0
 11
6026.612123
 21
3545.661607
 31
0.0
  0
LINE
  8
SUNPOU
 10
5366.612123
 20
3380.661607
 30
0.0
 11
5366.612123
 21
3545.661607
 31
0.0
  0
TEXT
  8
SUNPOU
 10
5631.254995
 20
3710.661607
 30
0.0
 40
45.0
  1
670
  7
K
 72
     1
 11
5696.612138
 21
3710.661607
 31
0.0
  0
INSERT
  8
SUNPOU
  2
ARROWANG
 10
6031.612123
 20
3665.661607
 30
0.0
 41
30.0
 42
30.0
 43
30.0
  0
INSERT
  8
SUNPOU
  2
ARROWANG
 10
5361.612123
 20
3665.661607
 30
0.0
 41
30.0
 42
30.0
 50
180.0
 43
30.0
  0
LINE
  8
SUNPOU
 10
5361.612123
 20
3665.661607
 30
0.0
 11
6031.612123
 21
3665.661607
 31
0.0
  0
LINE
  8
SUNPOU
 10
6031.612123
 20
3395.661607
 30
0.0
 11
6031.612123
 21
3695.661607
 31
0.0
  0
LINE
  8
SUNPOU
 10
5361.612123
 20
3395.661607
 30
0.0
 11
5361.612123
 21
3695.661607
 31
0.0
  0
LINE
  8
JISSEN
 10
6096.612123
 20
3365.661607
 30
0.0
 11
6096.612123
 21
3220.661607
 31
0.0
  0
LINE
  8
JISSEN
 10
6096.612123
 20
3220.661607
 30
0.0
 11
5696.612123
 21
3220.661607
 31
0.0
  0
LINE
  8
JISSEN
 10
6096.612123
 20
3365.661607
 30
0.0
 11
6031.612123
 21
3365.661607
 31
0.0
  0
LINE
  8
TENSEN
 10
6031.612123
 20
3365.661607
 30
0.0
 11
6026.612123
 21
3350.661607
 31
0.0
  0
LINE
  8
TENSEN
 10
6026.612123
 20
3350.661607
 30
0.0
 11
5696.612123
 21
3350.661607
 31
0.0
  0
LINE
  8
JISSEN
 10
6031.612123
 20
3365.661607
 30
0.0
 11
5696.612123
 21
3365.661607
 31
0.0
  0
LINE
  8
TENSEN
 10
6096.612123
 20
3293.161607
 30
0.0
 11
6066.612123
 21
3293.161607
 31
0.0
  0
LINE
  8
TENSEN
 10
6066.612123
 20
3293.161607
 30
0.0
 11
6066.612123
 21
3278.161607
 31
0.0
  0
LINE
  8
TENSEN
 10
6066.612123
 20
3278.161607
 30
0.0
 11
6096.612123
 21
3278.161607
 31
0.0
  0
LINE
  8
ITTEN
 10
6106.612123
 20
3285.661607
 30
0.0
 11
6056.612123
 21
3285.661607
 31
0.0
  0
LINE
  8
ITTEN
 10
5286.612123
 20
3285.661607
 30
0.0
 11
5336.612123
 21
3285.661607
 31
0.0
  0
LINE
  8
JISSEN
 10
5326.612123
 20
3278.161607
 30
0.0
 11
5296.612123
 21
3278.161607
 31
0.0
  0
LINE
  8
JISSEN
 10
5326.612123
 20
3293.161607
 30
0.0
 11
5326.612123
 21
3278.161607
 31
0.0
  0
LINE
  8
JISSEN
 10
5296.612123
 20
3293.161607
 30
0.0
 11
5326.612123
 21
3293.161607
 31
0.0
  0
LINE
  8
ITTEN
 10
5696.612123
 20
3465.661607
 30
0.0
 11
5696.612123
 21
3166.887151
 31
0.0
  0
LINE
  8
JISSEN
 10
5361.612123
 20
3365.661607
 30
0.0
 11
5696.612123
 21
3365.661607
 31
0.0
  0
LINE
  8
JISSEN
 10
5366.612123
 20
3350.661607
 30
0.0
 11
5696.612123
 21
3350.661607
 31
0.0
  0
LINE
  8
JISSEN
 10
5361.612123
 20
3365.661607
 30
0.0
 11
5366.612123
 21
3350.661607
 31
0.0
  0
LINE
  8
JISSEN
 10
5296.612123
 20
3365.661607
 30
0.0
 11
5361.612123
 21
3365.661607
 31
0.0
  0
LINE
  8
JISSEN
 10
5296.612123
 20
3220.661607
 30
0.0
 11
5696.612123
 21
3220.661607
 31
0.0
  0
LINE
  8
JISSEN
 10
5296.612123
 20
3365.661607
 30
0.0
 11
5296.612123
 21
3220.661607
 31
0.0
  0
LINE
  8
TENSEN
 10
5296.612123
 20
2073.161607
 30
0.0
 11
5326.612123
 21
2073.161607
 31
0.0
  0
LINE
  8
TENSEN
 10
5326.612123
 20
2073.161607
 30
0.0
 11
5326.612123
 21
2058.161607
 31
0.0
  0
LINE
  8
TENSEN
 10
5326.612123
 20
2058.161607
 30
0.0
 11
5296.612123
 21
2058.161607
 31
0.0
  0
LINE
  8
ITTEN
 10
6196.612123
 20
2065.661607
 30
0.0
 11
5196.612123
 21
2065.661607
 31
0.0
  0
LINE
  8
TENSEN
 10
6066.612123
 20
2058.161607
 30
0.0
 11
6096.612123
 21
2058.161607
 31
0.0
  0
LINE
  8
TENSEN
 10
6066.612123
 20
2073.161607
 30
0.0
 11
6066.612123
 21
2058.161607
 31
0.0
  0
LINE
  8
TENSEN
 10
6096.612123
 20
2073.161607
 30
0.0
 11
6066.612123
 21
2073.161607
 31
0.0
  0
CIRCLE
  8
JISSEN
 10
5696.612123
 20
2065.661607
 30
0.0
 40
330.0
  0
CIRCLE
  8
JISSEN
 10
5696.612123
 20
2065.661607
 30
0.0
 40
335.0
  0
CIRCLE
  8
JISSEN
 10
5696.612123
 20
2065.661607
 30
0.0
 40
400.0
  0
TEXT
  8
TEXT
 10
3774.272013
 20
4198.350111
 30
0.0
 40
160.0
  1
底版
  7
K
  0
TEXT
  8
TEXT
 10
1945.333538
 20
3797.289596
 30
0.0
 40
100.0
  1
MYP
  7
K
  0
TEXT
  8
TEXT
 10
3701.870956
 20
3810.480701
 30
0.0
 40
100.0
  1
MYPB
  7
K
  0
TEXT
  8
TEXT
 10
5491.384671
 20
3806.182066
 30
0.0
 40
100.0
  1
MYPF
  7
K
  0
TEXT
  8
JISSEN
 10
1845.107599
 20
5081.149312
 30
0.0
 40
200.0
  1
組立マンホール構造図
  7
K
  0
TEXT
  8
JISSEN
 10
4669.954904
 20
5133.469051
 30
0.0
 40
133.333333
  1
( 内径 600mm )
  7
K
  0
LINE
  8
ITTEN
 10
5696.612123
 20
2565.661607
 30
0.0
 11
5696.612123
 21
1565.661607
 31
0.0
  0
POLYLINE
  8
WAKU
 66
     1
 10
0.0
 20
0.0
 30
0.0
 70
     1
  0
VERTEX
  8
WAKU
 10
0.0
 20
0.0
 30
0.0
  0
VERTEX
  8
WAKU
 10
7900.0
 20
0.0
 30
0.0
  0
VERTEX
  8
WAKU
 10
7900.0
 20
5460.0
 30
0.0
  0
VERTEX
  8
WAKU
 10
0.0
 20
5460.0
 30
0.0
  0
SEQEND
  8
WAKU
  0
TEXT
  8
TEXT
 10
7390.096595
 20
389.124038
 30
0.0
 40
100.0
  1
1/20
  7
K
  0
LINE
  8
TENSEN
 10
3496.612123
 20
2073.161607
 30
0.0
 11
3526.612123
 21
2073.161607
 31
0.0
  0
LINE
  8
TENSEN
 10
3526.612123
 20
2073.161607
 30
0.0
 11
3526.612123
 21
2058.161607
 31
0.0
  0
LINE
  8
TENSEN
 10
3526.612123
 20
2058.161607
 30
0.0
 11
3496.612123
 21
2058.161607
 31
0.0
  0
LINE
  8
ITTEN
 10
4396.612123
 20
2065.661607
 30
0.0
 11
3396.612123
 21
2065.661607
 31
0.0
  0
LINE
  8
ITTEN
 10
3896.612123
 20
2565.661607
 30
0.0
 11
3896.612123
 21
1565.661607
 31
0.0
  0
LINE
  8
TENSEN
 10
4266.612123
 20
2058.161607
 30
0.0
 11
4296.612123
 21
2058.161607
 31
0.0
  0
LINE
  8
TENSEN
 10
4266.612123
 20
2073.161607
 30
0.0
 11
4266.612123
 21
2058.161607
 31
0.0
  0
LINE
  8
TENSEN
 10
4296.612123
 20
2073.161607
 30
0.0
 11
4266.612123
 21
2073.161607
 31
0.0
  0
CIRCLE
  8
JISSEN
 10
3896.612123
 20
2065.661607
 30
0.0
 40
150.0
  0
CIRCLE
  8
JISSEN
 10
3896.612123
 20
2065.661607
 30
0.0
 40
330.0
  0
CIRCLE
  8
JISSEN
 10
3896.612123
 20
2065.661607
 30
0.0
 40
335.0
  0
CIRCLE
  8
JISSEN
 10
3896.612123
 20
2065.661607
 30
0.0
 40
400.0
  0
ENDSEC
  0
EOF
