  0
SECTION
  2
HEADER
  9
$ACADVER
  1
AC1009
  9
$INSBASE
 10
0.0
 20
0.0
 30
0.0
  9
$EXTMIN
 10
0.0
 20
0.0
 30
0.0
  9
$EXTMAX
 10
7900.0
 20
5460.0
 30
0.0
  9
$LIMMIN
 10
0.0
 20
0.0
  9
$LIMMAX
 10
7900.0
 20
5460.0
  9
$ORTHOMODE
 70
     0
  9
$REGENMODE
 70
     1
  9
$FILLMODE
 70
     1
  9
$QTEXTMODE
 70
     0
  9
$MIRRTEXT
 70
     0
  9
$DRAGMODE
 70
     2
  9
$LTSCALE
 40
100.0
  9
$OSMODE
 70
    33
  9
$ATTMODE
 70
     1
  9
$TEXTSIZE
 40
45.0
  9
$TRACEWID
 40
0.05
  9
$TEXTSTYLE
  7
K
  9
$CLAYER
  8
SUNPOU
  9
$CELTYPE
  6
BYLAYER
  9
$CECOLOR
 62
   256
  9
$DIMSCALE
 40
20.0
  9
$DIMASZ
 40
1.5
  9
$DIMEXO
 40
1.0
  9
$DIMDLI
 40
6.0
  9
$DIMRND
 40
0.0
  9
$DIMDLE
 40
0.0
  9
$DIMEXE
 40
1.0
  9
$DIMTP
 40
495.0
  9
$DIMTM
 40
0.0
  9
$DIMTXT
 40
3.0
  9
$DIMCEN
 40
0.0
  9
$DIMTSZ
 40
0.0
  9
$DIMTOL
 70
     0
  9
$DIMLIM
 70
     0
  9
$DIMTIH
 70
     0
  9
$DIMTOH
 70
     0
  9
$DIMSE1
 70
     0
  9
$DIMSE2
 70
     0
  9
$DIMTAD
 70
     1
  9
$DIMZIN
 70
     8
  9
$DIMBLK
  1
ARROW
  9
$DIMASO
 70
     0
  9
$DIMSHO
 70
     0
  9
$DIMPOST
  1

  9
$DIMAPOST
  1

  9
$DIMALT
 70
     0
  9
$DIMALTD
 70
     2
  9
$DIMALTF
 40
25.4
  9
$DIMLFAC
 40
1.0
  9
$DIMTOFL
 70
     1
  9
$DIMTVP
 40
0.0
  9
$DIMTIX
 70
     1
  9
$DIMSOXD
 70
     0
  9
$DIMSAH
 70
     0
  9
$DIMBLK1
  1

  9
$DIMBLK2
  1

  9
$DIMSTYLE
  2
*UNNAMED
  9
$DIMCLRD
 70
     0
  9
$DIMCLRE
 70
     0
  9
$DIMCLRT
 70
     0
  9
$DIMTFAC
 40
1.0
  9
$DIMGAP
 40
0.09
  9
$LUNITS
 70
     2
  9
$LUPREC
 70
     2
  9
$AXISMODE
 70
     0
  9
$AXISUNIT
 10
100.0
 20
100.0
  9
$SKETCHINC
 40
0.1
  9
$FILLETRAD
 40
300.0
  9
$AUNITS
 70
     0
  9
$AUPREC
 70
     2
  9
$MENU
  1
G:STDGX5
  9
$ELEVATION
 40
0.0
  9
$PELEVATION
 40
0.0
  9
$THICKNESS
 40
0.0
  9
$LIMCHECK
 70
     0
  9
$BLIPMODE
 70
     1
  9
$CHAMFERA
 40
0.0
  9
$CHAMFERB
 40
0.0
  9
$SKPOLY
 70
     0
  9
$TDCREATE
 40
2450249.493958333
  9
$TDUPDATE
 40
2450249.497766203
  9
$TDINDWG
 40
0.0024074074
  9
$TDUSRTIMER
 40
0.0024074074
  9
$USRTIMER
 70
     1
  9
$ANGBASE
 50
0.0
  9
$ANGDIR
 70
     0
  9
$PDMODE
 70
     0
  9
$PDSIZE
 40
0.0
  9
$PLINEWID
 40
0.0
  9
$COORDS
 70
     2
  9
$SPLFRAME
 70
     0
  9
$SPLINETYPE
 70
     6
  9
$SPLINESEGS
 70
     8
  9
$ATTDIA
 70
     0
  9
$ATTREQ
 70
     1
  9
$HANDLING
 70
     0
  9
$HANDSEED
  5
0
  9
$SURFTAB1
 70
     6
  9
$SURFTAB2
 70
     6
  9
$SURFTYPE
 70
     6
  9
$SURFU
 70
     6
  9
$SURFV
 70
     6
  9
$UCSNAME
  2

  9
$UCSORG
 10
0.0
 20
0.0
 30
0.0
  9
$UCSXDIR
 10
1.0
 20
0.0
 30
0.0
  9
$UCSYDIR
 10
0.0
 20
1.0
 30
0.0
  9
$PUCSNAME
  2

  9
$PUCSORG
 10
0.0
 20
0.0
 30
0.0
  9
$PUCSXDIR
 10
1.0
 20
0.0
 30
0.0
  9
$PUCSYDIR
 10
0.0
 20
1.0
 30
0.0
  9
$USERI1
 70
     3
  9
$USERI2
 70
    33
  9
$USERI3
 70
     0
  9
$USERI4
 70
     1
  9
$USERI5
 70
     0
  9
$USERR1
 40
20.0
  9
$USERR2
 40
3.0
  9
$USERR3
 40
3.0
  9
$USERR4
 40
1.5
  9
$USERR5
 40
10.0
  9
$WORLDVIEW
 70
     1
  9
$SHADEDGE
 70
     3
  9
$SHADEDIF
 70
    70
  9
$TILEMODE
 70
     1
  9
$MAXACTVP
 70
    16
  9
$PINSBASE
 10
0.0
 20
0.0
 30
0.0
  9
$PLIMCHECK
 70
     0
  9
$PEXTMIN
 10
1.000000E+20
 20
1.000000E+20
 30
1.000000E+20
  9
$PEXTMAX
 10
-1.000000E+20
 20
-1.000000E+20
 30
-1.000000E+20
  9
$PLIMMIN
 10
0.0
 20
0.0
  9
$PLIMMAX
 10
12.0
 20
9.0
  9
$UNITMODE
 70
     0
  9
$VISRETAIN
 70
     0
  0
ENDSEC
  0
SECTION
  2
TABLES
  0
TABLE
  2
VPORT
 70
    10
  0
VPORT
  2
*ACTIVE
 70
     0
 10
0.0
 20
0.0
 11
1.0
 21
1.0
 12
4461.010491
 22
2730.0
 13
0.0
 23
0.0
 14
1.0
 24
1.0
 15
10.0
 25
10.0
 16
0.0
 26
0.0
 36
1.0
 17
0.0
 27
0.0
 37
0.0
 40
5460.0
 41
1.63407
 42
50.0
 43
0.0
 44
0.0
 50
0.0
 51
0.0
 71
     0
 72
   500
 73
     1
 74
     0
 75
     0
 76
     0
 77
     0
 78
     0
  0
VPORT
  2
2
 70
     0
 10
0.5
 20
0.0
 11
1.0
 21
1.0
 12
0.924031
 22
1.052651
 13
0.0
 23
0.0
 14
1.0
 24
1.0
 15
10.0
 25
10.0
 16
0.0
 26
0.0
 36
1.0
 17
0.0
 27
0.0
 37
0.0
 40
2.105302
 41
0.877814
 42
50.0
 43
0.0
 44
0.0
 50
0.0
 51
0.0
 71
     0
 72
   500
 73
     1
 74
     1
 75
     0
 76
     0
 77
     0
 78
     0
  0
VPORT
  2
2
 70
     0
 10
0.0
 20
0.0
 11
0.5
 21
1.0
 12
0.924031
 22
1.052651
 13
0.0
 23
0.0
 14
1.0
 24
1.0
 15
10.0
 25
10.0
 16
0.0
 26
0.0
 36
1.0
 17
0.0
 27
0.0
 37
0.0
 40
2.105302
 41
0.877814
 42
50.0
 43
0.0
 44
0.0
 50
0.0
 51
0.0
 71
     0
 72
   500
 73
     1
 74
     1
 75
     0
 76
     0
 77
     0
 78
     0
  0
VPORT
  2
3
 70
     0
 10
0.0
 20
0.5
 11
1.0
 21
1.0
 12
2.83217
 22
1.052651
 13
0.0
 23
0.0
 14
1.0
 24
1.0
 15
10.0
 25
10.0
 16
0.0
 26
0.0
 36
1.0
 17
0.0
 27
0.0
 37
0.0
 40
2.105302
 41
3.571429
 42
50.0
 43
0.0
 44
0.0
 50
0.0
 51
0.0
 71
     0
 72
   500
 73
     1
 74
     1
 75
     0
 76
     0
 77
     0
 78
     0
  0
VPORT
  2
3
 70
     0
 10
0.0
 20
0.0
 11
1.0
 21
0.5
 12
2.856742
 22
1.052651
 13
0.0
 23
0.0
 14
1.0
 24
1.0
 15
10.0
 25
10.0
 16
0.0
 26
0.0
 36
1.0
 17
0.0
 27
0.0
 37
0.0
 40
2.105302
 41
3.594771
 42
50.0
 43
0.0
 44
0.0
 50
0.0
 51
0.0
 71
     0
 72
   500
 73
     1
 74
     1
 75
     0
 76
     0
 77
     0
 78
     0
  0
VPORT
  2
4
 70
     0
 10
0.5
 20
0.0
 11
1.0
 21
0.5
 12
2.886858
 22
1.052651
 13
0.0
 23
0.0
 14
1.0
 24
1.0
 15
10.0
 25
10.0
 16
0.0
 26
0.0
 36
1.0
 17
0.0
 27
0.0
 37
0.0
 40
4.275207
 41
1.784314
 42
50.0
 43
0.0
 44
0.0
 50
0.0
 51
0.0
 71
     0
 72
   500
 73
     1
 74
     1
 75
     0
 76
     0
 77
     0
 78
     0
  0
VPORT
  2
4
 70
     0
 10
0.5
 20
0.5
 11
1.0
 21
1.0
 12
2.86209
 22
1.052651
 13
0.0
 23
0.0
 14
1.0
 24
1.0
 15
10.0
 25
10.0
 16
0.0
 26
0.0
 36
1.0
 17
0.0
 27
0.0
 37
0.0
 40
4.275207
 41
1.772727
 42
50.0
 43
0.0
 44
0.0
 50
0.0
 51
0.0
 71
     0
 72
   500
 73
     1
 74
     1
 75
     0
 76
     0
 77
     0
 78
     0
  0
VPORT
  2
4
 70
     0
 10
0.0
 20
0.5
 11
0.5
 21
1.0
 12
2.86209
 22
1.052651
 13
0.0
 23
0.0
 14
1.0
 24
1.0
 15
10.0
 25
10.0
 16
0.0
 26
0.0
 36
1.0
 17
0.0
 27
0.0
 37
0.0
 40
4.275207
 41
1.772727
 42
50.0
 43
0.0
 44
0.0
 50
0.0
 51
0.0
 71
     0
 72
   500
 73
     1
 74
     1
 75
     0
 76
     0
 77
     0
 78
     0
  0
VPORT
  2
4
 70
     0
 10
0.0
 20
0.0
 11
0.5
 21
0.5
 12
2.886858
 22
1.052651
 13
0.0
 23
0.0
 14
1.0
 24
1.0
 15
10.0
 25
10.0
 16
0.0
 26
0.0
 36
1.0
 17
0.0
 27
0.0
 37
0.0
 40
4.275207
 41
1.784314
 42
50.0
 43
0.0
 44
0.0
 50
0.0
 51
0.0
 71
     0
 72
   500
 73
     1
 74
     1
 75
     0
 76
     0
 77
     0
 78
     0
  0
ENDTAB
  0
TABLE
  2
LTYPE
 70
     5
  0
LTYPE
  2
CONTINUOUS
 70
    64
  3
実線
 72
    65
 73
     0
 40
0.0
  0
LTYPE
  2
DASHED
 70
    64
  3
__ __ __ __ __ __ __ __ __ __ __ __ __ __ __
 72
    65
 73
     2
 40
0.75
 49
0.5
 49
-0.25
  0
LTYPE
  2
CENTER
 70
    64
  3
____ _ ____ _ ____ _ ____ _ ____ _ ____ _ ____
 72
    65
 73
     4
 40
2.0
 49
1.25
 49
-0.25
 49
0.25
 49
-0.25
  0
LTYPE
  2
PHANTOM
 70
    64
  3
_____ _ _ _____ _ _ _____ _ _ _____ _ _ ____
 72
    65
 73
     6
 40
2.5
 49
1.25
 49
-0.25
 49
0.25
 49
-0.25
 49
0.25
 49
-0.25
  0
LTYPE
  2
HIDDEN
 70
    64
  3
_ _ _ _ _ _ _ _ _ _ _ _ _ _ _ _ _ _ _ _ _ _ _
 72
    65
 73
     2
 40
0.375
 49
0.25
 49
-0.125
  0
ENDTAB
  0
TABLE
  2
LAYER
 70
    14
  0
LAYER
  2
0
 70
     0
 62
     7
  6
CONTINUOUS
  0
LAYER
  2
ITTEN
 70
    64
 62
     1
  6
CENTER
  0
LAYER
  2
SUNPOU
 70
    64
 62
     3
  6
CONTINUOUS
  0
LAYER
  2
TEXT
 70
    64
 62
     3
  6
CONTINUOUS
  0
LAYER
  2
JISSEN
 70
    64
 62
     7
  6
CONTINUOUS
  0
LAYER
  2
TENSEN
 70
    64
 62
     2
  6
HIDDEN
  0
LAYER
  2
WAKU
 70
    64
 62
    -5
  6
CONTINUOUS
  0
ENDTAB
  0
TABLE
  2
STYLE
 70
     2
  0
STYLE
  2
STANDARD
 70
     0
 40
0.0
 41
1.0
 50
0.0
 71
     0
 42
0.2
  3
ROMANS
  4
EXTFONT
  0
STYLE
  2
K
 70
    64
 40
0.0
 41
1.0
 50
0.0
 71
     0
 42
45.0
  3
ROMANS
  4
EXTFONT
  0
ENDTAB
  0
TABLE
  2
VIEW
 70
     0
  0
ENDTAB
  0
TABLE
  2
UCS
 70
     0
  0
ENDTAB
  0
TABLE
  2
APPID
 70
     1
  0
APPID
  2
ACAD
 70
    64
  0
ENDTAB
  0
TABLE
  2
DIMSTYLE
 70
     0
  0
ENDTAB
  0
ENDSEC
  0
SECTION
  2
BLOCKS
  0
BLOCK
  8
SUNPOU
  2
ARROWANG
 70
    64
 10
0.0
 20
0.0
 30
0.0
  3
ARROWANG
  0
LINE
  8
SUNPOU
 10
0.0
 20
0.0
 30
0.0
 11
-1.5
 21
0.401924
 31
0.0
  0
LINE
  8
SUNPOU
 10
0.0
 20
0.0
 30
0.0
 11
-1.5
 21
-0.401924
 31
0.0
  0
ENDBLK
  8
SUNPOU
  0
ENDSEC
  0
SECTION
  2
ENTITIES
  0
LINE
  8
JISSEN
 10
1950.623306
 20
3442.84901
 30
0.0
 11
1990.623306
 21
3442.84901
 31
0.0
  0
LINE
  8
JISSEN
 10
1990.623306
 20
3442.84901
 30
0.0
 11
1997.623306
 21
3419.84901
 31
0.0
  0
LINE
  8
JISSEN
 10
1997.623306
 20
3419.84901
 30
0.0
 11
2025.623306
 21
3419.84901
 31
0.0
  0
LINE
  8
JISSEN
 10
1950.623306
 20
3442.84901
 30
0.0
 11
1950.623306
 21
2542.84901
 31
0.0
  0
LINE
  8
JISSEN
 10
1950.623306
 20
2542.84901
 30
0.0
 11
1991.623306
 21
2542.84901
 31
0.0
  0
LINE
  8
JISSEN
 10
1991.623306
 20
2542.84901
 30
0.0
 11
2000.623306
 21
2527.84901
 31
0.0
  0
LINE
  8
JISSEN
 10
2000.623306
 20
2527.84901
 30
0.0
 11
2025.623306
 21
2527.84901
 31
0.0
  0
LINE
  8
JISSEN
 10
2025.623306
 20
3419.84901
 30
0.0
 11
2025.623306
 21
2527.84901
 31
0.0
  0
LINE
  8
JISSEN
 10
2025.623306
 20
3419.84901
 30
0.0
 11
2325.623306
 21
3419.84901
 31
0.0
  0
LINE
  8
JISSEN
 10
2025.623306
 20
2527.84901
 30
0.0
 11
2325.623306
 21
2527.84901
 31
0.0
  0
LINE
  8
TENSEN
 10
1991.623306
 20
2542.84901
 30
0.0
 11
2325.623306
 21
2542.84901
 31
0.0
  0
LINE
  8
JISSEN
 10
1990.623306
 20
3442.84901
 30
0.0
 11
2325.623306
 21
3442.84901
 31
0.0
  0
LINE
  8
JISSEN
 10
2660.623306
 20
3442.84901
 30
0.0
 11
2325.623306
 21
3442.84901
 31
0.0
  0
LINE
  8
JISSEN
 10
2659.623306
 20
2542.84901
 30
0.0
 11
2325.623306
 21
2542.84901
 31
0.0
  0
LINE
  8
JISSEN
 10
2625.623306
 20
2527.84901
 30
0.0
 11
2325.623306
 21
2527.84901
 31
0.0
  0
LINE
  8
TENSEN
 10
2625.623306
 20
3419.84901
 30
0.0
 11
2325.623306
 21
3419.84901
 31
0.0
  0
LINE
  8
TENSEN
 10
2625.623306
 20
3419.84901
 30
0.0
 11
2625.623306
 21
2527.84901
 31
0.0
  0
LINE
  8
JISSEN
 10
2650.623306
 20
2527.84901
 30
0.0
 11
2625.623306
 21
2527.84901
 31
0.0
  0
LINE
  8
JISSEN
 10
2659.623306
 20
2542.84901
 30
0.0
 11
2650.623306
 21
2527.84901
 31
0.0
  0
LINE
  8
JISSEN
 10
2700.623306
 20
2542.84901
 30
0.0
 11
2659.623306
 21
2542.84901
 31
0.0
  0
LINE
  8
JISSEN
 10
2700.623306
 20
3442.84901
 30
0.0
 11
2700.623306
 21
2542.84901
 31
0.0
  0
LINE
  8
TENSEN
 10
2653.623306
 20
3419.84901
 30
0.0
 11
2625.623306
 21
3419.84901
 31
0.0
  0
LINE
  8
TENSEN
 10
2660.623306
 20
3442.84901
 30
0.0
 11
2653.623306
 21
3419.84901
 31
0.0
  0
LINE
  8
JISSEN
 10
2700.623306
 20
3442.84901
 30
0.0
 11
2660.623306
 21
3442.84901
 31
0.0
  0
LINE
  8
ITTEN
 10
2325.623306
 20
3542.84901
 30
0.0
 11
2325.623306
 21
2477.07166
 31
0.0
  0
CIRCLE
  8
JISSEN
 10
2325.623306
 20
1142.84901
 30
0.0
 40
300.0
  0
CIRCLE
  8
JISSEN
 10
2325.623306
 20
1142.84901
 30
0.0
 40
328.0
  0
CIRCLE
  8
JISSEN
 10
2325.623306
 20
1142.84901
 30
0.0
 40
335.0
  0
CIRCLE
  8
JISSEN
 10
2325.623306
 20
1142.84901
 30
0.0
 40
375.0
  0
LINE
  8
TENSEN
 10
2596.038611
 20
883.040307
 30
0.0
 11
2574.878446
 21
904.200472
 31
0.0
  0
LINE
  8
TENSEN
 10
2574.878446
 20
904.200472
 30
0.0
 11
2564.271844
 21
893.59387
 31
0.0
  0
LINE
  8
TENSEN
 10
2564.271844
 20
893.59387
 30
0.0
 11
2585.432009
 21
872.433705
 31
0.0
  0
LINE
  8
ITTEN
 10
2604.930484
 20
863.541832
 30
0.0
 11
2555.433009
 21
913.039307
 31
0.0
  0
LINE
  8
ITTEN
 10
2046.316127
 20
1422.156189
 30
0.0
 11
2095.813602
 21
1372.658714
 31
0.0
  0
LINE
  8
TENSEN
 10
2086.974767
 20
1392.104151
 30
0.0
 11
2065.814602
 21
1413.264316
 31
0.0
  0
LINE
  8
TENSEN
 10
2076.368165
 20
1381.497549
 30
0.0
 11
2086.974767
 21
1392.104151
 31
0.0
  0
LINE
  8
TENSEN
 10
2055.208
 20
1402.657714
 30
0.0
 11
2076.368165
 21
1381.497549
 31
0.0
  0
LINE
  8
ITTEN
 10
2325.623306
 20
1617.84901
 30
0.0
 11
2325.623306
 21
667.84901
 31
0.0
  0
LINE
  8
ITTEN
 10
2800.623306
 20
1142.84901
 30
0.0
 11
1850.623306
 21
1142.84901
 31
0.0
  0
CIRCLE
  8
JISSEN
 10
2590.788348
 20
2642.84901
 30
0.0
 40
7.5
  0
LINE
  8
ITTEN
 10
2590.788348
 20
2670.34901
 30
0.0
 11
2590.788348
 21
2615.34901
 31
0.0
  0
LINE
  8
ITTEN
 10
2618.288348
 20
2642.84901
 30
0.0
 11
2563.288348
 21
2642.84901
 31
0.0
  0
LINE
  8
ITTEN
 10
2618.288348
 20
3342.84901
 30
0.0
 11
2563.288348
 21
3342.84901
 31
0.0
  0
LINE
  8
ITTEN
 10
2590.788348
 20
3370.34901
 30
0.0
 11
2590.788348
 21
3315.34901
 31
0.0
  0
CIRCLE
  8
JISSEN
 10
2590.788348
 20
3342.84901
 30
0.0
 40
7.5
  0
CIRCLE
  8
TENSEN
 10
2060.458263
 20
3342.84901
 30
0.0
 40
7.5
  0
LINE
  8
ITTEN
 10
2060.458263
 20
3370.34901
 30
0.0
 11
2060.458263
 21
3315.34901
 31
0.0
  0
LINE
  8
ITTEN
 10
2032.958263
 20
3342.84901
 30
0.0
 11
2087.958263
 21
3342.84901
 31
0.0
  0
LINE
  8
ITTEN
 10
2032.958263
 20
2627.84901
 30
0.0
 11
2087.958263
 21
2627.84901
 31
0.0
  0
LINE
  8
ITTEN
 10
2060.458263
 20
2655.34901
 30
0.0
 11
2060.458263
 21
2600.34901
 31
0.0
  0
CIRCLE
  8
TENSEN
 10
2060.458263
 20
2627.84901
 30
0.0
 40
7.5
  0
LINE
  8
SUNPOU
 10
1950.623306
 20
3472.84901
 30
0.0
 11
1950.623306
 21
3922.84901
 31
0.0
  0
LINE
  8
SUNPOU
 10
2025.623306
 20
3449.84901
 30
0.0
 11
2025.623306
 21
3922.84901
 31
0.0
  0
LINE
  8
SUNPOU
 10
1950.623306
 20
3892.84901
 30
0.0
 11
2025.623306
 21
3892.84901
 31
0.0
  0
INSERT
  8
SUNPOU
  2
ARROWANG
 10
2025.623306
 20
3892.84901
 30
0.0
 41
30.0
 42
30.0
 50
180.0
 43
30.0
  0
INSERT
  8
SUNPOU
  2
ARROWANG
 10
1950.623306
 20
3892.84901
 30
0.0
 41
30.0
 42
30.0
 43
30.0
  0
TEXT
  8
SUNPOU
 10
1945.266177
 20
3937.84901
 30
0.0
 40
45.0
  1
75
  7
K
 72
     1
 11
1988.12332
 21
3937.84901
 31
0.0
  0
LINE
  8
SUNPOU
 10
2025.623306
 20
3892.84901
 30
0.0
 11
2085.623306
 21
3892.84901
 31
0.0
  0
LINE
  8
SUNPOU
 10
1950.623306
 20
3892.84901
 30
0.0
 11
1890.623306
 21
3892.84901
 31
0.0
  0
LINE
  8
SUNPOU
 10
2025.623306
 20
3862.84901
 30
0.0
 11
2025.623306
 21
3862.84901
 31
0.0
  0
LINE
  8
SUNPOU
 10
2625.623306
 20
3449.84901
 30
0.0
 11
2625.623306
 21
3922.84901
 31
0.0
  0
LINE
  8
SUNPOU
 10
2025.623306
 20
3892.84901
 30
0.0
 11
2625.623306
 21
3892.84901
 31
0.0
  0
INSERT
  8
SUNPOU
  2
ARROWANG
 10
2025.623306
 20
3892.84901
 30
0.0
 41
30.0
 42
30.0
 50
180.0
 43
30.0
  0
INSERT
  8
SUNPOU
  2
ARROWANG
 10
2625.623306
 20
3892.84901
 30
0.0
 41
30.0
 42
30.0
 43
30.0
  0
TEXT
  8
SUNPOU
 10
2244.194749
 20
3937.84901
 30
0.0
 40
45.0
  1
%%C600
  7
K
 72
     1
 11
2325.62332
 21
3937.84901
 31
0.0
  0
LINE
  8
SUNPOU
 10
2625.623306
 20
3922.84901
 30
0.0
 11
2625.623306
 21
3922.84901
 31
0.0
  0
LINE
  8
SUNPOU
 10
2700.623306
 20
3472.84901
 30
0.0
 11
2700.623306
 21
3922.84901
 31
0.0
  0
LINE
  8
SUNPOU
 10
2625.623306
 20
3892.84901
 30
0.0
 11
2700.623306
 21
3892.84901
 31
0.0
  0
INSERT
  8
SUNPOU
  2
ARROWANG
 10
2700.623306
 20
3892.84901
 30
0.0
 41
30.0
 42
30.0
 50
180.0
 43
30.0
  0
INSERT
  8
SUNPOU
  2
ARROWANG
 10
2625.623306
 20
3892.84901
 30
0.0
 41
30.0
 42
30.0
 43
30.0
  0
TEXT
  8
SUNPOU
 10
2620.266177
 20
3937.84901
 30
0.0
 40
45.0
  1
75
  7
K
 72
     1
 11
2663.12332
 21
3937.84901
 31
0.0
  0
LINE
  8
SUNPOU
 10
2700.623306
 20
3892.84901
 30
0.0
 11
2760.623306
 21
3892.84901
 31
0.0
  0
LINE
  8
SUNPOU
 10
2625.623306
 20
3892.84901
 30
0.0
 11
2565.623306
 21
3892.84901
 31
0.0
  0
LINE
  8
SUNPOU
 10
1990.623306
 20
3472.84901
 30
0.0
 11
1990.623306
 21
3772.84901
 31
0.0
  0
LINE
  8
SUNPOU
 10
2660.623306
 20
3472.84901
 30
0.0
 11
2660.623306
 21
3772.84901
 31
0.0
  0
LINE
  8
SUNPOU
 10
1990.623306
 20
3712.84901
 30
0.0
 11
1990.623306
 21
3712.84901
 31
0.0
  0
LINE
  8
SUNPOU
 10
2660.623306
 20
3712.84901
 30
0.0
 11
2660.623306
 21
3712.84901
 31
0.0
  0
LINE
  8
SUNPOU
 10
1990.623306
 20
3742.84901
 30
0.0
 11
2660.623306
 21
3742.84901
 31
0.0
  0
INSERT
  8
SUNPOU
  2
ARROWANG
 10
1990.623306
 20
3742.84901
 30
0.0
 41
30.0
 42
30.0
 50
180.0
 43
30.0
  0
INSERT
  8
SUNPOU
  2
ARROWANG
 10
2660.623306
 20
3742.84901
 30
0.0
 41
30.0
 42
30.0
 43
30.0
  0
TEXT
  8
SUNPOU
 10
2260.266177
 20
3787.84901
 30
0.0
 40
45.0
  1
670
  7
K
 72
     1
 11
2325.62332
 21
3787.84901
 31
0.0
  0
LINE
  8
SUNPOU
 10
1997.623306
 20
3449.84901
 30
0.0
 11
1997.623306
 21
3622.84901
 31
0.0
  0
LINE
  8
SUNPOU
 10
2653.623306
 20
3449.84901
 30
0.0
 11
2653.623306
 21
3622.84901
 31
0.0
  0
LINE
  8
SUNPOU
 10
1997.623306
 20
3592.84901
 30
0.0
 11
2653.623306
 21
3592.84901
 31
0.0
  0
INSERT
  8
SUNPOU
  2
ARROWANG
 10
1997.623306
 20
3592.84901
 30
0.0
 41
30.0
 42
30.0
 50
180.0
 43
30.0
  0
INSERT
  8
SUNPOU
  2
ARROWANG
 10
2653.623306
 20
3592.84901
 30
0.0
 41
30.0
 42
30.0
 43
30.0
  0
TEXT
  8
SUNPOU
 10
2260.266177
 20
3637.84901
 30
0.0
 40
45.0
  1
656
  7
K
 72
     1
 11
2325.62332
 21
3637.84901
 31
0.0
  0
LINE
  8
SUNPOU
 10
1920.623306
 20
2542.84901
 30
0.0
 11
1620.623306
 21
2542.84901
 31
0.0
  0
LINE
  8
SUNPOU
 10
1920.623306
 20
3442.84901
 30
0.0
 11
1620.623306
 21
3442.84901
 31
0.0
  0
LINE
  8
SUNPOU
 10
1650.623306
 20
2542.84901
 30
0.0
 11
1650.623306
 21
3442.84901
 31
0.0
  0
INSERT
  8
SUNPOU
  2
ARROWANG
 10
1650.623306
 20
2542.84901
 30
0.0
 41
30.0
 42
30.0
 50
270.0
 43
30.0
  0
INSERT
  8
SUNPOU
  2
ARROWANG
 10
1650.623306
 20
3442.84901
 30
0.0
 41
30.0
 42
30.0
 50
90.0
 43
30.0
  0
TEXT
  8
SUNPOU
 10
1605.623306
 20
2928.563296
 30
0.0
 40
45.0
  1
900
 50
90.0
  7
K
 72
     1
 11
1605.623306
 21
2992.84901
 31
0.0
  0
LINE
  8
SUNPOU
 10
1967.623306
 20
3419.84901
 30
0.0
 11
1770.623306
 21
3419.84901
 31
0.0
  0
LINE
  8
SUNPOU
 10
1830.623306
 20
3442.84901
 30
0.0
 11
1830.623306
 21
3442.84901
 31
0.0
  0
LINE
  8
SUNPOU
 10
1800.623306
 20
3419.84901
 30
0.0
 11
1800.623306
 21
3442.84901
 31
0.0
  0
INSERT
  8
SUNPOU
  2
ARROWANG
 10
1800.623306
 20
3419.84901
 30
0.0
 41
30.0
 42
30.0
 50
90.0
 43
30.0
  0
INSERT
  8
SUNPOU
  2
ARROWANG
 10
1800.623306
 20
3442.84901
 30
0.0
 41
30.0
 42
30.0
 50
270.0
 43
30.0
  0
LINE
  8
SUNPOU
 10
1800.623306
 20
3419.84901
 30
0.0
 11
1800.623306
 21
3320.84901
 31
0.0
  0
LINE
  8
SUNPOU
 10
1800.623306
 20
3442.84901
 30
0.0
 11
1800.623306
 21
3502.84901
 31
0.0
  0
TEXT
  8
SUNPOU
 10
1755.623306
 20
3327.491868
 30
0.0
 40
45.0
  1
23
 50
90.0
  7
K
 72
     1
 11
1755.623306
 21
3370.34901
 31
0.0
  0
LINE
  8
SUNPOU
 10
1967.623306
 20
2527.84901
 30
0.0
 11
1770.623306
 21
2527.84901
 31
0.0
  0
LINE
  8
SUNPOU
 10
1830.623306
 20
2542.84901
 30
0.0
 11
1830.623306
 21
2542.84901
 31
0.0
  0
LINE
  8
SUNPOU
 10
1800.623306
 20
2527.84901
 30
0.0
 11
1800.623306
 21
2542.84901
 31
0.0
  0
INSERT
  8
SUNPOU
  2
ARROWANG
 10
1800.623306
 20
2527.84901
 30
0.0
 41
30.0
 42
30.0
 50
90.0
 43
30.0
  0
INSERT
  8
SUNPOU
  2
ARROWANG
 10
1800.623306
 20
2542.84901
 30
0.0
 41
30.0
 42
30.0
 50
270.0
 43
30.0
  0
LINE
  8
SUNPOU
 10
1800.623306
 20
2542.84901
 30
0.0
 11
1800.623306
 21
2641.84901
 31
0.0
  0
LINE
  8
SUNPOU
 10
1800.623306
 20
2527.84901
 30
0.0
 11
1800.623307
 21
2467.84901
 31
0.0
  0
TEXT
  8
SUNPOU
 10
1755.623306
 20
2546.277582
 30
0.0
 40
45.0
  1
15
 50
90.0
  7
K
 72
     1
 11
1755.623306
 21
2592.34901
 31
0.0
  0
LINE
  8
SUNPOU
 10
2620.788348
 20
3342.84901
 30
0.0
 11
2880.623306
 21
3342.84901
 31
0.0
  0
LINE
  8
SUNPOU
 10
2730.623306
 20
3442.84901
 30
0.0
 11
2880.623306
 21
3442.84901
 31
0.0
  0
LINE
  8
SUNPOU
 10
2850.623306
 20
3342.84901
 30
0.0
 11
2850.623306
 21
3442.84901
 31
0.0
  0
INSERT
  8
SUNPOU
  2
ARROWANG
 10
2850.623306
 20
3342.84901
 30
0.0
 41
30.0
 42
30.0
 50
90.0
 43
30.0
  0
INSERT
  8
SUNPOU
  2
ARROWANG
 10
2850.623306
 20
3442.84901
 30
0.0
 41
30.0
 42
30.0
 50
270.0
 43
30.0
  0
LINE
  8
SUNPOU
 10
2850.623306
 20
3342.84901
 30
0.0
 11
2850.623306
 21
3194.34901
 31
0.0
  0
LINE
  8
SUNPOU
 10
2850.623306
 20
3442.84901
 30
0.0
 11
2850.623306
 21
3502.84901
 31
0.0
  0
TEXT
  8
SUNPOU
 10
2805.623306
 20
3201.09901
 30
0.0
 40
45.0
  1
100
 50
90.0
  7
K
 72
     1
 11
2805.623306
 21
3268.59901
 31
0.0
  0
LINE
  8
SUNPOU
 10
1991.623306
 20
2512.84901
 30
0.0
 11
1991.623306
 21
2197.84901
 31
0.0
  0
LINE
  8
SUNPOU
 10
2659.623306
 20
2512.84901
 30
0.0
 11
2659.623306
 21
2197.84901
 31
0.0
  0
LINE
  8
SUNPOU
 10
1991.623306
 20
2227.84901
 30
0.0
 11
2659.623306
 21
2227.84901
 31
0.0
  0
INSERT
  8
SUNPOU
  2
ARROWANG
 10
1991.623306
 20
2227.84901
 30
0.0
 41
30.0
 42
30.0
 50
180.0
 43
30.0
  0
INSERT
  8
SUNPOU
  2
ARROWANG
 10
2659.623306
 20
2227.84901
 30
0.0
 41
30.0
 42
30.0
 43
30.0
  0
TEXT
  8
SUNPOU
 10
2260.266177
 20
2272.84901
 30
0.0
 40
45.0
  1
668
  7
K
 72
     1
 11
2325.62332
 21
2272.84901
 31
0.0
  0
LINE
  8
SUNPOU
 10
2000.623306
 20
2497.84901
 30
0.0
 11
2000.623306
 21
2347.84901
 31
0.0
  0
LINE
  8
SUNPOU
 10
2650.623306
 20
2497.84901
 30
0.0
 11
2650.623306
 21
2347.84901
 31
0.0
  0
LINE
  8
SUNPOU
 10
2000.623306
 20
2377.84901
 30
0.0
 11
2650.623306
 21
2377.84901
 31
0.0
  0
INSERT
  8
SUNPOU
  2
ARROWANG
 10
2000.623306
 20
2377.84901
 30
0.0
 41
30.0
 42
30.0
 50
180.0
 43
30.0
  0
INSERT
  8
SUNPOU
  2
ARROWANG
 10
2650.623306
 20
2377.84901
 30
0.0
 41
30.0
 42
30.0
 43
30.0
  0
TEXT
  8
SUNPOU
 10
2260.266177
 20
2422.84901
 30
0.0
 40
45.0
  1
650
  7
K
 72
     1
 11
2325.62332
 21
2422.84901
 31
0.0
  0
LINE
  8
SUNPOU
 10
2145.623306
 20
2527.84901
 30
0.0
 11
2145.623306
 21
2527.84901
 31
0.0
  0
LINE
  8
SUNPOU
 10
2145.623306
 20
3419.84901
 30
0.0
 11
2145.623306
 21
3419.84901
 31
0.0
  0
LINE
  8
SUNPOU
 10
2175.623306
 20
2527.84901
 30
0.0
 11
2175.623306
 21
3419.84901
 31
0.0
  0
INSERT
  8
SUNPOU
  2
ARROWANG
 10
2175.623306
 20
2527.84901
 30
0.0
 41
30.0
 42
30.0
 50
270.0
 43
30.0
  0
INSERT
  8
SUNPOU
  2
ARROWANG
 10
2175.623306
 20
3419.84901
 30
0.0
 41
30.0
 42
30.0
 50
90.0
 43
30.0
  0
TEXT
  8
SUNPOU
 10
2130.623306
 20
2909.563296
 30
0.0
 40
45.0
  1
892
 50
90.0
  7
K
 72
     1
 11
2130.623306
 21
2973.84901
 31
0.0
  0
TEXT
  8
SUNPOU
 10
4060.266177
 20
2722.84901
 30
0.0
 40
45.0
  1
650
  7
K
 72
     1
 11
4125.62332
 21
2722.84901
 31
0.0
  0
INSERT
  8
SUNPOU
  2
ARROWANG
 10
4450.623306
 20
2677.84901
 30
0.0
 41
30.0
 42
30.0
 43
30.0
  0
INSERT
  8
SUNPOU
  2
ARROWANG
 10
3800.623306
 20
2677.84901
 30
0.0
 41
30.0
 42
30.0
 50
180.0
 43
30.0
  0
LINE
  8
SUNPOU
 10
3800.623306
 20
2677.84901
 30
0.0
 11
4450.623306
 21
2677.84901
 31
0.0
  0
LINE
  8
SUNPOU
 10
4450.623306
 20
2797.84901
 30
0.0
 11
4450.623306
 21
2647.84901
 31
0.0
  0
LINE
  8
SUNPOU
 10
3800.623306
 20
2797.84901
 30
0.0
 11
3800.623306
 21
2647.84901
 31
0.0
  0
TEXT
  8
SUNPOU
 10
4060.266177
 20
2572.84901
 30
0.0
 40
45.0
  1
668
  7
K
 72
     1
 11
4125.62332
 21
2572.84901
 31
0.0
  0
INSERT
  8
SUNPOU
  2
ARROWANG
 10
4459.623306
 20
2527.84901
 30
0.0
 41
30.0
 42
30.0
 43
30.0
  0
INSERT
  8
SUNPOU
  2
ARROWANG
 10
3791.623306
 20
2527.84901
 30
0.0
 41
30.0
 42
30.0
 50
180.0
 43
30.0
  0
LINE
  8
SUNPOU
 10
3791.623306
 20
2527.84901
 30
0.0
 11
4459.623306
 21
2527.84901
 31
0.0
  0
LINE
  8
SUNPOU
 10
4459.623306
 20
2812.84901
 30
0.0
 11
4459.623306
 21
2497.84901
 31
0.0
  0
LINE
  8
SUNPOU
 10
3791.623306
 20
2812.84901
 30
0.0
 11
3791.623306
 21
2497.84901
 31
0.0
  0
TEXT
  8
SUNPOU
 10
4605.623306
 20
3201.09901
 30
0.0
 40
45.0
  1
100
 50
90.0
  7
K
 72
     1
 11
4605.623306
 21
3268.59901
 31
0.0
  0
LINE
  8
SUNPOU
 10
4650.623306
 20
3442.84901
 30
0.0
 11
4650.623306
 21
3502.84901
 31
0.0
  0
LINE
  8
SUNPOU
 10
4650.623306
 20
3342.84901
 30
0.0
 11
4650.623306
 21
3194.34901
 31
0.0
  0
INSERT
  8
SUNPOU
  2
ARROWANG
 10
4650.623306
 20
3442.84901
 30
0.0
 41
30.0
 42
30.0
 50
270.0
 43
30.0
  0
INSERT
  8
SUNPOU
  2
ARROWANG
 10
4650.623306
 20
3342.84901
 30
0.0
 41
30.0
 42
30.0
 50
90.0
 43
30.0
  0
LINE
  8
SUNPOU
 10
4650.623306
 20
3342.84901
 30
0.0
 11
4650.623306
 21
3442.84901
 31
0.0
  0
LINE
  8
SUNPOU
 10
4530.623306
 20
3442.84901
 30
0.0
 11
4680.623306
 21
3442.84901
 31
0.0
  0
LINE
  8
SUNPOU
 10
4420.788348
 20
3342.84901
 30
0.0
 11
4680.623306
 21
3342.84901
 31
0.0
  0
TEXT
  8
SUNPOU
 10
3555.623306
 20
2846.277582
 30
0.0
 40
45.0
  1
15
 50
90.0
  7
K
 72
     1
 11
3555.623306
 21
2892.34901
 31
0.0
  0
LINE
  8
SUNPOU
 10
3600.623306
 20
2827.84901
 30
0.0
 11
3600.623307
 21
2767.84901
 31
0.0
  0
LINE
  8
SUNPOU
 10
3600.623306
 20
2842.84901
 30
0.0
 11
3600.623306
 21
2941.84901
 31
0.0
  0
INSERT
  8
SUNPOU
  2
ARROWANG
 10
3600.623306
 20
2842.84901
 30
0.0
 41
30.0
 42
30.0
 50
270.0
 43
30.0
  0
INSERT
  8
SUNPOU
  2
ARROWANG
 10
3600.623306
 20
2827.84901
 30
0.0
 41
30.0
 42
30.0
 50
90.0
 43
30.0
  0
LINE
  8
SUNPOU
 10
3600.623306
 20
2827.84901
 30
0.0
 11
3600.623306
 21
2842.84901
 31
0.0
  0
LINE
  8
SUNPOU
 10
3630.623306
 20
2842.84901
 30
0.0
 11
3630.623306
 21
2842.84901
 31
0.0
  0
LINE
  8
SUNPOU
 10
3767.623306
 20
2827.84901
 30
0.0
 11
3570.623306
 21
2827.84901
 31
0.0
  0
TEXT
  8
SUNPOU
 10
3555.623306
 20
3327.491868
 30
0.0
 40
45.0
  1
23
 50
90.0
  7
K
 72
     1
 11
3555.623306
 21
3370.34901
 31
0.0
  0
LINE
  8
SUNPOU
 10
3600.623306
 20
3442.84901
 30
0.0
 11
3600.623306
 21
3502.84901
 31
0.0
  0
LINE
  8
SUNPOU
 10
3600.623306
 20
3419.84901
 30
0.0
 11
3600.623306
 21
3320.84901
 31
0.0
  0
INSERT
  8
SUNPOU
  2
ARROWANG
 10
3600.623306
 20
3442.84901
 30
0.0
 41
30.0
 42
30.0
 50
270.0
 43
30.0
  0
INSERT
  8
SUNPOU
  2
ARROWANG
 10
3600.623306
 20
3419.84901
 30
0.0
 41
30.0
 42
30.0
 50
90.0
 43
30.0
  0
LINE
  8
SUNPOU
 10
3600.623306
 20
3419.84901
 30
0.0
 11
3600.623306
 21
3442.84901
 31
0.0
  0
LINE
  8
SUNPOU
 10
3630.623306
 20
3442.84901
 30
0.0
 11
3630.623306
 21
3442.84901
 31
0.0
  0
LINE
  8
SUNPOU
 10
3767.623306
 20
3419.84901
 30
0.0
 11
3570.623306
 21
3419.84901
 31
0.0
  0
LINE
  8
SUNPOU
 10
3720.623306
 20
3442.84901
 30
0.0
 11
3420.623306
 21
3442.84901
 31
0.0
  0
LINE
  8
SUNPOU
 10
3720.623306
 20
2842.84901
 30
0.0
 11
3420.623306
 21
2842.84901
 31
0.0
  0
TEXT
  8
SUNPOU
 10
4060.266177
 20
3637.84901
 30
0.0
 40
45.0
  1
656
  7
K
 72
     1
 11
4125.62332
 21
3637.84901
 31
0.0
  0
INSERT
  8
SUNPOU
  2
ARROWANG
 10
4453.623306
 20
3592.84901
 30
0.0
 41
30.0
 42
30.0
 43
30.0
  0
INSERT
  8
SUNPOU
  2
ARROWANG
 10
3797.623306
 20
3592.84901
 30
0.0
 41
30.0
 42
30.0
 50
180.0
 43
30.0
  0
LINE
  8
SUNPOU
 10
3797.623306
 20
3592.84901
 30
0.0
 11
4453.623306
 21
3592.84901
 31
0.0
  0
LINE
  8
SUNPOU
 10
4453.623306
 20
3449.84901
 30
0.0
 11
4453.623306
 21
3622.84901
 31
0.0
  0
LINE
  8
SUNPOU
 10
3797.623306
 20
3449.84901
 30
0.0
 11
3797.623306
 21
3622.84901
 31
0.0
  0
TEXT
  8
SUNPOU
 10
4060.266177
 20
3787.84901
 30
0.0
 40
45.0
  1
670
  7
K
 72
     1
 11
4125.62332
 21
3787.84901
 31
0.0
  0
INSERT
  8
SUNPOU
  2
ARROWANG
 10
4460.623306
 20
3742.84901
 30
0.0
 41
30.0
 42
30.0
 43
30.0
  0
INSERT
  8
SUNPOU
  2
ARROWANG
 10
3790.623306
 20
3742.84901
 30
0.0
 41
30.0
 42
30.0
 50
180.0
 43
30.0
  0
LINE
  8
SUNPOU
 10
3790.623306
 20
3742.84901
 30
0.0
 11
4460.623306
 21
3742.84901
 31
0.0
  0
LINE
  8
SUNPOU
 10
4460.623306
 20
3712.84901
 30
0.0
 11
4460.623306
 21
3712.84901
 31
0.0
  0
LINE
  8
SUNPOU
 10
3790.623306
 20
3712.84901
 30
0.0
 11
3790.623306
 21
3712.84901
 31
0.0
  0
LINE
  8
SUNPOU
 10
4460.623306
 20
3472.84901
 30
0.0
 11
4460.623306
 21
3772.84901
 31
0.0
  0
LINE
  8
SUNPOU
 10
3790.623306
 20
3472.84901
 30
0.0
 11
3790.623306
 21
3772.84901
 31
0.0
  0
LINE
  8
SUNPOU
 10
4425.623306
 20
3892.84901
 30
0.0
 11
4365.623306
 21
3892.84901
 31
0.0
  0
LINE
  8
SUNPOU
 10
4500.623306
 20
3892.84901
 30
0.0
 11
4560.623306
 21
3892.84901
 31
0.0
  0
TEXT
  8
SUNPOU
 10
4420.266177
 20
3937.84901
 30
0.0
 40
45.0
  1
75
  7
K
 72
     1
 11
4463.12332
 21
3937.84901
 31
0.0
  0
INSERT
  8
SUNPOU
  2
ARROWANG
 10
4425.623306
 20
3892.84901
 30
0.0
 41
30.0
 42
30.0
 43
30.0
  0
INSERT
  8
SUNPOU
  2
ARROWANG
 10
4500.623306
 20
3892.84901
 30
0.0
 41
30.0
 42
30.0
 50
180.0
 43
30.0
  0
LINE
  8
SUNPOU
 10
4425.623306
 20
3892.84901
 30
0.0
 11
4500.623306
 21
3892.84901
 31
0.0
  0
LINE
  8
SUNPOU
 10
4500.623306
 20
3472.84901
 30
0.0
 11
4500.623306
 21
3922.84901
 31
0.0
  0
LINE
  8
SUNPOU
 10
4425.623306
 20
3922.84901
 30
0.0
 11
4425.623306
 21
3922.84901
 31
0.0
  0
TEXT
  8
SUNPOU
 10
4044.194749
 20
3937.84901
 30
0.0
 40
45.0
  1
%%c600
  7
K
 72
     1
 11
4125.62332
 21
3937.84901
 31
0.0
  0
INSERT
  8
SUNPOU
  2
ARROWANG
 10
4425.623306
 20
3892.84901
 30
0.0
 41
30.0
 42
30.0
 43
30.0
  0
INSERT
  8
SUNPOU
  2
ARROWANG
 10
3825.623306
 20
3892.84901
 30
0.0
 41
30.0
 42
30.0
 50
180.0
 43
30.0
  0
LINE
  8
SUNPOU
 10
3825.623306
 20
3892.84901
 30
0.0
 11
4425.623306
 21
3892.84901
 31
0.0
  0
LINE
  8
SUNPOU
 10
4425.623306
 20
3449.84901
 30
0.0
 11
4425.623306
 21
3922.84901
 31
0.0
  0
LINE
  8
SUNPOU
 10
3825.623306
 20
3862.84901
 30
0.0
 11
3825.623306
 21
3862.84901
 31
0.0
  0
LINE
  8
SUNPOU
 10
3750.623306
 20
3892.84901
 30
0.0
 11
3690.623306
 21
3892.84901
 31
0.0
  0
LINE
  8
SUNPOU
 10
3825.623306
 20
3892.84901
 30
0.0
 11
3885.623306
 21
3892.84901
 31
0.0
  0
TEXT
  8
SUNPOU
 10
3745.266177
 20
3937.84901
 30
0.0
 40
45.0
  1
75
  7
K
 72
     1
 11
3788.12332
 21
3937.84901
 31
0.0
  0
INSERT
  8
SUNPOU
  2
ARROWANG
 10
3750.623306
 20
3892.84901
 30
0.0
 41
30.0
 42
30.0
 43
30.0
  0
INSERT
  8
SUNPOU
  2
ARROWANG
 10
3825.623306
 20
3892.84901
 30
0.0
 41
30.0
 42
30.0
 50
180.0
 43
30.0
  0
LINE
  8
SUNPOU
 10
3750.623306
 20
3892.84901
 30
0.0
 11
3825.623306
 21
3892.84901
 31
0.0
  0
LINE
  8
SUNPOU
 10
3825.623306
 20
3449.84901
 30
0.0
 11
3825.623306
 21
3922.84901
 31
0.0
  0
LINE
  8
SUNPOU
 10
3750.623306
 20
3472.84901
 30
0.0
 11
3750.623306
 21
3922.84901
 31
0.0
  0
CIRCLE
  8
TENSEN
 10
3860.458263
 20
2927.84901
 30
0.0
 40
7.5
  0
LINE
  8
ITTEN
 10
3860.458263
 20
2955.34901
 30
0.0
 11
3860.458263
 21
2900.34901
 31
0.0
  0
LINE
  8
ITTEN
 10
3832.958263
 20
2927.84901
 30
0.0
 11
3887.958263
 21
2927.84901
 31
0.0
  0
LINE
  8
ITTEN
 10
3832.958263
 20
3342.84901
 30
0.0
 11
3887.958263
 21
3342.84901
 31
0.0
  0
LINE
  8
ITTEN
 10
3860.458263
 20
3370.34901
 30
0.0
 11
3860.458263
 21
3315.34901
 31
0.0
  0
CIRCLE
  8
TENSEN
 10
3860.458263
 20
3342.84901
 30
0.0
 40
7.5
  0
CIRCLE
  8
JISSEN
 10
4390.788348
 20
3342.84901
 30
0.0
 40
7.5
  0
LINE
  8
ITTEN
 10
4390.788348
 20
3370.34901
 30
0.0
 11
4390.788348
 21
3315.34901
 31
0.0
  0
LINE
  8
ITTEN
 10
4418.288348
 20
3342.84901
 30
0.0
 11
4363.288348
 21
3342.84901
 31
0.0
  0
LINE
  8
ITTEN
 10
4125.623306
 20
3542.84901
 30
0.0
 11
4125.623306
 21
2777.07166
 31
0.0
  0
LINE
  8
JISSEN
 10
4500.623306
 20
3442.84901
 30
0.0
 11
4460.623306
 21
3442.84901
 31
0.0
  0
LINE
  8
TENSEN
 10
4460.623306
 20
3442.84901
 30
0.0
 11
4453.623306
 21
3419.84901
 31
0.0
  0
LINE
  8
TENSEN
 10
4453.623306
 20
3419.84901
 30
0.0
 11
4425.623306
 21
3419.84901
 31
0.0
  0
LINE
  8
JISSEN
 10
4500.623306
 20
3442.84901
 30
0.0
 11
4500.623306
 21
2842.84901
 31
0.0
  0
LINE
  8
JISSEN
 10
4500.623306
 20
2842.84901
 30
0.0
 11
4459.623306
 21
2842.84901
 31
0.0
  0
LINE
  8
JISSEN
 10
4459.623306
 20
2842.84901
 30
0.0
 11
4450.623306
 21
2827.84901
 31
0.0
  0
LINE
  8
JISSEN
 10
4450.623306
 20
2827.84901
 30
0.0
 11
4425.623306
 21
2827.84901
 31
0.0
  0
LINE
  8
TENSEN
 10
4425.623306
 20
3419.84901
 30
0.0
 11
4425.623306
 21
2827.84901
 31
0.0
  0
LINE
  8
TENSEN
 10
4425.623306
 20
3419.84901
 30
0.0
 11
4125.623306
 21
3419.84901
 31
0.0
  0
LINE
  8
JISSEN
 10
4425.623306
 20
2827.84901
 30
0.0
 11
4125.623306
 21
2827.84901
 31
0.0
  0
LINE
  8
JISSEN
 10
4459.623306
 20
2842.84901
 30
0.0
 11
4125.623306
 21
2842.84901
 31
0.0
  0
LINE
  8
JISSEN
 10
4460.623306
 20
3442.84901
 30
0.0
 11
4125.623306
 21
3442.84901
 31
0.0
  0
LINE
  8
JISSEN
 10
3790.623306
 20
3442.84901
 30
0.0
 11
4125.623306
 21
3442.84901
 31
0.0
  0
LINE
  8
TENSEN
 10
3791.623306
 20
2842.84901
 30
0.0
 11
4125.623306
 21
2842.84901
 31
0.0
  0
LINE
  8
JISSEN
 10
3825.623306
 20
2827.84901
 30
0.0
 11
4125.623306
 21
2827.84901
 31
0.0
  0
LINE
  8
JISSEN
 10
3825.623306
 20
3419.84901
 30
0.0
 11
4125.623306
 21
3419.84901
 31
0.0
  0
LINE
  8
JISSEN
 10
3825.623306
 20
3419.84901
 30
0.0
 11
3825.623306
 21
2827.84901
 31
0.0
  0
LINE
  8
JISSEN
 10
3800.623306
 20
2827.84901
 30
0.0
 11
3825.623306
 21
2827.84901
 31
0.0
  0
LINE
  8
JISSEN
 10
3791.623306
 20
2842.84901
 30
0.0
 11
3800.623306
 21
2827.84901
 31
0.0
  0
LINE
  8
JISSEN
 10
3750.623306
 20
2842.84901
 30
0.0
 11
3791.623306
 21
2842.84901
 31
0.0
  0
LINE
  8
JISSEN
 10
3750.623306
 20
3442.84901
 30
0.0
 11
3750.623306
 21
2842.84901
 31
0.0
  0
LINE
  8
JISSEN
 10
3797.623306
 20
3419.84901
 30
0.0
 11
3825.623306
 21
3419.84901
 31
0.0
  0
LINE
  8
JISSEN
 10
3790.623306
 20
3442.84901
 30
0.0
 11
3797.623306
 21
3419.84901
 31
0.0
  0
LINE
  8
JISSEN
 10
3750.623306
 20
3442.84901
 30
0.0
 11
3790.623306
 21
3442.84901
 31
0.0
  0
LINE
  8
SUNPOU
 10
3420.623306
 20
2842.84901
 30
0.0
 11
3420.623306
 21
2842.84901
 31
0.0
  0
LINE
  8
SUNPOU
 10
3420.623306
 20
3442.84901
 30
0.0
 11
3420.623306
 21
3442.84901
 31
0.0
  0
LINE
  8
SUNPOU
 10
3450.623306
 20
2842.84901
 30
0.0
 11
3450.623306
 21
3442.84901
 31
0.0
  0
INSERT
  8
SUNPOU
  2
ARROWANG
 10
3450.623306
 20
2842.84901
 30
0.0
 41
30.0
 42
30.0
 50
270.0
 43
30.0
  0
INSERT
  8
SUNPOU
  2
ARROWANG
 10
3450.623306
 20
3442.84901
 30
0.0
 41
30.0
 42
30.0
 50
90.0
 43
30.0
  0
TEXT
  8
SUNPOU
 10
3405.623306
 20
3077.491868
 30
0.0
 40
45.0
  1
600
 50
90.0
  7
K
 72
     1
 11
3405.623306
 21
3142.84901
 31
0.0
  0
LINE
  8
SUNPOU
 10
3945.623306
 20
2827.84901
 30
0.0
 11
3945.623306
 21
2827.84901
 31
0.0
  0
LINE
  8
SUNPOU
 10
3945.623306
 20
3419.84901
 30
0.0
 11
3945.623306
 21
3419.84901
 31
0.0
  0
LINE
  8
SUNPOU
 10
3975.623306
 20
2827.84901
 30
0.0
 11
3975.623306
 21
3419.84901
 31
0.0
  0
INSERT
  8
SUNPOU
  2
ARROWANG
 10
3975.623306
 20
2827.84901
 30
0.0
 41
30.0
 42
30.0
 50
270.0
 43
30.0
  0
INSERT
  8
SUNPOU
  2
ARROWANG
 10
3975.623306
 20
3419.84901
 30
0.0
 41
30.0
 42
30.0
 50
90.0
 43
30.0
  0
TEXT
  8
SUNPOU
 10
3930.623306
 20
3059.563296
 30
0.0
 40
45.0
  1
592
 50
90.0
  7
K
 72
     1
 11
3930.623306
 21
3123.84901
 31
0.0
  0
LINE
  8
JISSEN
 10
5575.623306
 20
3442.84901
 30
0.0
 11
5615.623306
 21
3442.84901
 31
0.0
  0
LINE
  8
JISSEN
 10
5615.623306
 20
3442.84901
 30
0.0
 11
5622.623306
 21
3419.84901
 31
0.0
  0
LINE
  8
JISSEN
 10
5622.623306
 20
3419.84901
 30
0.0
 11
5650.623306
 21
3419.84901
 31
0.0
  0
LINE
  8
JISSEN
 10
5575.623306
 20
3442.84901
 30
0.0
 11
5575.623306
 21
3142.84901
 31
0.0
  0
LINE
  8
JISSEN
 10
5575.623306
 20
3142.84901
 30
0.0
 11
5616.623306
 21
3142.84901
 31
0.0
  0
LINE
  8
JISSEN
 10
5616.623306
 20
3142.84901
 30
0.0
 11
5625.623306
 21
3127.84901
 31
0.0
  0
LINE
  8
JISSEN
 10
5625.623306
 20
3127.84901
 30
0.0
 11
5650.623306
 21
3127.84901
 31
0.0
  0
LINE
  8
JISSEN
 10
5650.623306
 20
3419.84901
 30
0.0
 11
5650.623306
 21
3127.84901
 31
0.0
  0
LINE
  8
JISSEN
 10
5650.623306
 20
3419.84901
 30
0.0
 11
5950.623306
 21
3419.84901
 31
0.0
  0
LINE
  8
JISSEN
 10
5650.623306
 20
3127.84901
 30
0.0
 11
5950.623306
 21
3127.84901
 31
0.0
  0
LINE
  8
TENSEN
 10
5616.623306
 20
3142.84901
 30
0.0
 11
5950.623306
 21
3142.84901
 31
0.0
  0
LINE
  8
JISSEN
 10
5615.623306
 20
3442.84901
 30
0.0
 11
5950.623306
 21
3442.84901
 31
0.0
  0
LINE
  8
JISSEN
 10
6285.623306
 20
3442.84901
 30
0.0
 11
5950.623306
 21
3442.84901
 31
0.0
  0
LINE
  8
JISSEN
 10
6284.623306
 20
3142.84901
 30
0.0
 11
5950.623306
 21
3142.84901
 31
0.0
  0
LINE
  8
JISSEN
 10
6250.623306
 20
3127.84901
 30
0.0
 11
5950.623306
 21
3127.84901
 31
0.0
  0
LINE
  8
TENSEN
 10
6250.623306
 20
3419.84901
 30
0.0
 11
5950.623306
 21
3419.84901
 31
0.0
  0
LINE
  8
TENSEN
 10
6250.623306
 20
3419.84901
 30
0.0
 11
6250.623306
 21
3127.84901
 31
0.0
  0
LINE
  8
JISSEN
 10
6275.623306
 20
3127.84901
 30
0.0
 11
6250.623306
 21
3127.84901
 31
0.0
  0
LINE
  8
JISSEN
 10
6284.623306
 20
3142.84901
 30
0.0
 11
6275.623306
 21
3127.84901
 31
0.0
  0
LINE
  8
JISSEN
 10
6325.623306
 20
3142.84901
 30
0.0
 11
6284.623306
 21
3142.84901
 31
0.0
  0
LINE
  8
JISSEN
 10
6325.623306
 20
3442.84901
 30
0.0
 11
6325.623306
 21
3142.84901
 31
0.0
  0
LINE
  8
TENSEN
 10
6278.623306
 20
3419.84901
 30
0.0
 11
6250.623306
 21
3419.84901
 31
0.0
  0
LINE
  8
TENSEN
 10
6285.623306
 20
3442.84901
 30
0.0
 11
6278.623306
 21
3419.84901
 31
0.0
  0
LINE
  8
JISSEN
 10
6325.623306
 20
3442.84901
 30
0.0
 11
6285.623306
 21
3442.84901
 31
0.0
  0
LINE
  8
ITTEN
 10
5950.623306
 20
3542.84901
 30
0.0
 11
5950.623306
 21
3077.07166
 31
0.0
  0
CIRCLE
  8
JISSEN
 10
6215.788348
 20
3242.84901
 30
0.0
 40
7.5
  0
LINE
  8
ITTEN
 10
6215.788348
 20
3270.34901
 30
0.0
 11
6215.788348
 21
3215.34901
 31
0.0
  0
LINE
  8
ITTEN
 10
6243.288348
 20
3242.84901
 30
0.0
 11
6188.288348
 21
3242.84901
 31
0.0
  0
LINE
  8
ITTEN
 10
6243.288348
 20
3342.84901
 30
0.0
 11
6188.288348
 21
3342.84901
 31
0.0
  0
LINE
  8
ITTEN
 10
6215.788348
 20
3370.34901
 30
0.0
 11
6215.788348
 21
3315.34901
 31
0.0
  0
CIRCLE
  8
JISSEN
 10
6215.788348
 20
3342.84901
 30
0.0
 40
7.5
  0
CIRCLE
  8
TENSEN
 10
5685.458263
 20
3342.84901
 30
0.0
 40
7.5
  0
LINE
  8
ITTEN
 10
5685.458263
 20
3370.34901
 30
0.0
 11
5685.458263
 21
3315.34901
 31
0.0
  0
LINE
  8
ITTEN
 10
5657.958263
 20
3342.84901
 30
0.0
 11
5712.958263
 21
3342.84901
 31
0.0
  0
LINE
  8
ITTEN
 10
5657.958263
 20
3227.84901
 30
0.0
 11
5712.958263
 21
3227.84901
 31
0.0
  0
LINE
  8
ITTEN
 10
5685.458263
 20
3255.34901
 30
0.0
 11
5685.458263
 21
3200.34901
 31
0.0
  0
CIRCLE
  8
TENSEN
 10
5685.458263
 20
3227.84901
 30
0.0
 40
7.5
  0
LINE
  8
SUNPOU
 10
5575.623306
 20
3472.84901
 30
0.0
 11
5575.623306
 21
3922.84901
 31
0.0
  0
LINE
  8
SUNPOU
 10
5650.623306
 20
3449.84901
 30
0.0
 11
5650.623306
 21
3922.84901
 31
0.0
  0
LINE
  8
SUNPOU
 10
5575.623306
 20
3892.84901
 30
0.0
 11
5650.623306
 21
3892.84901
 31
0.0
  0
INSERT
  8
SUNPOU
  2
ARROWANG
 10
5650.623306
 20
3892.84901
 30
0.0
 41
30.0
 42
30.0
 50
180.0
 43
30.0
  0
INSERT
  8
SUNPOU
  2
ARROWANG
 10
5575.623306
 20
3892.84901
 30
0.0
 41
30.0
 42
30.0
 43
30.0
  0
TEXT
  8
SUNPOU
 10
5570.266177
 20
3937.84901
 30
0.0
 40
45.0
  1
75
  7
K
 72
     1
 11
5613.12332
 21
3937.84901
 31
0.0
  0
LINE
  8
SUNPOU
 10
5650.623306
 20
3892.84901
 30
0.0
 11
5710.623306
 21
3892.84901
 31
0.0
  0
LINE
  8
SUNPOU
 10
5575.623306
 20
3892.84901
 30
0.0
 11
5515.623306
 21
3892.84901
 31
0.0
  0
LINE
  8
SUNPOU
 10
5650.623306
 20
3862.84901
 30
0.0
 11
5650.623306
 21
3862.84901
 31
0.0
  0
LINE
  8
SUNPOU
 10
6250.623306
 20
3449.84901
 30
0.0
 11
6250.623306
 21
3922.84901
 31
0.0
  0
LINE
  8
SUNPOU
 10
5650.623306
 20
3892.84901
 30
0.0
 11
6250.623306
 21
3892.84901
 31
0.0
  0
INSERT
  8
SUNPOU
  2
ARROWANG
 10
5650.623306
 20
3892.84901
 30
0.0
 41
30.0
 42
30.0
 50
180.0
 43
30.0
  0
INSERT
  8
SUNPOU
  2
ARROWANG
 10
6250.623306
 20
3892.84901
 30
0.0
 41
30.0
 42
30.0
 43
30.0
  0
TEXT
  8
SUNPOU
 10
5869.194749
 20
3937.84901
 30
0.0
 40
45.0
  1
%%C600
  7
K
 72
     1
 11
5950.62332
 21
3937.84901
 31
0.0
  0
LINE
  8
SUNPOU
 10
6250.623306
 20
3922.84901
 30
0.0
 11
6250.623306
 21
3922.84901
 31
0.0
  0
LINE
  8
SUNPOU
 10
6325.623306
 20
3472.84901
 30
0.0
 11
6325.623306
 21
3922.84901
 31
0.0
  0
LINE
  8
SUNPOU
 10
6250.623306
 20
3892.84901
 30
0.0
 11
6325.623306
 21
3892.84901
 31
0.0
  0
INSERT
  8
SUNPOU
  2
ARROWANG
 10
6325.623306
 20
3892.84901
 30
0.0
 41
30.0
 42
30.0
 50
180.0
 43
30.0
  0
INSERT
  8
SUNPOU
  2
ARROWANG
 10
6250.623306
 20
3892.84901
 30
0.0
 41
30.0
 42
30.0
 43
30.0
  0
TEXT
  8
SUNPOU
 10
6245.266177
 20
3937.84901
 30
0.0
 40
45.0
  1
75
  7
K
 72
     1
 11
6288.12332
 21
3937.84901
 31
0.0
  0
LINE
  8
SUNPOU
 10
6325.623306
 20
3892.84901
 30
0.0
 11
6385.623306
 21
3892.84901
 31
0.0
  0
LINE
  8
SUNPOU
 10
6250.623306
 20
3892.84901
 30
0.0
 11
6190.623306
 21
3892.84901
 31
0.0
  0
LINE
  8
SUNPOU
 10
5615.623306
 20
3472.84901
 30
0.0
 11
5615.623306
 21
3772.84901
 31
0.0
  0
LINE
  8
SUNPOU
 10
6285.623306
 20
3472.84901
 30
0.0
 11
6285.623306
 21
3772.84901
 31
0.0
  0
LINE
  8
SUNPOU
 10
5615.623306
 20
3712.84901
 30
0.0
 11
5615.623306
 21
3712.84901
 31
0.0
  0
LINE
  8
SUNPOU
 10
6285.623306
 20
3712.84901
 30
0.0
 11
6285.623306
 21
3712.84901
 31
0.0
  0
LINE
  8
SUNPOU
 10
5615.623306
 20
3742.84901
 30
0.0
 11
6285.623306
 21
3742.84901
 31
0.0
  0
INSERT
  8
SUNPOU
  2
ARROWANG
 10
5615.623306
 20
3742.84901
 30
0.0
 41
30.0
 42
30.0
 50
180.0
 43
30.0
  0
INSERT
  8
SUNPOU
  2
ARROWANG
 10
6285.623306
 20
3742.84901
 30
0.0
 41
30.0
 42
30.0
 43
30.0
  0
TEXT
  8
SUNPOU
 10
5885.266177
 20
3787.84901
 30
0.0
 40
45.0
  1
670
  7
K
 72
     1
 11
5950.62332
 21
3787.84901
 31
0.0
  0
LINE
  8
SUNPOU
 10
5622.623306
 20
3449.84901
 30
0.0
 11
5622.623306
 21
3622.84901
 31
0.0
  0
LINE
  8
SUNPOU
 10
6278.623306
 20
3449.84901
 30
0.0
 11
6278.623306
 21
3622.84901
 31
0.0
  0
LINE
  8
SUNPOU
 10
5622.623306
 20
3592.84901
 30
0.0
 11
6278.623306
 21
3592.84901
 31
0.0
  0
INSERT
  8
SUNPOU
  2
ARROWANG
 10
5622.623306
 20
3592.84901
 30
0.0
 41
30.0
 42
30.0
 50
180.0
 43
30.0
  0
INSERT
  8
SUNPOU
  2
ARROWANG
 10
6278.623306
 20
3592.84901
 30
0.0
 41
30.0
 42
30.0
 43
30.0
  0
TEXT
  8
SUNPOU
 10
5885.266177
 20
3637.84901
 30
0.0
 40
45.0
  1
656
  7
K
 72
     1
 11
5950.62332
 21
3637.84901
 31
0.0
  0
LINE
  8
SUNPOU
 10
5545.623306
 20
3142.84901
 30
0.0
 11
5245.623306
 21
3142.84901
 31
0.0
  0
LINE
  8
SUNPOU
 10
5545.623306
 20
3442.84901
 30
0.0
 11
5245.623306
 21
3442.84901
 31
0.0
  0
LINE
  8
SUNPOU
 10
5592.623306
 20
3419.84901
 30
0.0
 11
5395.623306
 21
3419.84901
 31
0.0
  0
LINE
  8
SUNPOU
 10
5455.623306
 20
3442.84901
 30
0.0
 11
5455.623306
 21
3442.84901
 31
0.0
  0
LINE
  8
SUNPOU
 10
5425.623306
 20
3419.84901
 30
0.0
 11
5425.623306
 21
3442.84901
 31
0.0
  0
INSERT
  8
SUNPOU
  2
ARROWANG
 10
5425.623306
 20
3419.84901
 30
0.0
 41
30.0
 42
30.0
 50
90.0
 43
30.0
  0
INSERT
  8
SUNPOU
  2
ARROWANG
 10
5425.623306
 20
3442.84901
 30
0.0
 41
30.0
 42
30.0
 50
270.0
 43
30.0
  0
LINE
  8
SUNPOU
 10
5425.623306
 20
3419.84901
 30
0.0
 11
5425.623306
 21
3320.84901
 31
0.0
  0
LINE
  8
SUNPOU
 10
5425.623306
 20
3442.84901
 30
0.0
 11
5425.623306
 21
3502.84901
 31
0.0
  0
TEXT
  8
SUNPOU
 10
5380.623306
 20
3327.491868
 30
0.0
 40
45.0
  1
23
 50
90.0
  7
K
 72
     1
 11
5380.623306
 21
3370.34901
 31
0.0
  0
LINE
  8
SUNPOU
 10
5592.623306
 20
3127.84901
 30
0.0
 11
5395.623306
 21
3127.84901
 31
0.0
  0
LINE
  8
SUNPOU
 10
5455.623306
 20
3142.84901
 30
0.0
 11
5455.623306
 21
3142.84901
 31
0.0
  0
LINE
  8
SUNPOU
 10
5425.623306
 20
3127.84901
 30
0.0
 11
5425.623306
 21
3142.84901
 31
0.0
  0
INSERT
  8
SUNPOU
  2
ARROWANG
 10
5425.623306
 20
3127.84901
 30
0.0
 41
30.0
 42
30.0
 50
90.0
 43
30.0
  0
INSERT
  8
SUNPOU
  2
ARROWANG
 10
5425.623306
 20
3142.84901
 30
0.0
 41
30.0
 42
30.0
 50
270.0
 43
30.0
  0
LINE
  8
SUNPOU
 10
5425.623306
 20
3142.84901
 30
0.0
 11
5425.623306
 21
3241.84901
 31
0.0
  0
LINE
  8
SUNPOU
 10
5425.623306
 20
3127.84901
 30
0.0
 11
5425.623307
 21
3067.84901
 31
0.0
  0
TEXT
  8
SUNPOU
 10
5380.623306
 20
3146.277582
 30
0.0
 40
45.0
  1
15
 50
90.0
  7
K
 72
     1
 11
5380.623306
 21
3192.34901
 31
0.0
  0
LINE
  8
SUNPOU
 10
6245.788348
 20
3342.84901
 30
0.0
 11
6505.623306
 21
3342.84901
 31
0.0
  0
LINE
  8
SUNPOU
 10
6355.623306
 20
3442.84901
 30
0.0
 11
6505.623306
 21
3442.84901
 31
0.0
  0
LINE
  8
SUNPOU
 10
5616.623306
 20
3112.84901
 30
0.0
 11
5616.623306
 21
2797.84901
 31
0.0
  0
LINE
  8
SUNPOU
 10
6284.623306
 20
3112.84901
 30
0.0
 11
6284.623306
 21
2797.84901
 31
0.0
  0
LINE
  8
SUNPOU
 10
5616.623306
 20
2827.84901
 30
0.0
 11
6284.623306
 21
2827.84901
 31
0.0
  0
INSERT
  8
SUNPOU
  2
ARROWANG
 10
5616.623306
 20
2827.84901
 30
0.0
 41
30.0
 42
30.0
 50
180.0
 43
30.0
  0
INSERT
  8
SUNPOU
  2
ARROWANG
 10
6284.623306
 20
2827.84901
 30
0.0
 41
30.0
 42
30.0
 43
30.0
  0
TEXT
  8
SUNPOU
 10
5885.266177
 20
2872.84901
 30
0.0
 40
45.0
  1
668
  7
K
 72
     1
 11
5950.62332
 21
2872.84901
 31
0.0
  0
LINE
  8
SUNPOU
 10
5625.623306
 20
3097.84901
 30
0.0
 11
5625.623306
 21
2947.84901
 31
0.0
  0
LINE
  8
SUNPOU
 10
6275.623306
 20
3097.84901
 30
0.0
 11
6275.623306
 21
2947.84901
 31
0.0
  0
LINE
  8
SUNPOU
 10
5625.623306
 20
2977.84901
 30
0.0
 11
6275.623306
 21
2977.84901
 31
0.0
  0
INSERT
  8
SUNPOU
  2
ARROWANG
 10
5625.623306
 20
2977.84901
 30
0.0
 41
30.0
 42
30.0
 50
180.0
 43
30.0
  0
INSERT
  8
SUNPOU
  2
ARROWANG
 10
6275.623306
 20
2977.84901
 30
0.0
 41
30.0
 42
30.0
 43
30.0
  0
TEXT
  8
SUNPOU
 10
5885.266177
 20
3022.84901
 30
0.0
 40
45.0
  1
650
  7
K
 72
     1
 11
5950.62332
 21
3022.84901
 31
0.0
  0
LINE
  8
SUNPOU
 10
5245.623306
 20
3142.84901
 30
0.0
 11
5245.623306
 21
3142.84901
 31
0.0
  0
LINE
  8
SUNPOU
 10
5245.623306
 20
3442.84901
 30
0.0
 11
5245.623306
 21
3442.84901
 31
0.0
  0
LINE
  8
SUNPOU
 10
5275.623306
 20
3142.84901
 30
0.0
 11
5275.623306
 21
3442.84901
 31
0.0
  0
INSERT
  8
SUNPOU
  2
ARROWANG
 10
5275.623306
 20
3142.84901
 30
0.0
 41
30.0
 42
30.0
 50
270.0
 43
30.0
  0
INSERT
  8
SUNPOU
  2
ARROWANG
 10
5275.623306
 20
3442.84901
 30
0.0
 41
30.0
 42
30.0
 50
90.0
 43
30.0
  0
TEXT
  8
SUNPOU
 10
5230.623306
 20
3228.563296
 30
0.0
 40
45.0
  1
300
 50
90.0
  7
K
 72
     1
 11
5230.623306
 21
3292.84901
 31
0.0
  0
LINE
  8
SUNPOU
 10
5770.623306
 20
3127.84901
 30
0.0
 11
5770.623306
 21
3127.84901
 31
0.0
  0
LINE
  8
SUNPOU
 10
5770.623306
 20
3419.84901
 30
0.0
 11
5770.623306
 21
3419.84901
 31
0.0
  0
LINE
  8
SUNPOU
 10
5800.623306
 20
3127.84901
 30
0.0
 11
5800.623306
 21
3419.84901
 31
0.0
  0
INSERT
  8
SUNPOU
  2
ARROWANG
 10
5800.623306
 20
3127.84901
 30
0.0
 41
30.0
 42
30.0
 50
270.0
 43
30.0
  0
INSERT
  8
SUNPOU
  2
ARROWANG
 10
5800.623306
 20
3419.84901
 30
0.0
 41
30.0
 42
30.0
 50
90.0
 43
30.0
  0
TEXT
  8
SUNPOU
 10
5755.623306
 20
3209.563296
 30
0.0
 40
45.0
  1
292
 50
90.0
  7
K
 72
     1
 11
5755.623306
 21
3273.84901
 31
0.0
  0
LINE
  8
SUNPOU
 10
6505.623306
 20
3342.84901
 30
0.0
 11
6505.623306
 21
3342.84901
 31
0.0
  0
LINE
  8
SUNPOU
 10
6505.623306
 20
3442.84901
 30
0.0
 11
6505.623306
 21
3442.84901
 31
0.0
  0
LINE
  8
SUNPOU
 10
6475.623306
 20
3342.84901
 30
0.0
 11
6475.623306
 21
3442.84901
 31
0.0
  0
INSERT
  8
SUNPOU
  2
ARROWANG
 10
6475.623306
 20
3342.84901
 30
0.0
 41
30.0
 42
30.0
 50
90.0
 43
30.0
  0
INSERT
  8
SUNPOU
  2
ARROWANG
 10
6475.623306
 20
3442.84901
 30
0.0
 41
30.0
 42
30.0
 50
270.0
 43
30.0
  0
LINE
  8
SUNPOU
 10
6475.623306
 20
3442.84901
 30
0.0
 11
6475.623306
 21
3591.34901
 31
0.0
  0
LINE
  8
SUNPOU
 10
6475.623306
 20
3342.84901
 30
0.0
 11
6475.623307
 21
3282.84901
 31
0.0
  0
TEXT
  8
SUNPOU
 10
6430.623306
 20
3449.59901
 30
0.0
 40
45.0
  1
100
 50
90.0
  7
K
 72
     1
 11
6430.623306
 21
3517.09901
 31
0.0
  0
LINE
  8
SUNPOU
 10
2730.623306
 20
2542.84901
 30
0.0
 11
2880.623306
 21
2542.84901
 31
0.0
  0
LINE
  8
SUNPOU
 10
2620.788348
 20
2642.84901
 30
0.0
 11
2880.623306
 21
2642.84901
 31
0.0
  0
LINE
  8
SUNPOU
 10
2850.623306
 20
2542.84901
 30
0.0
 11
2850.623306
 21
2642.84901
 31
0.0
  0
INSERT
  8
SUNPOU
  2
ARROWANG
 10
2850.623306
 20
2542.84901
 30
0.0
 41
30.0
 42
30.0
 50
90.0
 43
30.0
  0
INSERT
  8
SUNPOU
  2
ARROWANG
 10
2850.623306
 20
2642.84901
 30
0.0
 41
30.0
 42
30.0
 50
270.0
 43
30.0
  0
LINE
  8
SUNPOU
 10
2850.623306
 20
2642.84901
 30
0.0
 11
2850.623306
 21
2791.34901
 31
0.0
  0
LINE
  8
SUNPOU
 10
2850.623306
 20
2542.84901
 30
0.0
 11
2850.623307
 21
2482.84901
 31
0.0
  0
TEXT
  8
SUNPOU
 10
2805.623306
 20
2649.59901
 30
0.0
 40
45.0
  1
100
 50
90.0
  7
K
 72
     1
 11
2805.623306
 21
2717.09901
 31
0.0
  0
LINE
  8
SUNPOU
 10
6355.623306
 20
3142.84901
 30
0.0
 11
6505.623306
 21
3142.84901
 31
0.0
  0
LINE
  8
SUNPOU
 10
6245.788348
 20
3242.84901
 30
0.0
 11
6505.623306
 21
3242.84901
 31
0.0
  0
LINE
  8
SUNPOU
 10
6475.623306
 20
3142.84901
 30
0.0
 11
6475.623306
 21
3242.84901
 31
0.0
  0
INSERT
  8
SUNPOU
  2
ARROWANG
 10
6475.623306
 20
3142.84901
 30
0.0
 41
30.0
 42
30.0
 50
90.0
 43
30.0
  0
INSERT
  8
SUNPOU
  2
ARROWANG
 10
6475.623306
 20
3242.84901
 30
0.0
 41
30.0
 42
30.0
 50
270.0
 43
30.0
  0
LINE
  8
SUNPOU
 10
6475.623306
 20
3142.84901
 30
0.0
 11
6475.623306
 21
2994.34901
 31
0.0
  0
LINE
  8
SUNPOU
 10
6475.623306
 20
3242.84901
 30
0.0
 11
6475.623306
 21
3302.84901
 31
0.0
  0
TEXT
  8
SUNPOU
 10
6430.623306
 20
3001.09901
 30
0.0
 40
45.0
  1
100
 50
90.0
  7
K
 72
     1
 11
6430.623306
 21
3068.59901
 31
0.0
  0
TEXT
  8
SUNPOU
 10
4605.623306
 20
2949.59901
 30
0.0
 40
45.0
  1
100
 50
90.0
  7
K
 72
     1
 11
4605.623306
 21
3017.09901
 31
0.0
  0
LINE
  8
SUNPOU
 10
4650.623306
 20
2942.84901
 30
0.0
 11
4650.623306
 21
3091.34901
 31
0.0
  0
INSERT
  8
SUNPOU
  2
ARROWANG
 10
4650.623306
 20
2942.84901
 30
0.0
 41
30.0
 42
30.0
 50
270.0
 43
30.0
  0
LINE
  8
SUNPOU
 10
4420.788348
 20
2942.84901
 30
0.0
 11
4680.623306
 21
2942.84901
 31
0.0
  0
LINE
  8
ITTEN
 10
4418.288348
 20
2942.84901
 30
0.0
 11
4363.288348
 21
2942.84901
 31
0.0
  0
LINE
  8
ITTEN
 10
4390.788348
 20
2970.34901
 30
0.0
 11
4390.788348
 21
2915.34901
 31
0.0
  0
CIRCLE
  8
JISSEN
 10
4390.788348
 20
2942.84901
 30
0.0
 40
7.5
  0
LINE
  8
SUNPOU
 10
4650.623306
 20
2842.84901
 30
0.0
 11
4650.623307
 21
2782.84901
 31
0.0
  0
INSERT
  8
SUNPOU
  2
ARROWANG
 10
4650.623306
 20
2842.84901
 30
0.0
 41
30.0
 42
30.0
 50
90.0
 43
30.0
  0
LINE
  8
SUNPOU
 10
4650.623306
 20
2842.84901
 30
0.0
 11
4650.623306
 21
2942.84901
 31
0.0
  0
LINE
  8
SUNPOU
 10
4530.623306
 20
2842.84901
 30
0.0
 11
4680.623306
 21
2842.84901
 31
0.0
  0
TEXT
  8
TEXT
 10
3959.989835
 20
4290.698303
 30
0.0
 40
160.0
  1
直壁
  7
K
  0
TEXT
  8
TEXT
 10
2083.110298
 20
4035.690021
 30
0.0
 40
100.0
  1
MYS90
  7
K
  0
TEXT
  8
TEXT
 10
3868.227174
 20
4032.73675
 30
0.0
 40
100.0
  1
MYS60
  7
K
  0
TEXT
  8
TEXT
 10
5706.106124
 20
4030.456161
 30
0.0
 40
100.0
  1
MYS30
  7
K
  0
TEXT
  8
JISSEN
 10
1991.996717
 20
5154.94091
 30
0.0
 40
200.0
  1
組立マンホール構造図
  7
K
  0
TEXT
  8
JISSEN
 10
4816.844023
 20
5207.260648
 30
0.0
 40
133.333333
  1
( 内径 600mm )
  7
K
  0
POLYLINE
  8
WAKU
 66
     1
 10
0.0
 20
0.0
 30
0.0
 70
     1
  0
VERTEX
  8
WAKU
 10
0.0
 20
0.0
 30
0.0
  0
VERTEX
  8
WAKU
 10
7900.0
 20
0.0
 30
0.0
  0
VERTEX
  8
WAKU
 10
7900.0
 20
5460.0
 30
0.0
  0
VERTEX
  8
WAKU
 10
0.0
 20
5460.0
 30
0.0
  0
SEQEND
  8
WAKU
  0
TEXT
  8
TEXT
 10
7354.127645
 20
517.843316
 30
0.0
 40
100.0
  1
1/20
  7
K
  0
ENDSEC
  0
EOF
